  0
SECTION
  2
HEADER
  0
ENDSEC
  0
SECTION
  2
TABLES
  0
TABLE
  2
LTYPE
 70
     4
  0
LTYPE
  2
CONTINUOUS
 70
    64
  3
Solid line
 72
    65
 73
     0
 40
0.000000
  0
LTYPE
  2
DASHED
 70
    64
  3
__ __ __ __ __ __ __ __ __ __ __ __ __ __ __
 72
    65
 73
     2
 40
3.500000
 49
2.000000
 49
-1.500000
  0
LTYPE
  2
CENTER
 70
    64
  3
____ _ ____ _ ____ _ ____ _ ____ _ ____ _ ____
 72
    65
 73
     4
 40
17.500000
 49
13.000000
 49
-1.500000
 49
1.500000
 49
-1.500000
  0
LTYPE
  2
PHANTOM
 70
    64
  3
_____ _ _ _____ _ _ _____ _ _ _____ _ _ ____  
 72
    65
 73
     6
 40
15.500000
 49
8.000000
 49
-1.500000
 49
1.500000
 49
-1.500000
 49
1.500000
 49
-1.500000
  0
LTYPE
  2
DASHED1
 70
    64
  3
__ __ __ __ __ __ __ __ __ __ __ __ __ __ __
 72
    65
 73
     2
 40
1.500000
 49
1.000000
 49
-0.500000
  0
LTYPE
  2
DASHED2
 70
    64
  3
__ __ __ __ __ __ __ __ __ __ __ __ __ __ __
 72
    65
 73
     2
 40
3.500000
 49
2.500000
 49
-1.000000
  0
LTYPE
  2
DASHED3
 70
    64
  3
__ __ __ __ __ __ __ __ __ __ __ __ __ __ __
 72
    65
 73
     2
 40
6.000000
 49
4.000000
 49
-2.000000
  0
LTYPE
  2
DASHED4
 70
    64
  3
__ __ __ __ __ __ __ __ __ __ __ __ __ __ __
 72
    65
 73
     2
 40
12.000000
 49
10.000000
 49
-2.000000
  0
LTYPE
  2
DASHED5
 70
    64
  3
__ __ __ __ __ __ __ __ __ __ __ __ __ __ __
 72
    65
 73
     2
 40
17.000000
 49
15.000000
 49
-2.000000
  0
LTYPE
  2
DASHED6
 70
    64
  3
__ __ __ __ __ __ __ __ __ __ __ __ __ __ __
 72
    65
 73
     2
 40
29.000000
 49
27.000000
 49
-2.000000
  0
LTYPE
  2
PHANTOM1
 70
    64
  3
_____ _ _ _____ _ _ _____ _ _ _____ _ _ ____  
 72
    65
 73
     6
 40
31.000000
 49
25.000000
 49
-1.500000
 49
1.000000
 49
-1.000000
 49
1.000000
 49
-1.500000
  0
LTYPE
  2
PHANTOM2
 70
    64
  3
_____ _ _ _____ _ _ _____ _ _ _____ _ _ ____  
 72
    65
 73
     6
 40
36.000000
 49
27.000000
 49
-1.500000
 49
2.500000
 49
-1.000000
 49
2.500000
 49
-1.500000
  0
LTYPE
  2
PHANTOM3
 70
    64
  3
_____ _ _ _____ _ _ _____ _ _ _____ _ _ ____  
 72
    65
 73
     6
 40
78.000000
 49
64.000000
 49
-2.000000
 49
4.000000
 49
-2.000000
 49
4.000000
 49
-2.000000
  0
LTYPE
  2
CENTER1
 70
    64
  3
____ _ ____ _ ____ _ ____ _ ____ _ ____ _ ____
 72
    65
 73
     4
 40
19.000000
 49
14.000000
 49
-1.000000
 49
3.000000
 49
-1.000000
  0
LTYPE
  2
CENTER2
 70
    64
  3
____ _ ____ _ ____ _ ____ _ ____ _ ____ _ ____
 72
    65
 73
     4
 40
28.500000
 49
25.000000
 49
-1.000000
 49
1.500000
 49
-1.000000
  0
LTYPE
  2
CENTER3
 70
    64
  3
____ _ ____ _ ____ _ ____ _ ____ _ ____ _ ____
 72
    65
 73
     4
 40
31.500000
 49
27.000000
 49
-1.000000
 49
2.500000
 49
-1.000000
  0
LTYPE
  2
CENTER4
 70
    64
  3
____ _ ____ _ ____ _ ____ _ ____ _ ____ _ ____
 72
    65
 73
     4
 40
50.000000
 49
45.000000
 49
-1.000000
 49
3.000000
 49
-1.000000
  0
LTYPE
  2
CENTER5
 70
    64
  3
____ _ ____ _ ____ _ ____ _ ____ _ ____ _ ____
 72
    65
 73
     4
 40
100.000000
 49
92.000000
 49
-2.000000
 49
4.000000
 49
-2.000000
  0
LTYPE
  2
SBK1
 70
    64
  3
______ _ _ _ ______ _ _ _ ______ _ _ _ _____  
 72
    65
 73
     8
 40
60.500000
 49
45.000000
 49
-2.000000
 49
2.500000
 49
-2.000000
 49
2.500000
 49
-2.000000
 49
2.500000
 49
-2.000000
  0
LTYPE
  2
SBK2
 70
    64
  3
______ _ _ _ ______ _ _ _ ______ _ _ _ _____  
 72
    65
 73
     8
 40
84.000000
 49
64.000000
 49
-2.000000
 49
4.000000
 49
-2.000000
 49
4.000000
 49
-2.000000
 49
4.000000
 49
-2.000000
  0
LTYPE
  2
STCH
 70
    64
  3
__ __ __ __ __ __ __ __ __ __ __ __ __ __ __
 72
    65
 73
     2
 40
3.000000
 49
1.000000
 49
-2.000000
  0
LTYPE
  2
MTCH
 70
    64
  3
_____ _ _ _____ _ _ _____ _ _ _____ _ _ ____  
 72
    65
 73
     6
 40
80.000000
 49
66.000000
 49
-2.000000
 49
4.000000
 49
-2.000000
 49
4.000000
 49
-2.000000
  0
ENDTAB
  0
TABLE
  2
LAYER
 70
     1
  0
LAYER
  2
0
 70
     0
 62
     7
  6
CONTINUOUS
  0
ENDTAB
  0
TABLE
  2
STYLE
 70
     1
  0
STYLE
  2
STANDARD
 70
     0
 40
0.000000
 41
1.000000
 50
0.000000
 71
     0
 42
0.200000
  3
txt
  4
BIGFONT
  0
ENDTAB
  0
TABLE
  2
VIEW
 70
     0
  0
ENDTAB
  0
ENDSEC
  0
SECTION
  2
BLOCKS
  0
ENDSEC
  0
SECTION
  2
ENTITIES
  0
POINT
  8
0
 10
-250.873596
 20
174.999969
  0
POINT
  8
0
 10
-200.873596
 20
174.999969
  0
POINT
  8
0
 10
-250.873596
 20
59.999977
  0
POINT
  8
0
 10
-200.873596
 20
59.999977
  0
POINT
  8
0
 10
-82.373581
 20
59.999977
  0
POINT
  8
0
 10
115.000000
 20
174.999969
  0
POINT
  8
0
 10
175.000000
 20
174.999969
  0
POINT
  8
0
 10
115.000000
 20
59.999977
  0
POINT
  8
0
 10
175.000000
 20
59.999977
  0
POINT
  8
0
 10
292.000000
 20
59.999977
  0
POINT
  8
0
 10
-105.873596
 20
-54.558495
  0
POINT
  8
0
 10
-30.873581
 20
-54.558495
  0
POINT
  8
0
 10
-105.873596
 20
-184.558487
  0
POINT
  8
0
 10
-30.873558
 20
-184.558487
  0
POINT
  8
0
 10
129.126404
 20
-184.558487
  0
POINT
  8
0
 10
-95.873581
 20
59.999977
  0
POINT
  8
0
 10
275.000000
 20
59.999977
  0
POINT
  8
0
 10
109.126404
 20
-184.558487
  0
LINE
  8
0
 62
     3
 10
218.329163
 20
-225.956436
 11
370.873566
 21
-225.956436
  0
LINE
  8
0
 62
     3
 10
-218.329163
 20
225.956390
 11
-218.329163
 21
254.558487
  0
LINE
  8
0
 62
     3
 10
-370.873566
 20
225.956390
 11
-218.329163
 21
225.956390
  0
LINE
  8
0
 62
     3
 10
-370.873566
 20
254.558487
 11
370.873566
 21
254.558487
  0
LINE
  8
0
 62
     3
 10
-370.873566
 20
-254.558487
 11
370.873566
 21
-254.558487
  0
LINE
  8
0
 62
     3
 10
370.873566
 20
254.558487
 11
370.873566
 21
-254.558487
  0
LINE
  8
0
 62
     3
 10
-370.873566
 20
-254.558487
 11
-370.873566
 21
254.558487
  0
LINE
  8
0
 62
     3
 10
218.329163
 20
-225.956436
 11
218.329163
 21
-254.558487
  0
LINE
  8
0
 62
     3
 10
218.329163
 20
254.558487
 11
218.329163
 21
225.956390
  0
LINE
  8
0
 62
     3
 10
218.329163
 20
225.956390
 11
370.873566
 21
225.956390
  0
LINE
  8
0
 62
     5
 10
258.381622
 20
-232.833740
 11
258.381622
 21
-236.151566
  0
LINE
  8
0
 62
     5
 10
258.381622
 20
-236.151566
 11
270.823547
 21
-236.151566
  0
LINE
  8
0
 62
     5
 10
258.381622
 20
-249.146469
 11
275.247345
 21
-249.146469
  0
LINE
  8
0
 62
     5
 10
258.381622
 20
-245.828644
 11
270.823547
 21
-245.828644
  0
LINE
  8
0
 62
     5
 10
258.381622
 20
-232.833740
 11
273.035400
 21
-232.833740
  0
LINE
  8
0
 62
     5
 10
270.823547
 20
-236.151566
 11
270.823547
 21
-245.828644
  0
LINE
  8
0
 62
     5
 10
275.247345
 20
-235.045654
 11
275.247345
 21
-249.146469
  0
LINE
  8
0
 62
     5
 10
258.381622
 20
-245.828644
 11
258.381622
 21
-249.146469
  0
LINE
  8
0
 62
     5
 10
293.495392
 20
-236.151566
 11
293.495392
 21
-246.934647
  0
LINE
  8
0
 62
     5
 10
277.735657
 20
-232.833740
 11
277.735657
 21
-236.151566
  0
LINE
  8
0
 62
     5
 10
293.937836
 20
-232.584961
 11
295.513824
 21
-232.584961
  0
LINE
  8
0
 62
     5
 10
293.937836
 20
-230.373016
 11
295.513824
 21
-230.373016
  0
LINE
  8
0
 62
     5
 10
295.513824
 20
-230.373016
 11
295.513824
 21
-232.584961
  0
LINE
  8
0
 62
     5
 10
293.937836
 20
-230.373016
 11
293.937836
 21
-232.584961
  0
LINE
  8
0
 62
     5
 10
293.108276
 20
-230.373016
 11
293.108276
 21
-232.584961
  0
LINE
  8
0
 62
     5
 10
282.766052
 20
-230.373016
 11
286.200897
 21
-230.373016
  0
LINE
  8
0
 62
     5
 10
285.541260
 20
-232.833466
 11
286.200562
 21
-230.372711
  0
LINE
  8
0
 62
     5
 10
282.106689
 20
-232.833710
 11
282.766022
 21
-230.372986
  0
LINE
  8
0
 62
     5
 10
285.541565
 20
-232.833740
 11
290.177551
 21
-232.833740
  0
LINE
  8
0
 62
     5
 10
284.652557
 20
-236.151566
 11
289.071625
 21
-236.151566
  0
LINE
  8
0
 62
     5
 10
286.642853
 20
-249.146469
 11
291.283569
 21
-249.146469
  0
LINE
  8
0
 62
     5
 10
285.753693
 20
-245.828583
 11
286.642731
 21
-249.146347
  0
LINE
  8
0
 62
     5
 10
285.753754
 20
-245.828644
 11
289.071625
 21
-245.828644
  0
LINE
  8
0
 62
     5
 10
281.170746
 20
-249.146637
 11
284.652679
 21
-236.151733
  0
LINE
  8
0
 62
     5
 10
277.735657
 20
-236.151566
 11
281.217682
 21
-236.151566
  0
LINE
  8
0
 62
     5
 10
277.735413
 20
-249.146210
 11
281.217468
 21
-236.151337
  0
LINE
  8
0
 62
     5
 10
277.735657
 20
-249.146469
 11
281.170593
 21
-249.146469
  0
LINE
  8
0
 62
     5
 10
277.735657
 20
-232.833740
 11
282.106689
 21
-232.833740
  0
LINE
  8
0
 62
     5
 10
289.071625
 20
-236.151566
 11
289.071625
 21
-245.828644
  0
LINE
  8
0
 62
     5
 10
291.532288
 20
-230.373016
 11
293.108276
 21
-230.373016
  0
LINE
  8
0
 62
     5
 10
291.532288
 20
-232.584961
 11
293.108276
 21
-232.584961
  0
LINE
  8
0
 62
     5
 10
291.532288
 20
-230.373016
 11
291.532288
 21
-232.584961
  0
LINE
  8
0
 62
     5
 10
301.513550
 20
-230.373016
 11
305.937286
 21
-230.373016
  0
LINE
  8
0
 62
     5
 10
308.342316
 20
-240.195053
 11
311.296204
 21
-238.817642
  0
LINE
  8
0
 62
     5
 10
305.937286
 20
-242.734406
 11
305.937286
 21
-249.146469
  0
LINE
  8
0
 62
     5
 10
301.513550
 20
-243.379044
 11
301.513550
 21
-249.146469
  0
LINE
  8
0
 62
     5
 10
305.937286
 20
-232.833740
 11
310.361115
 21
-232.833740
  0
LINE
  8
0
 62
     5
 10
305.937286
 20
-230.373016
 11
305.937286
 21
-232.833740
  0
LINE
  8
0
 62
     5
 10
301.513550
 20
-230.373016
 11
301.513550
 21
-232.833740
  0
LINE
  8
0
 62
     5
 10
312.572998
 20
-235.045654
 11
312.572998
 21
-236.812775
  0
LINE
  8
0
 62
     5
 10
308.342377
 20
-240.195038
 11
312.573395
 21
-242.168030
  0
LINE
  8
0
 62
     5
 10
305.937256
 20
-242.734329
 11
312.573059
 21
-245.828613
  0
LINE
  8
0
 62
     5
 10
296.260284
 20
-242.167801
 11
296.260284
 21
-245.828644
  0
LINE
  8
0
 62
     5
 10
296.260742
 20
-242.168167
 11
309.162567
 21
-236.151932
  0
LINE
  8
0
 62
     5
 10
296.260254
 20
-245.828598
 11
301.513580
 21
-243.378937
  0
LINE
  8
0
 62
     5
 10
312.572998
 20
-242.167801
 11
312.572998
 21
-245.828644
  0
LINE
  8
0
 62
     5
 10
296.260284
 20
-232.833740
 11
296.260284
 21
-236.151566
  0
LINE
  8
0
 62
     5
 10
301.513550
 20
-249.146469
 11
305.937286
 21
-249.146469
  0
LINE
  8
0
 62
     5
 10
296.260284
 20
-236.151566
 11
309.162079
 21
-236.151566
  0
LINE
  8
0
 62
     5
 10
296.260284
 20
-232.833740
 11
301.513550
 21
-232.833740
  0
LINE
  8
0
 62
     5
 10
327.503998
 20
-236.404739
 11
328.730042
 21
-235.917068
  0
LINE
  8
0
 62
     5
 10
327.503357
 20
-236.404404
 11
327.503357
 21
-249.146469
  0
LINE
  8
0
 62
     5
 10
323.079498
 20
-249.146469
 11
327.503357
 21
-249.146469
  0
LINE
  8
0
 62
     5
 10
313.955292
 20
-241.792511
 11
323.079376
 21
-238.163742
  0
LINE
  8
0
 62
     5
 10
313.955536
 20
-238.221954
 11
326.806152
 21
-233.111084
  0
LINE
  8
0
 62
     5
 10
323.079498
 20
-238.163773
 11
323.079498
 21
-249.146469
  0
LINE
  8
0
 62
     5
 10
327.503357
 20
-231.368408
 11
327.503357
 21
-232.083389
  0
LINE
  8
0
 62
     5
 10
330.821106
 20
-231.368408
 11
330.821106
 21
-232.833755
  0
LINE
  8
0
 62
     5
 10
313.955444
 20
-238.221893
 11
313.955444
 21
-241.792496
  0
LINE
  8
0
 62
     5
 10
327.503357
 20
-231.368408
 11
330.821106
 21
-231.368408
  0
LINE
  8
0
 10
0.000000
 20
-0.000023
 11
0.000000
 21
254.558487
  0
LINE
  8
0
 10
-370.873566
 20
-0.000023
 11
370.873566
 21
-0.000023
  0
LINE
  8
0
  6
CENTER
 10
-195.873581
 20
174.999969
 11
-305.873596
 21
174.999969
  0
LINE
  8
0
  6
CENTER
 10
-95.873581
 20
89.999969
 11
-95.873581
 21
29.999996
  0
LINE
  8
0
  6
CENTER
 10
-78.873581
 20
59.999977
 11
-112.873581
 21
59.999977
  0
LINE
  8
0
  6
PHANTOM
 10
-89.873581
 20
74.999985
 11
-89.873581
 21
73.999985
  0
LINE
  8
0
  6
PHANTOM
 10
-101.873581
 20
75.000000
 11
-101.873581
 21
74.000000
  0
LINE
  8
0
  6
PHANTOM
 10
-94.173584
 20
75.000000
 11
-94.173584
 21
74.000000
  0
LINE
  8
0
  6
PHANTOM
 10
-97.573593
 20
75.000000
 11
-97.573593
 21
74.000000
  0
LINE
  8
0
  6
PHANTOM
 10
-93.873581
 20
71.499977
 11
-97.873581
 21
71.499977
  0
LINE
  8
0
  6
PHANTOM
 10
-92.873581
 20
73.999985
 11
-92.873581
 21
72.499985
  0
LINE
  8
0
  6
PHANTOM
 10
-98.873581
 20
74.000000
 11
-98.873581
 21
72.500000
  0
LINE
  8
0
  6
PHANTOM
 10
-92.873543
 20
72.499962
 11
-93.873543
 21
71.499962
  0
LINE
  8
0
  6
PHANTOM
 10
-97.873581
 20
71.500031
 11
-98.873581
 21
72.500031
  0
LINE
  8
0
  6
PHANTOM
 10
-104.873581
 20
47.999996
 11
-104.873581
 21
44.999977
  0
LINE
  8
0
  6
PHANTOM
 10
-86.873581
 20
47.999989
 11
-86.873581
 21
41.175400
  0
LINE
  8
0
  6
CENTER
 10
-81.873581
 20
37.999977
 11
-112.873581
 21
37.999977
  0
LINE
  8
0
  6
PHANTOM
 10
-212.873581
 20
34.999977
 11
-218.373581
 21
34.999977
  0
LINE
  8
0
  6
CENTER
 10
-250.873596
 20
89.999969
 11
-250.873596
 21
29.999966
  0
LINE
  8
0
  6
PHANTOM
 10
-288.873596
 20
46.999981
 11
-288.873596
 21
34.999981
  0
LINE
  8
0
  6
PHANTOM
 10
-212.873581
 20
46.999966
 11
-212.873581
 21
34.999966
  0
LINE
  8
0
  6
CENTER
 10
-195.873581
 20
59.999977
 11
-305.873566
 21
59.999977
  0
LINE
  8
0
  6
CENTER
 10
-250.873596
 20
191.999969
 11
-250.873596
 21
138.999969
  0
LINE
  8
0
  6
PHANTOM
 10
-107.873581
 20
69.000000
 11
-107.873581
 21
50.999996
  0
LINE
  8
0
  6
PHANTOM
 10
-83.873581
 20
68.999985
 11
-83.873581
 21
50.999989
  0
LINE
  8
0
  6
PHANTOM
 10
-86.873581
 20
47.999977
 11
-104.873581
 21
47.999977
  0
LINE
  8
0
  6
PHANTOM
 10
-86.873581
 20
71.999977
 11
-87.873581
 21
71.999977
  0
LINE
  8
0
  6
PHANTOM
 10
-103.873581
 20
71.999977
 11
-104.873581
 21
71.999977
  0
LINE
  8
0
  6
PHANTOM
 10
-86.873581
 20
46.999977
 11
-104.873581
 21
46.999977
  0
LINE
  8
0
  6
PHANTOM
 10
-200.250870
 20
173.299988
 11
-218.373581
 21
173.299988
  0
LINE
  8
0
  6
PHANTOM
 10
-201.496307
 20
176.699982
 11
-218.373581
 21
176.699982
  0
LINE
  8
0
  6
PHANTOM
 10
-202.125854
 20
180.999969
 11
-218.373581
 21
180.999969
  0
LINE
  8
0
  6
PHANTOM
 10
-199.621323
 20
168.999969
 11
-218.373581
 21
168.999969
  0
LINE
  8
0
  6
PHANTOM
 10
-283.373596
 20
173.299988
 11
-300.250854
 21
173.299988
  0
LINE
  8
0
  6
PHANTOM
 10
-283.373596
 20
176.699982
 11
-301.496307
 21
176.699982
  0
LINE
  8
0
  6
PHANTOM
 10
-283.373596
 20
180.999969
 11
-302.125854
 21
180.999969
  0
LINE
  8
0
  6
PHANTOM
 10
-86.873581
 20
34.999977
 11
-104.873581
 21
34.999977
  0
LINE
  8
0
  6
PHANTOM
 10
-89.873581
 20
74.999977
 11
-94.173584
 21
74.999977
  0
LINE
  8
0
  6
PHANTOM
 10
-283.373596
 20
168.999969
 11
-299.621307
 21
168.999969
  0
LINE
  8
0
  6
PHANTOM
 10
-200.873581
 20
163.000000
 11
-218.373581
 21
163.000000
  0
LINE
  8
0
  6
PHANTOM
 10
-92.873581
 20
73.999977
 11
-94.173584
 21
73.999977
  0
LINE
  8
0
  6
PHANTOM
 10
-97.573593
 20
74.999977
 11
-101.873581
 21
74.999977
  0
LINE
  8
0
  6
PHANTOM
 10
-212.873581
 20
46.999977
 11
-218.373581
 21
46.999977
  0
LINE
  8
0
  6
PHANTOM
 10
-199.554871
 20
47.999977
 11
-218.373581
 21
47.999977
  0
LINE
  8
0
  6
PHANTOM
 10
-200.873566
 20
71.999977
 11
-218.373581
 21
71.999977
  0
LINE
  8
0
  6
PHANTOM
 10
-199.125824
 20
74.999977
 11
-218.373581
 21
74.999977
  0
LINE
  8
0
  6
PHANTOM
 10
-283.373596
 20
34.999977
 11
-288.873596
 21
34.999977
  0
LINE
  8
0
  6
PHANTOM
 10
-200.873581
 20
186.999969
 11
-300.873596
 21
186.999969
  0
LINE
  8
0
  6
PHANTOM
 10
-283.373596
 20
74.999977
 11
-300.873566
 21
74.999977
  0
LINE
  8
0
  6
PHANTOM
 10
-283.373596
 20
71.999977
 11
-302.192261
 21
71.999977
  0
LINE
  8
0
  6
PHANTOM
 10
-283.373596
 20
163.000000
 11
-300.873596
 21
163.000000
  0
LINE
  8
0
  6
PHANTOM
 10
-97.573593
 20
73.999977
 11
-98.873581
 21
73.999977
  0
LINE
  8
0
  6
PHANTOM
 10
-283.373596
 20
47.999977
 11
-300.873596
 21
47.999977
  0
LINE
  8
0
  6
PHANTOM
 10
-283.373596
 20
46.999977
 11
-289.373596
 21
46.999977
  0
LINE
  8
0
  6
CENTER
 10
180.000000
 20
59.999977
 11
50.000015
 21
59.999977
  0
LINE
  8
0
  6
CENTER
 10
180.000000
 20
174.999969
 11
50.000000
 21
174.999969
  0
LINE
  8
0
  6
CENTER
 10
295.500000
 20
59.999977
 11
254.500000
 21
59.999977
  0
LINE
  8
0
  6
CENTER
 10
275.000000
 20
96.999985
 11
275.000000
 21
22.999985
  0
LINE
  8
0
  6
PHANTOM
 10
283.000000
 20
78.999985
 11
277.200012
 21
78.999985
  0
LINE
  8
0
  6
PHANTOM
 10
288.000000
 20
27.999985
 11
262.000000
 21
27.999985
  0
LINE
  8
0
  6
PHANTOM
 10
272.799988
 20
78.999985
 11
272.799988
 21
77.999985
  0
LINE
  8
0
  6
PHANTOM
 10
277.200012
 20
78.999985
 11
277.200012
 21
77.999985
  0
LINE
  8
0
  6
PHANTOM
 10
283.000000
 20
78.999985
 11
283.000000
 21
77.499985
  0
LINE
  8
0
  6
PHANTOM
 10
267.000000
 20
78.999985
 11
267.000000
 21
77.499985
  0
LINE
  8
0
  6
PHANTOM
 10
271.250000
 20
77.999985
 11
271.250000
 21
76.499985
  0
LINE
  8
0
  6
PHANTOM
 10
278.750000
 20
77.999985
 11
278.750000
 21
76.499985
  0
LINE
  8
0
  6
PHANTOM
 10
278.750000
 20
77.999985
 11
277.200012
 21
77.999985
  0
LINE
  8
0
  6
PHANTOM
 10
276.750000
 20
74.499977
 11
273.250000
 21
74.499977
  0
LINE
  8
0
  6
PHANTOM
 10
262.000000
 20
44.499985
 11
262.000000
 21
41.499985
  0
LINE
  8
0
  6
PHANTOM
 10
288.000000
 20
44.499985
 11
288.000000
 21
36.041439
  0
LINE
  8
0
  6
CENTER
 10
293.799988
 20
31.999985
 11
251.000000
 21
31.999985
  0
LINE
  8
0
  6
PHANTOM
 10
175.000000
 20
78.999985
 11
155.000000
 21
78.999985
  0
LINE
  8
0
  6
PHANTOM
 10
173.520935
 20
75.499977
 11
155.000000
 21
75.499977
  0
LINE
  8
0
  6
CENTER
 10
115.000000
 20
96.999985
 11
115.000000
 21
22.999969
  0
LINE
  8
0
  6
PHANTOM
 10
163.000000
 20
42.499954
 11
163.000000
 21
27.999954
  0
LINE
  8
0
  6
PHANTOM
 10
67.000000
 20
42.499985
 11
67.000000
 21
27.999985
  0
LINE
  8
0
  6
PHANTOM
 10
163.000015
 20
42.499985
 11
155.000000
 21
42.499985
  0
LINE
  8
0
  6
PHANTOM
 10
175.000000
 20
159.499969
 11
155.000000
 21
159.499969
  0
LINE
  8
0
  6
CENTER
 10
115.000000
 20
133.499969
 11
115.000000
 21
195.499985
  0
LINE
  8
0
  6
PHANTOM
 10
175.000015
 20
44.499977
 11
155.000000
 21
44.499977
  0
LINE
  8
0
  6
PHANTOM
 10
259.500000
 20
72.499985
 11
259.500000
 21
47.499985
  0
LINE
  8
0
  6
PHANTOM
 10
290.500000
 20
72.499985
 11
290.500000
 21
47.499985
  0
LINE
  8
0
  6
PHANTOM
 10
288.000000
 20
44.499977
 11
262.000000
 21
44.499977
  0
LINE
  8
0
  6
PHANTOM
 10
287.500000
 20
75.499977
 11
285.000000
 21
75.499977
  0
LINE
  8
0
  6
PHANTOM
 10
265.000000
 20
75.499977
 11
262.500000
 21
75.499977
  0
LINE
  8
0
  6
PHANTOM
 10
288.000000
 20
42.499985
 11
262.000000
 21
42.499985
  0
LINE
  8
0
  6
PHANTOM
 10
174.222916
 20
177.199966
 11
155.000000
 21
177.199966
  0
LINE
  8
0
  6
PHANTOM
 10
175.777115
 20
172.799957
 11
155.000000
 21
172.799957
  0
LINE
  8
0
  6
PHANTOM
 10
176.561050
 20
166.999969
 11
155.000000
 21
166.999969
  0
LINE
  8
0
  6
PHANTOM
 10
173.438980
 20
182.999969
 11
155.000000
 21
182.999969
  0
LINE
  8
0
  6
PHANTOM
 10
75.000000
 20
78.999985
 11
55.000000
 21
78.999985
  0
LINE
  8
0
  6
PHANTOM
 10
75.000000
 20
75.499977
 11
53.520935
 21
75.499977
  0
LINE
  8
0
  6
PHANTOM
 10
75.000000
 20
166.999969
 11
56.561043
 21
166.999969
  0
LINE
  8
0
  6
PHANTOM
 10
75.000000
 20
172.799957
 11
55.777122
 21
172.799957
  0
LINE
  8
0
  6
PHANTOM
 10
75.000000
 20
177.199966
 11
54.222904
 21
177.199966
  0
LINE
  8
0
  6
PHANTOM
 10
163.000000
 20
27.999985
 11
155.000000
 21
27.999985
  0
LINE
  8
0
  6
PHANTOM
 10
75.000000
 20
27.999985
 11
67.000000
 21
27.999985
  0
LINE
  8
0
  6
PHANTOM
 10
75.000000
 20
182.999969
 11
53.438980
 21
182.999969
  0
LINE
  8
0
  6
PHANTOM
 10
175.000031
 20
190.499985
 11
55.000023
 21
190.499985
  0
LINE
  8
0
  6
PHANTOM
 10
75.000000
 20
44.499977
 11
55.000015
 21
44.499977
  0
LINE
  8
0
  6
PHANTOM
 10
75.000000
 20
42.499985
 11
67.000015
 21
42.499985
  0
LINE
  8
0
  6
PHANTOM
 10
272.799988
 20
78.999985
 11
267.000000
 21
78.999985
  0
LINE
  8
0
  6
PHANTOM
 10
272.799988
 20
77.999985
 11
271.250000
 21
77.999985
  0
LINE
  8
0
  6
PHANTOM
 10
75.000000
 20
159.499969
 11
55.000000
 21
159.499969
  0
LINE
  8
0
  6
CENTER
 10
-25.873596
 20
-54.558495
 11
-185.873596
 21
-54.558495
  0
LINE
  8
0
  6
CENTER
 10
-25.873596
 20
-184.558487
 11
-185.873566
 21
-184.558487
  0
LINE
  8
0
  6
CENTER
 10
109.126404
 20
-227.558472
 11
109.126404
 21
-141.558502
  0
LINE
  8
0
  6
CENTER
 10
132.126404
 20
-184.558487
 11
86.126404
 21
-184.558487
  0
LINE
  8
0
  6
PHANTOM
 10
118.126404
 20
-162.558487
 11
111.326416
 21
-162.558487
  0
LINE
  8
0
  6
PHANTOM
 10
122.126434
 20
-222.558502
 11
96.126404
 21
-222.558502
  0
LINE
  8
0
  6
PHANTOM
 10
122.126434
 20
-204.558487
 11
96.126434
 21
-204.558487
  0
LINE
  8
0
  6
PHANTOM
 10
122.126404
 20
-222.558472
 11
122.126404
 21
-222.177307
  0
LINE
  8
0
  6
CENTER
 10
128.626404
 20
-217.558502
 11
86.126404
 21
-217.558502
  0
LINE
  8
0
  6
PHANTOM
 10
106.926422
 20
-163.558472
 11
106.926422
 21
-162.558472
  0
LINE
  8
0
  6
PHANTOM
 10
111.326416
 20
-163.558472
 11
111.326416
 21
-162.558472
  0
LINE
  8
0
  6
PHANTOM
 10
106.926422
 20
-162.558487
 11
100.126434
 21
-162.558487
  0
LINE
  8
0
  6
PHANTOM
 10
100.126404
 20
-163.558472
 11
100.126404
 21
-162.558472
  0
LINE
  8
0
  6
PHANTOM
 10
118.126404
 20
-163.558472
 11
118.126404
 21
-162.558472
  0
LINE
  8
0
  6
PHANTOM
 10
112.876404
 20
-163.558487
 11
111.326416
 21
-163.558487
  0
LINE
  8
0
  6
PHANTOM
 10
112.876404
 20
-165.058472
 11
112.876404
 21
-163.558472
  0
LINE
  8
0
  6
PHANTOM
 10
105.376404
 20
-165.058472
 11
105.376404
 21
-163.558472
  0
LINE
  8
0
  6
PHANTOM
 10
110.876434
 20
-167.058487
 11
107.376434
 21
-167.058487
  0
LINE
  8
0
  6
PHANTOM
 10
-30.873566
 20
-162.558487
 11
-55.873589
 21
-162.558487
  0
LINE
  8
0
  6
PHANTOM
 10
-32.423615
 20
-166.558487
 11
-55.873589
 21
-166.558487
  0
LINE
  8
0
  6
CENTER
 10
-105.873596
 20
-227.558502
 11
-105.873596
 21
-141.558502
  0
LINE
  8
0
  6
PHANTOM
 10
-45.873566
 20
-222.558502
 11
-55.873589
 21
-222.558502
  0
LINE
  8
0
  6
PHANTOM
 10
-165.873596
 20
-222.558502
 11
-165.873596
 21
-204.558487
  0
LINE
  8
0
  6
PHANTOM
 10
-45.873596
 20
-222.558502
 11
-45.873596
 21
-204.558502
  0
LINE
  8
0
  6
PHANTOM
 10
-45.873566
 20
-204.558487
 11
-55.873589
 21
-204.558487
  0
LINE
  8
0
  6
PHANTOM
 10
-155.873596
 20
-222.558502
 11
-165.873566
 21
-222.558502
  0
LINE
  8
0
  6
PHANTOM
 10
-30.873596
 20
-72.558495
 11
-55.873589
 21
-72.558495
  0
LINE
  8
0
  6
PHANTOM
 10
-30.873566
 20
-36.558495
 11
-180.873566
 21
-36.558495
  0
LINE
  8
0
  6
CENTER
 10
-105.873596
 20
-99.558502
 11
-105.873596
 21
-31.558487
  0
LINE
  8
0
  6
PHANTOM
 10
122.126434
 20
-202.558487
 11
96.126434
 21
-202.558487
  0
LINE
  8
0
  6
PHANTOM
 10
121.126434
 20
-166.558487
 11
121.126434
 21
-166.558487
  0
LINE
  8
0
  6
PHANTOM
 10
91.126404
 20
-196.558472
 11
91.126404
 21
-172.558472
  0
LINE
  8
0
  6
PHANTOM
 10
127.126404
 20
-196.558472
 11
127.126404
 21
-172.558472
  0
LINE
  8
0
  6
PHANTOM
 10
97.126434
 20
-166.558487
 11
97.126434
 21
-166.558487
  0
LINE
  8
0
  6
PHANTOM
 10
-30.873566
 20
-202.558487
 11
-55.873589
 21
-202.558487
  0
LINE
  8
0
  6
PHANTOM
 10
-155.873596
 20
-162.558487
 11
-180.873566
 21
-162.558487
  0
LINE
  8
0
  6
PHANTOM
 10
-155.873596
 20
-166.558487
 11
-182.423615
 21
-166.558487
  0
LINE
  8
0
  6
PHANTOM
 10
-155.873596
 20
-202.558487
 11
-180.873566
 21
-202.558487
  0
LINE
  8
0
  6
PHANTOM
 10
-155.873596
 20
-204.558487
 11
-165.873566
 21
-204.558487
  0
LINE
  8
0
  6
PHANTOM
 10
-155.873596
 20
-72.558495
 11
-180.873596
 21
-72.558495
  0
LINE
  8
0
  6
PHANTOM
 10
122.126404
 20
-212.939697
 11
122.126404
 21
-202.558472
  0
LINE
  8
0
  6
PHANTOM
 10
96.126404
 20
-206.558502
 11
96.126404
 21
-202.558472
  0
LINE
  8
0
  6
PHANTOM
 10
-30.139954
 20
-56.758499
 11
-55.873589
 21
-56.758499
  0
LINE
  8
0
  6
PHANTOM
 10
-31.607208
 20
-52.358490
 11
-55.873589
 21
-52.358490
  0
LINE
  8
0
  6
PHANTOM
 10
-29.197388
 20
-63.558495
 11
-55.873589
 21
-63.558495
  0
LINE
  8
0
  6
PHANTOM
 10
-32.549774
 20
-45.558495
 11
-55.873589
 21
-45.558495
  0
LINE
  8
0
  6
PHANTOM
 10
-155.873596
 20
-45.558495
 11
-182.549774
 21
-45.558495
  0
LINE
  8
0
  6
PHANTOM
 10
-155.873596
 20
-52.358490
 11
-181.607193
 21
-52.358490
  0
LINE
  8
0
  6
PHANTOM
 10
-155.873596
 20
-56.758499
 11
-180.139969
 21
-56.758499
  0
LINE
  8
0
  6
PHANTOM
 10
-155.873596
 20
-63.558495
 11
-179.197388
 21
-63.558495
  0
LINE
  8
0
  6
PHANTOM
 10
106.926422
 20
-163.558487
 11
105.376434
 21
-163.558487
  0
LINE
  8
0
 10
-283.373505
 20
78.999969
 11
-218.373489
 21
78.999969
  0
LINE
  8
0
 10
-218.373489
 20
84.999969
 11
-218.373489
 21
34.999981
  0
LINE
  8
0
 10
-283.373505
 20
84.999969
 11
-283.373505
 21
34.999981
  0
LINE
  8
0
 10
-283.373505
 20
34.999981
 11
-218.373489
 21
34.999981
  0
LINE
  8
0
 10
-282.373505
 20
42.918007
 11
-219.373489
 21
42.918007
  0
LINE
  8
0
 10
-282.373505
 20
50.845238
 11
-219.373489
 21
50.845238
  0
LINE
  8
0
 10
-282.373505
 20
69.673828
 11
-219.373489
 21
69.673828
  0
LINE
  8
0
 10
-248.873505
 20
84.999985
 11
-218.373489
 21
84.999985
  0
LINE
  8
0
 10
-283.373505
 20
84.999985
 11
-252.873505
 21
84.999985
  0
LINE
  8
0
 10
-248.873505
 20
84.999985
 11
-248.873505
 21
82.499985
  0
LINE
  8
0
 10
-252.873505
 20
84.999985
 11
-252.873505
 21
82.499985
  0
LINE
  8
0
 10
-252.373505
 20
81.999985
 11
-249.373505
 21
81.999985
  0
LINE
  8
0
  6
CENTER
 10
-269.873505
 20
81.999969
 11
-263.873505
 21
81.999969
  0
LINE
  8
0
  6
CENTER
 10
-266.873505
 20
84.999969
 11
-266.873505
 21
78.999969
  0
LINE
  8
0
  6
CENTER
 10
-231.873505
 20
81.999969
 11
-237.873505
 21
81.999969
  0
LINE
  8
0
  6
CENTER
 10
-234.873505
 20
84.999969
 11
-234.873505
 21
78.999969
  0
LINE
  8
0
  6
CENTER
 10
-234.873505
 20
40.999981
 11
-234.873505
 21
34.999981
  0
LINE
  8
0
  6
CENTER
 10
-231.873505
 20
37.999981
 11
-237.873505
 21
37.999981
  0
LINE
  8
0
  6
CENTER
 10
-266.873505
 20
40.999981
 11
-266.873505
 21
34.999981
  0
LINE
  8
0
  6
CENTER
 10
-269.873505
 20
37.999981
 11
-263.873505
 21
37.999981
  0
LINE
  8
0
 10
-252.873566
 20
183.999985
 11
-252.873566
 21
179.999985
  0
LINE
  8
0
 10
-248.873566
 20
183.999985
 11
-248.873566
 21
179.999985
  0
LINE
  8
0
 10
-219.373550
 20
163.999985
 11
-282.373566
 21
163.999985
  0
LINE
  8
0
 10
-248.873566
 20
169.999985
 11
-248.873566
 21
165.999985
  0
LINE
  8
0
 10
-252.873566
 20
169.999985
 11
-252.873566
 21
165.999985
  0
LINE
  8
0
 10
-247.373566
 20
179.999985
 11
-254.373566
 21
179.999985
  0
LINE
  8
0
 10
-283.373566
 20
143.999985
 11
-283.373566
 21
183.999985
  0
LINE
  8
0
 10
-218.373550
 20
143.999985
 11
-218.373550
 21
183.999985
  0
LINE
  8
0
 10
-247.373566
 20
169.999985
 11
-254.373566
 21
169.999985
  0
LINE
  8
0
 10
-254.373566
 20
179.999985
 11
-254.373566
 21
169.999985
  0
LINE
  8
0
 10
-218.373550
 20
165.999985
 11
-283.373566
 21
165.999985
  0
LINE
  8
0
 10
-218.373550
 20
183.999985
 11
-283.373566
 21
183.999985
  0
LINE
  8
0
 10
-218.373550
 20
143.999985
 11
-283.373566
 21
143.999985
  0
LINE
  8
0
 10
-247.373566
 20
179.999985
 11
-247.373566
 21
169.999985
  0
LINE
  8
0
  6
CENTER
 10
-276.873566
 20
177.999985
 11
-276.873566
 21
171.999985
  0
LINE
  8
0
  6
CENTER
 10
-224.873566
 20
177.999985
 11
-224.873566
 21
171.999985
  0
LINE
  8
0
 10
-122.873573
 20
64.577271
 11
-122.873573
 21
55.941795
  0
LINE
  8
0
 10
-102.666397
 20
76.548271
 11
-120.564041
 21
68.202469
  0
LINE
  8
0
 10
-99.873596
 20
79.000008
 11
-101.528458
 21
77.345146
  0
LINE
  8
0
 10
-86.873573
 20
41.175404
 11
-86.873573
 21
34.824551
  0
LINE
  8
0
 10
-84.873573
 20
40.749981
 11
-84.873573
 21
35.249981
  0
LINE
  8
0
 10
-86.873573
 20
34.824551
 11
-85.119194
 21
34.824551
  0
LINE
  8
0
 10
-104.873558
 20
44.999973
 11
-120.564026
 21
52.316559
  0
LINE
  8
0
 10
-111.028358
 20
43.456493
 11
-122.254539
 21
48.691345
  0
LINE
  8
0
 10
-86.873573
 20
41.175404
 11
-85.119194
 21
41.175404
  0
LINE
  8
0
 10
-86.873573
 20
39.587692
 11
-85.119194
 21
39.587692
  0
LINE
  8
0
 10
-86.873573
 20
36.412266
 11
-85.119194
 21
36.412266
  0
LINE
  8
0
 10
-84.873566
 20
35.249981
 11
-85.119186
 21
34.824562
  0
LINE
  8
0
 10
-84.873589
 20
40.749958
 11
-85.119209
 21
41.175388
  0
LINE
  8
0
 10
-109.873573
 20
41.643864
 11
-109.873573
 21
35.000000
  0
LINE
  8
0
 10
-104.873573
 20
34.999981
 11
-109.873573
 21
34.999981
  0
LINE
  8
0
 10
-104.873573
 20
44.999981
 11
-104.873573
 21
35.000000
  0
LINE
  8
0
 10
-86.873573
 20
84.999969
 11
-104.873573
 21
84.999969
  0
LINE
  8
0
 10
-86.873573
 20
84.999969
 11
-86.873573
 21
78.999969
  0
LINE
  8
0
 10
-86.873573
 20
78.999969
 11
-99.873573
 21
78.999969
  0
LINE
  8
0
 10
-104.873573
 20
84.999969
 11
-104.873573
 21
78.999969
  0
LINE
  8
0
 10
-104.873573
 20
78.999969
 11
-106.873573
 21
78.999969
  0
LINE
  8
0
 10
-126.873573
 20
64.577271
 11
-126.873573
 21
55.941795
  0
LINE
  8
0
 10
-106.873566
 20
78.999969
 11
-122.254494
 21
71.827721
  0
LINE
  8
0
 10
155.000000
 20
27.999992
 11
75.000000
 21
27.999992
  0
LINE
  8
0
 10
113.000000
 20
88.199989
 11
117.000000
 21
88.199989
  0
LINE
  8
0
 10
76.000000
 20
72.541756
 11
154.000000
 21
72.541756
  0
LINE
  8
0
 10
75.000000
 20
91.999992
 11
112.500000
 21
91.999992
  0
LINE
  8
0
 10
155.000000
 20
91.999992
 11
155.000000
 21
27.999992
  0
LINE
  8
0
 10
75.000000
 20
91.999992
 11
75.000000
 21
27.999992
  0
LINE
  8
0
 10
76.000000
 20
46.941330
 11
154.000000
 21
46.941330
  0
LINE
  8
0
 10
76.000000
 20
38.780945
 11
154.000000
 21
38.780945
  0
LINE
  8
0
  6
CENTER
 10
139.500000
 20
87.999992
 11
130.500000
 21
87.999992
  0
LINE
  8
0
 10
117.500000
 20
91.999992
 11
155.000000
 21
91.999992
  0
LINE
  8
0
 10
117.500000
 20
91.999992
 11
117.500000
 21
88.699989
  0
LINE
  8
0
 10
112.500000
 20
91.999992
 11
112.500000
 21
88.699989
  0
LINE
  8
0
  6
CENTER
 10
90.500000
 20
87.999992
 11
99.500000
 21
87.999992
  0
LINE
  8
0
  6
CENTER
 10
95.000000
 20
92.499992
 11
95.000000
 21
83.499992
  0
LINE
  8
0
 10
76.000000
 20
83.499992
 11
154.000000
 21
83.499992
  0
LINE
  8
0
  6
CENTER
 10
135.000000
 20
92.499992
 11
135.000000
 21
83.499992
  0
LINE
  8
0
  6
CENTER
 10
95.000000
 20
35.999992
 11
95.000000
 21
27.999992
  0
LINE
  8
0
  6
CENTER
 10
91.000000
 20
31.999992
 11
99.000000
 21
31.999992
  0
LINE
  8
0
  6
CENTER
 10
139.000000
 20
31.999992
 11
131.000000
 21
31.999992
  0
LINE
  8
0
  6
CENTER
 10
135.000000
 20
35.999992
 11
135.000000
 21
27.999992
  0
LINE
  8
0
 10
155.000000
 20
187.999969
 11
155.000000
 21
138.499969
  0
LINE
  8
0
 10
155.000000
 20
187.999969
 11
75.000000
 21
187.999969
  0
LINE
  8
0
 10
155.000000
 20
138.499969
 11
75.000000
 21
138.499969
  0
LINE
  8
0
 10
110.699997
 20
167.499969
 11
110.699997
 21
182.499969
  0
LINE
  8
0
 10
119.300003
 20
167.499969
 11
119.300003
 21
182.499969
  0
LINE
  8
0
 10
117.500000
 20
182.499969
 11
117.500000
 21
187.999969
  0
LINE
  8
0
 10
112.500000
 20
182.499969
 11
112.500000
 21
187.999969
  0
LINE
  8
0
 10
112.500000
 20
161.999969
 11
112.500000
 21
167.499969
  0
LINE
  8
0
 10
117.500000
 20
161.999969
 11
117.500000
 21
167.499969
  0
LINE
  8
0
 10
119.300003
 20
182.499969
 11
110.699997
 21
182.499969
  0
LINE
  8
0
 10
119.300003
 20
167.499969
 11
110.699997
 21
167.499969
  0
LINE
  8
0
 10
155.000000
 20
161.999969
 11
75.000000
 21
161.999969
  0
LINE
  8
0
 10
75.000000
 20
187.999969
 11
75.000000
 21
138.499969
  0
LINE
  8
0
 10
261.999939
 20
27.999966
 11
255.999939
 21
27.999966
  0
LINE
  8
0
 10
287.999939
 20
91.999969
 11
287.999939
 21
83.999969
  0
LINE
  8
0
 10
238.499939
 20
66.171036
 11
238.499939
 21
53.312008
  0
LINE
  8
0
 10
287.999939
 20
83.999969
 11
267.999939
 21
83.999969
  0
LINE
  8
0
 10
261.999939
 20
91.999969
 11
261.999939
 21
84.137039
  0
LINE
  8
0
 10
263.002075
 20
79.002029
 11
268.000000
 21
83.999962
  0
LINE
  8
0
 10
244.273804
 20
75.234123
 11
261.422607
 21
83.230736
  0
LINE
  8
0
 10
246.386871
 20
71.254257
 11
263.002045
 21
79.002045
  0
LINE
  8
0
 10
287.999939
 20
91.999969
 11
261.999939
 21
91.999969
  0
LINE
  8
0
 10
255.999939
 20
37.506783
 11
255.999939
 21
27.999966
  0
LINE
  8
0
 10
243.499939
 20
66.722717
 11
243.499939
 21
53.312008
  0
LINE
  8
0
 10
246.386871
 20
48.780495
 11
261.999969
 21
41.499989
  0
LINE
  8
0
 10
244.273773
 20
44.248940
 11
254.845200
 21
39.319405
  0
LINE
  8
0
 10
261.999939
 20
41.499966
 11
261.999939
 21
27.999966
  0
LINE
  8
0
 10
287.999939
 20
36.041420
 11
290.487305
 21
36.041420
  0
LINE
  8
0
 10
290.799927
 20
35.499966
 11
290.799927
 21
28.499966
  0
LINE
  8
0
 10
287.999939
 20
34.020683
 11
290.487335
 21
34.020683
  0
LINE
  8
0
 10
287.999939
 20
29.979225
 11
290.487335
 21
29.979225
  0
LINE
  8
0
 10
290.800049
 20
35.500000
 11
290.487427
 21
36.041466
  0
LINE
  8
0
 10
290.800049
 20
28.499926
 11
290.487427
 21
27.958460
  0
LINE
  8
0
 10
287.999939
 20
27.958511
 11
290.487305
 21
27.958511
  0
LINE
  8
0
 10
287.999939
 20
36.041420
 11
287.999939
 21
27.958511
  0
LINE
  8
0
 10
-107.873596
 20
-151.558502
 11
-103.873596
 21
-151.558502
  0
LINE
  8
0
 10
-154.873596
 20
-168.682861
 11
-56.873596
 21
-168.682861
  0
LINE
  8
0
 10
-154.873596
 20
-201.011475
 11
-56.873596
 21
-201.011475
  0
LINE
  8
0
  6
CENTER
 10
-80.873596
 20
-146.558502
 11
-80.873596
 21
-156.558502
  0
LINE
  8
0
 10
-102.873596
 20
-146.558502
 11
-55.873596
 21
-146.558502
  0
LINE
  8
0
 10
-55.873596
 20
-222.558502
 11
-155.873596
 21
-222.558502
  0
LINE
  8
0
 10
-155.873596
 20
-146.558502
 11
-108.873596
 21
-146.558502
  0
LINE
  8
0
  6
CENTER
 10
-75.873596
 20
-151.558502
 11
-85.873596
 21
-151.558502
  0
LINE
  8
0
 10
-55.873596
 20
-222.558502
 11
-55.873596
 21
-146.558502
  0
LINE
  8
0
 10
-155.873596
 20
-222.558502
 11
-155.873596
 21
-146.558502
  0
LINE
  8
0
 10
-108.873596
 20
-150.558502
 11
-108.873596
 21
-146.558502
  0
LINE
  8
0
 10
-102.873596
 20
-150.558502
 11
-102.873596
 21
-146.558502
  0
LINE
  8
0
  6
CENTER
 10
-135.873596
 20
-151.558502
 11
-125.873596
 21
-151.558502
  0
LINE
  8
0
  6
CENTER
 10
-130.873596
 20
-146.558502
 11
-130.873596
 21
-156.558502
  0
LINE
  8
0
 10
-155.873596
 20
-156.558502
 11
-55.873596
 21
-156.558502
  0
LINE
  8
0
 10
-154.873596
 20
-212.558487
 11
-56.873596
 21
-212.558487
  0
LINE
  8
0
  6
CENTER
 10
-75.873596
 20
-217.558502
 11
-85.873596
 21
-217.558502
  0
LINE
  8
0
  6
CENTER
 10
-80.873596
 20
-212.558502
 11
-80.873596
 21
-222.558502
  0
LINE
  8
0
  6
CENTER
 10
-130.873596
 20
-212.558502
 11
-130.873596
 21
-222.558502
  0
LINE
  8
0
  6
CENTER
 10
-135.873596
 20
-217.558502
 11
-125.873596
 21
-217.558502
  0
LINE
  8
0
 10
-102.873611
 20
-62.058502
 11
-102.873611
 21
-67.558502
  0
LINE
  8
0
 10
-55.873611
 20
-94.558502
 11
-155.873627
 21
-94.558502
  0
LINE
  8
0
 10
-55.873611
 20
-73.558502
 11
-155.873627
 21
-73.558502
  0
LINE
  8
0
 10
-155.873627
 20
-41.558502
 11
-155.873627
 21
-94.558502
  0
LINE
  8
0
 10
-55.873611
 20
-41.558502
 11
-55.873611
 21
-94.558502
  0
LINE
  8
0
 10
-102.873611
 20
-41.558502
 11
-102.873611
 21
-47.058502
  0
LINE
  8
0
 10
-108.873611
 20
-41.558502
 11
-108.873611
 21
-47.058502
  0
LINE
  8
0
 10
-55.873611
 20
-67.558502
 11
-155.873627
 21
-67.558502
  0
LINE
  8
0
 10
-55.873611
 20
-41.558502
 11
-155.873627
 21
-41.558502
  0
LINE
  8
0
 10
-100.573608
 20
-62.058502
 11
-111.173615
 21
-62.058502
  0
LINE
  8
0
 10
-100.573608
 20
-47.058502
 11
-111.173615
 21
-47.058502
  0
LINE
  8
0
 10
-111.173615
 20
-62.058502
 11
-111.173615
 21
-47.058502
  0
LINE
  8
0
 10
-100.573608
 20
-62.058502
 11
-100.573608
 21
-47.058502
  0
LINE
  8
0
 10
-108.873611
 20
-62.058502
 11
-108.873611
 21
-67.558502
  0
LINE
  8
0
  6
CENTER
 10
-145.873627
 20
-59.058502
 11
-145.873627
 21
-50.058502
  0
LINE
  8
0
  6
CENTER
 10
-65.873627
 20
-59.058517
 11
-65.873627
 21
-50.058517
  0
LINE
  8
0
 10
96.126419
 20
-222.558472
 11
96.126419
 21
-206.558502
  0
LINE
  8
0
 10
88.626419
 20
-212.269806
 11
75.126434
 21
-204.475586
  0
LINE
  8
0
 10
90.734123
 20
-206.558487
 11
78.126434
 21
-199.279434
  0
LINE
  8
0
 10
122.126419
 20
-212.939697
 11
125.269150
 21
-212.939697
  0
LINE
  8
0
 10
122.126419
 20
-215.249100
 11
125.269150
 21
-215.249100
  0
LINE
  8
0
 10
122.126419
 20
-219.867889
 11
125.269150
 21
-219.867889
  0
LINE
  8
0
 10
125.626419
 20
-221.558502
 11
125.626419
 21
-213.558502
  0
LINE
  8
0
 10
125.626427
 20
-213.558487
 11
125.269157
 21
-212.939682
  0
LINE
  8
0
 10
125.626442
 20
-221.558517
 11
125.269165
 21
-222.177322
  0
LINE
  8
0
 10
75.126419
 20
-175.611053
 11
75.126419
 21
-194.083282
  0
LINE
  8
0
 10
96.126419
 20
-206.558502
 11
90.734116
 21
-206.558502
  0
LINE
  8
0
 10
122.126419
 20
-222.177307
 11
125.269150
 21
-222.177307
  0
LINE
  8
0
 10
122.126419
 20
-222.177307
 11
122.126419
 21
-212.939697
  0
LINE
  8
0
 10
122.126450
 20
-146.558502
 11
96.126450
 21
-146.558502
  0
LINE
  8
0
 10
122.126419
 20
-146.558502
 11
122.126419
 21
-156.558502
  0
LINE
  8
0
 10
122.126450
 20
-156.558502
 11
105.441727
 21
-156.558502
  0
LINE
  8
0
 10
96.126419
 20
-222.558502
 11
89.126419
 21
-222.558502
  0
LINE
  8
0
 10
89.126419
 20
-222.558472
 11
89.126419
 21
-213.135849
  0
LINE
  8
0
 10
96.126419
 20
-146.558502
 11
96.126419
 21
-156.558502
  0
LINE
  8
0
 10
104.868217
 20
-156.739410
 11
95.387718
 21
-163.377716
  0
LINE
  8
0
 10
94.814102
 20
-163.558502
 11
90.002090
 21
-163.558502
  0
LINE
  8
0
 10
96.126419
 20
-156.558502
 11
91.734116
 21
-156.558502
  0
LINE
  8
0
 10
88.734154
 20
-157.362427
 11
75.126472
 21
-165.218826
  0
LINE
  8
0
 10
90.002113
 20
-163.558548
 11
78.126480
 21
-170.414948
  0
LINE
  8
0
 10
69.126419
 20
-175.611053
 11
69.126419
 21
-194.083282
  0
ARC
  8
0
 62
     5
 10
273.035400
 20
-235.045654
 40
2.211884
 50
0.000000
 51
90.000000
  0
ARC
  8
0
 62
     5
 10
291.283569
 20
-246.934647
 40
2.211899
 50
270.000000
 51
0.000000
  0
ARC
  8
0
 62
     5
 10
290.177551
 20
-236.151566
 40
3.317841
 50
0.000000
 51
90.000000
  0
ARC
  8
0
 62
     5
 10
310.361115
 20
-236.812775
 40
2.211890
 50
294.999969
 51
0.000000
  0
ARC
  8
0
 62
     5
 10
310.361115
 20
-235.045654
 40
2.211884
 50
0.000000
 51
90.000000
  0
ARC
  8
0
 62
     5
 10
327.503357
 20
-232.833755
 40
3.317840
 50
291.688385
 51
0.000000
  0
ARC
  8
0
 62
     5
 10
326.397308
 20
-232.083389
 40
1.105946
 50
291.688965
 51
0.000000
  0
ARC
  8
0
  6
PHANTOM
 10
-212.373581
 20
47.499966
 40
0.500000
 50
270.000000
 51
90.000000
  0
ARC
  8
0
  6
PHANTOM
 10
-289.373566
 20
47.499977
 40
0.500000
 50
90.000000
 51
270.000000
  0
ARC
  8
0
  6
PHANTOM
 10
-314.621307
 20
53.999981
 40
15.000010
 50
336.421875
 51
23.578142
  0
ARC
  8
0
  6
PHANTOM
 10
-287.883179
 20
67.499977
 40
15.000001
 50
150.000031
 51
209.999969
  0
ARC
  8
0
  6
PHANTOM
 10
-314.621307
 20
168.999969
 40
15.000008
 50
336.421906
 51
23.578156
  0
ARC
  8
0
  6
PHANTOM
 10
-287.125854
 20
180.999969
 40
15.000013
 50
156.421844
 51
203.578201
  0
ARC
  8
0
  6
PHANTOM
 10
-86.873581
 20
50.999989
 40
3.000000
 50
270.000000
 51
0.000000
  0
ARC
  8
0
  6
PHANTOM
 10
-86.873581
 20
68.999985
 40
3.000000
 50
0.000000
 51
90.000000
  0
ARC
  8
0
  6
PHANTOM
 10
-104.873581
 20
68.999992
 40
3.000000
 50
90.000000
 51
180.000000
  0
ARC
  8
0
  6
PHANTOM
 10
-104.873581
 20
50.999992
 40
3.000000
 50
180.000000
 51
270.000000
  0
ARC
  8
0
  6
PHANTOM
 10
-87.873581
 20
73.999985
 40
2.000000
 50
180.000000
 51
270.000000
  0
ARC
  8
0
  6
PHANTOM
 10
-103.873581
 20
73.999992
 40
2.000000
 50
270.000000
 51
0.000000
  0
ARC
  8
0
  6
PHANTOM
 10
-187.125854
 20
180.999969
 40
15.000006
 50
156.421768
 51
203.578049
  0
ARC
  8
0
  6
PHANTOM
 10
-214.621323
 20
168.999969
 40
15.000006
 50
336.421753
 51
23.578127
  0
ARC
  8
0
  6
PHANTOM
 10
-187.125839
 20
65.999962
 40
15.000000
 50
143.130096
 51
203.578079
  0
ARC
  8
0
  6
PHANTOM
 10
-213.863968
 20
52.499966
 40
15.000008
 50
342.542419
 51
29.999939
  0
ARC
  8
0
  6
PHANTOM
 10
276.750000
 20
76.499985
 40
2.000000
 50
270.000000
 51
0.000000
  0
ARC
  8
0
  6
PHANTOM
 10
273.250000
 20
76.499985
 40
2.000000
 50
180.000000
 51
270.000000
  0
ARC
  8
0
  6
PHANTOM
 10
67.000015
 20
43.499977
 40
1.000000
 50
90.000000
 51
270.000000
  0
ARC
  8
0
  6
PHANTOM
 10
163.000015
 20
43.499962
 40
1.000000
 50
270.000000
 51
90.000000
  0
ARC
  8
0
  6
PHANTOM
 10
156.562622
 20
52.249977
 40
19.999996
 50
337.200989
 51
22.799011
  0
ARC
  8
0
  6
PHANTOM
 10
192.599716
 20
69.499977
 40
20.000000
 50
151.640656
 51
208.359360
  0
ARC
  8
0
  6
PHANTOM
 10
156.562607
 20
167.249969
 40
20.000000
 50
337.200958
 51
22.799032
  0
ARC
  8
0
  6
PHANTOM
 10
193.437424
 20
182.749969
 40
20.000000
 50
157.200974
 51
202.799026
  0
ARC
  8
0
  6
PHANTOM
 10
287.500000
 20
47.499985
 40
3.000000
 50
270.000000
 51
0.000000
  0
ARC
  8
0
  6
PHANTOM
 10
287.500000
 20
72.499985
 40
3.000000
 50
0.000000
 51
90.000000
  0
ARC
  8
0
  6
PHANTOM
 10
262.500000
 20
72.499985
 40
3.000000
 50
90.000000
 51
180.000000
  0
ARC
  8
0
  6
PHANTOM
 10
262.500000
 20
47.499985
 40
3.000000
 50
180.000000
 51
270.000000
  0
ARC
  8
0
  6
PHANTOM
 10
285.000000
 20
77.499985
 40
2.000000
 50
180.000000
 51
270.000000
  0
ARC
  8
0
  6
PHANTOM
 10
265.000000
 20
77.499985
 40
2.000000
 50
270.000000
 51
0.000000
  0
ARC
  8
0
  6
PHANTOM
 10
72.599716
 20
69.499977
 40
20.000000
 50
151.640656
 51
208.359360
  0
ARC
  8
0
  6
PHANTOM
 10
36.562622
 20
52.249977
 40
20.000000
 50
337.200989
 51
22.799007
  0
ARC
  8
0
  6
PHANTOM
 10
36.562607
 20
167.249969
 40
20.000002
 50
337.200958
 51
22.799028
  0
ARC
  8
0
  6
PHANTOM
 10
73.437416
 20
182.749969
 40
20.000000
 50
157.200974
 51
202.799026
  0
ARC
  8
0
  6
PHANTOM
 10
110.876434
 20
-165.058472
 40
2.000000
 50
270.000000
 51
0.000000
  0
ARC
  8
0
  6
PHANTOM
 10
107.376434
 20
-165.058472
 40
2.000000
 50
180.000000
 51
270.000000
  0
ARC
  8
0
  6
PHANTOM
 10
-45.873566
 20
-203.558502
 40
1.000000
 50
270.000000
 51
90.000000
  0
ARC
  8
0
  6
PHANTOM
 10
-165.873566
 20
-203.558487
 40
1.000000
 50
90.000000
 51
270.000000
  0
ARC
  8
0
  6
PHANTOM
 10
-54.197380
 20
-193.558472
 40
25.000000
 50
338.899841
 51
21.100197
  0
ARC
  8
0
  6
PHANTOM
 10
-8.423615
 20
-173.558487
 40
25.000002
 50
153.896118
 51
206.103882
  0
ARC
  8
0
  6
PHANTOM
 10
-54.197395
 20
-63.558495
 40
24.999998
 50
338.899872
 51
21.100204
  0
ARC
  8
0
  6
PHANTOM
 10
-7.549774
 20
-45.558495
 40
25.000002
 50
158.899811
 51
201.100189
  0
ARC
  8
0
  6
PHANTOM
 10
121.126434
 20
-196.558472
 40
6.000000
 50
270.000000
 51
0.000000
  0
ARC
  8
0
  6
PHANTOM
 10
121.126434
 20
-172.558472
 40
6.000000
 50
0.000000
 51
90.000000
  0
ARC
  8
0
  6
PHANTOM
 10
97.126434
 20
-172.558472
 40
6.000000
 50
90.000000
 51
180.000000
  0
ARC
  8
0
  6
PHANTOM
 10
97.126434
 20
-196.558472
 40
6.000000
 50
180.000000
 51
270.000000
  0
ARC
  8
0
  6
PHANTOM
 10
97.126434
 20
-163.558472
 40
3.000000
 50
270.000000
 51
0.000000
  0
ARC
  8
0
  6
PHANTOM
 10
121.126434
 20
-163.558472
 40
3.000000
 50
180.000000
 51
270.000000
  0
ARC
  8
0
  6
PHANTOM
 10
-158.423615
 20
-173.558487
 40
25.000006
 50
153.896118
 51
206.103882
  0
ARC
  8
0
  6
PHANTOM
 10
-204.197388
 20
-193.558472
 40
25.000008
 50
338.899841
 51
21.100197
  0
ARC
  8
0
  6
PHANTOM
 10
-157.549774
 20
-45.558495
 40
24.999998
 50
158.899811
 51
201.100189
  0
ARC
  8
0
  6
PHANTOM
 10
-204.197388
 20
-63.558495
 40
25.000006
 50
338.899872
 51
21.100204
  0
CIRCLE
  8
0
 10
-234.873505
 20
37.999981
 40
1.229500
  0
CIRCLE
  8
0
 10
-234.873505
 20
37.999981
 40
1.500000
  0
CIRCLE
  8
0
 10
-266.873505
 20
37.999981
 40
1.229500
  0
CIRCLE
  8
0
 10
-266.873505
 20
37.999981
 40
1.500000
  0
ARC
  8
0
 10
-249.373505
 20
82.499985
 40
0.500000
 50
270.000000
 51
0.000000
  0
ARC
  8
0
 10
-252.373505
 20
82.499985
 40
0.500000
 50
180.000000
 51
270.000000
  0
CIRCLE
  8
0
 10
-234.873505
 20
81.999969
 40
1.700000
  0
CIRCLE
  8
0
 10
-266.873505
 20
81.999969
 40
1.700000
  0
CIRCLE
  8
0
 10
-224.873566
 20
174.999985
 40
1.229500
  0
CIRCLE
  8
0
 10
-224.873566
 20
174.999985
 40
1.500000
  0
CIRCLE
  8
0
 10
-276.873566
 20
174.999985
 40
1.229500
  0
CIRCLE
  8
0
 10
-276.873566
 20
174.999985
 40
1.500000
  0
ARC
  8
0
 10
-86.279274
 20
35.618408
 40
1.405701
 50
0.000000
 51
34.384159
  0
ARC
  8
0
 10
-90.127968
 20
37.999981
 40
5.254386
 50
342.412048
 51
17.587914
  0
ARC
  8
0
 10
-86.279274
 20
40.381550
 40
1.405707
 50
325.615845
 51
0.000000
  0
ARC
  8
0
 10
-104.356865
 20
80.173538
 40
3.999999
 50
295.000031
 51
314.999908
  0
ARC
  8
0
 10
-111.873573
 20
41.643864
 40
2.000000
 50
0.000000
 51
64.999954
  0
ARC
  8
0
 10
-118.873573
 20
55.941795
 40
8.000000
 50
179.999969
 51
244.999969
  0
ARC
  8
0
 10
-118.873573
 20
64.577271
 40
7.999998
 50
115.000046
 51
179.999939
  0
ARC
  8
0
 10
-118.873573
 20
64.577271
 40
3.999999
 50
115.000046
 51
180.000000
  0
ARC
  8
0
 10
-118.873573
 20
55.941795
 40
4.000000
 50
180.000000
 51
244.999985
  0
CIRCLE
  8
0
 10
135.000000
 20
31.999992
 40
1.621000
  0
CIRCLE
  8
0
 10
135.000000
 20
31.999992
 40
2.000000
  0
CIRCLE
  8
0
 10
95.000000
 20
31.999992
 40
1.621000
  0
CIRCLE
  8
0
 10
95.000000
 20
31.999992
 40
2.000000
  0
ARC
  8
0
 10
117.000000
 20
88.699989
 40
0.500000
 50
270.000000
 51
0.000000
  0
ARC
  8
0
 10
113.000000
 20
88.699989
 40
0.500000
 50
180.000000
 51
270.000000
  0
CIRCLE
  8
0
 10
135.000000
 20
87.999992
 40
2.250000
  0
CIRCLE
  8
0
 10
95.000000
 20
87.999992
 40
2.250000
  0
ARC
  8
0
 10
260.999939
 20
84.137039
 40
0.999998
 50
294.999359
 51
0.000000
  0
ARC
  8
0
 10
248.499939
 20
53.312008
 40
10.000000
 50
179.999985
 51
245.000000
  0
ARC
  8
0
 10
248.499939
 20
66.171036
 40
10.000001
 50
114.999985
 51
179.999954
  0
ARC
  8
0
 10
248.499939
 20
66.722717
 40
5.000004
 50
115.000069
 51
180.000000
  0
ARC
  8
0
 10
248.499939
 20
53.312008
 40
5.000000
 50
180.000000
 51
244.999939
  0
ARC
  8
0
 10
253.999939
 20
37.506783
 40
2.000000
 50
0.000000
 51
64.999756
  0
ARC
  8
0
 10
289.010864
 20
28.968880
 40
1.789093
 50
0.000000
 51
34.384346
  0
ARC
  8
0
 10
289.010864
 20
35.031052
 40
1.789081
 50
325.615662
 51
0.000000
  0
ARC
  8
0
 10
284.112549
 20
31.999954
 40
6.687395
 50
342.412018
 51
17.587976
  0
CIRCLE
  8
0
 10
-80.873596
 20
-217.558502
 40
2.067000
  0
CIRCLE
  8
0
 10
-80.873596
 20
-217.558502
 40
2.500000
  0
CIRCLE
  8
0
 10
-130.873596
 20
-217.558502
 40
2.067000
  0
CIRCLE
  8
0
 10
-130.873596
 20
-217.558502
 40
2.500000
  0
ARC
  8
0
 10
-103.873596
 20
-150.558502
 40
1.000000
 50
270.000000
 51
0.000000
  0
ARC
  8
0
 10
-107.873596
 20
-150.558502
 40
1.000000
 50
180.000000
 51
270.000000
  0
CIRCLE
  8
0
 10
-80.873596
 20
-151.558502
 40
2.750000
  0
CIRCLE
  8
0
 10
-130.873596
 20
-151.558502
 40
2.750000
  0
CIRCLE
  8
0
 10
-145.873627
 20
-54.558502
 40
2.067000
  0
CIRCLE
  8
0
 10
-145.873627
 20
-54.558502
 40
2.500000
  0
CIRCLE
  8
0
 10
-65.873627
 20
-54.558517
 40
2.500000
  0
CIRCLE
  8
0
 10
-65.873627
 20
-54.558517
 40
2.067000
  0
ARC
  8
0
 10
123.581772
 20
-221.022583
 40
2.044670
 50
0.000000
 51
34.384312
  0
ARC
  8
0
 10
117.983810
 20
-217.558502
 40
7.642619
 50
342.411774
 51
17.588131
  0
ARC
  8
0
 10
123.581772
 20
-214.094391
 40
2.044670
 50
325.615692
 51
0.000000
  0
ARC
  8
0
 10
88.126419
 20
-213.135849
 40
1.000000
 50
0.000000
 51
60.000069
  0
ARC
  8
0
 10
91.734116
 20
-162.558502
 40
6.000000
 50
90.000000
 51
120.000000
  0
ARC
  8
0
 10
81.126419
 20
-194.083282
 40
12.000000
 50
180.000000
 51
239.999969
  0
ARC
  8
0
 10
81.126419
 20
-175.611053
 40
12.000003
 50
120.000038
 51
180.000000
  0
ARC
  8
0
 10
81.126419
 20
-175.611053
 40
6.000000
 50
120.000000
 51
180.000000
  0
ARC
  8
0
 10
81.126419
 20
-194.083282
 40
6.000000
 50
180.000000
 51
240.000000
  0
ARC
  8
0
 10
94.814102
 20
-162.558502
 40
1.000000
 50
270.000000
 51
305.000031
  0
ARC
  8
0
 10
105.441727
 20
-157.558502
 40
1.000000
 50
90.000000
 51
125.000038
  0
TEXT
  8
0
 10
226.462494
 20
233.607468
 40
8.500000
  1
DATE : OCT ,1991
 50
0.000000
 41
1.052631
 51
0.000000
  7
STANDARD
  0
TEXT
  8
0
 10
13.821430
 20
222.956390
 40
10.000000
  1
BORE : 20
 50
0.000000
 41
1.052632
 51
0.000000
  7
STANDARD
  0
TEXT
  8
0
 10
-207.052139
 20
222.956390
 40
10.000000
  1
BORE : 16
 50
0.000000
 41
1.052632
 51
0.000000
  7
STANDARD
  0
TEXT
  8
0
 10
-357.052124
 20
-36.602112
 40
10.000000
  1
BORE : 25
 50
0.000000
 41
1.052632
 51
0.000000
  7
STANDARD
  0
TEXT
  8
0
 10
-355.779907
 20
232.257462
 40
10.000000
  1
ORCA C MOUNT
 50
0.000000
 41
1.052632
 51
0.000000
  7
STANDARD
  0
ENDSEC
  0
EOF
