  0
SECTION
  2
HEADER
  0
ENDSEC
  0
SECTION
  2
TABLES
  0
TABLE
  2
LTYPE
 70
     4
  0
LTYPE
  2
CONTINUOUS
 70
    64
  3
Solid line
 72
    65
 73
     0
 40
0.000000
  0
LTYPE
  2
DASHED
 70
    64
  3
__ __ __ __ __ __ __ __ __ __ __ __ __ __ __
 72
    65
 73
     2
 40
3.500000
 49
2.000000
 49
-1.500000
  0
LTYPE
  2
CENTER
 70
    64
  3
____ _ ____ _ ____ _ ____ _ ____ _ ____ _ ____
 72
    65
 73
     4
 40
17.500000
 49
13.000000
 49
-1.500000
 49
1.500000
 49
-1.500000
  0
LTYPE
  2
PHANTOM
 70
    64
  3
_____ _ _ _____ _ _ _____ _ _ _____ _ _ ____  
 72
    65
 73
     6
 40
15.500000
 49
8.000000
 49
-1.500000
 49
1.500000
 49
-1.500000
 49
1.500000
 49
-1.500000
  0
LTYPE
  2
DASHED1
 70
    64
  3
__ __ __ __ __ __ __ __ __ __ __ __ __ __ __
 72
    65
 73
     2
 40
1.500000
 49
1.000000
 49
-0.500000
  0
LTYPE
  2
DASHED2
 70
    64
  3
__ __ __ __ __ __ __ __ __ __ __ __ __ __ __
 72
    65
 73
     2
 40
3.500000
 49
2.500000
 49
-1.000000
  0
LTYPE
  2
DASHED3
 70
    64
  3
__ __ __ __ __ __ __ __ __ __ __ __ __ __ __
 72
    65
 73
     2
 40
6.000000
 49
4.000000
 49
-2.000000
  0
LTYPE
  2
DASHED4
 70
    64
  3
__ __ __ __ __ __ __ __ __ __ __ __ __ __ __
 72
    65
 73
     2
 40
12.000000
 49
10.000000
 49
-2.000000
  0
LTYPE
  2
DASHED5
 70
    64
  3
__ __ __ __ __ __ __ __ __ __ __ __ __ __ __
 72
    65
 73
     2
 40
17.000000
 49
15.000000
 49
-2.000000
  0
LTYPE
  2
DASHED6
 70
    64
  3
__ __ __ __ __ __ __ __ __ __ __ __ __ __ __
 72
    65
 73
     2
 40
29.000000
 49
27.000000
 49
-2.000000
  0
LTYPE
  2
PHANTOM1
 70
    64
  3
_____ _ _ _____ _ _ _____ _ _ _____ _ _ ____  
 72
    65
 73
     6
 40
31.000000
 49
25.000000
 49
-1.500000
 49
1.000000
 49
-1.000000
 49
1.000000
 49
-1.500000
  0
LTYPE
  2
PHANTOM2
 70
    64
  3
_____ _ _ _____ _ _ _____ _ _ _____ _ _ ____  
 72
    65
 73
     6
 40
36.000000
 49
27.000000
 49
-1.500000
 49
2.500000
 49
-1.000000
 49
2.500000
 49
-1.500000
  0
LTYPE
  2
PHANTOM3
 70
    64
  3
_____ _ _ _____ _ _ _____ _ _ _____ _ _ ____  
 72
    65
 73
     6
 40
78.000000
 49
64.000000
 49
-2.000000
 49
4.000000
 49
-2.000000
 49
4.000000
 49
-2.000000
  0
LTYPE
  2
CENTER1
 70
    64
  3
____ _ ____ _ ____ _ ____ _ ____ _ ____ _ ____
 72
    65
 73
     4
 40
19.000000
 49
14.000000
 49
-1.000000
 49
3.000000
 49
-1.000000
  0
LTYPE
  2
CENTER2
 70
    64
  3
____ _ ____ _ ____ _ ____ _ ____ _ ____ _ ____
 72
    65
 73
     4
 40
28.500000
 49
25.000000
 49
-1.000000
 49
1.500000
 49
-1.000000
  0
LTYPE
  2
CENTER3
 70
    64
  3
____ _ ____ _ ____ _ ____ _ ____ _ ____ _ ____
 72
    65
 73
     4
 40
31.500000
 49
27.000000
 49
-1.000000
 49
2.500000
 49
-1.000000
  0
LTYPE
  2
CENTER4
 70
    64
  3
____ _ ____ _ ____ _ ____ _ ____ _ ____ _ ____
 72
    65
 73
     4
 40
50.000000
 49
45.000000
 49
-1.000000
 49
3.000000
 49
-1.000000
  0
LTYPE
  2
CENTER5
 70
    64
  3
____ _ ____ _ ____ _ ____ _ ____ _ ____ _ ____
 72
    65
 73
     4
 40
100.000000
 49
92.000000
 49
-2.000000
 49
4.000000
 49
-2.000000
  0
LTYPE
  2
SBK1
 70
    64
  3
______ _ _ _ ______ _ _ _ ______ _ _ _ _____  
 72
    65
 73
     8
 40
60.500000
 49
45.000000
 49
-2.000000
 49
2.500000
 49
-2.000000
 49
2.500000
 49
-2.000000
 49
2.500000
 49
-2.000000
  0
LTYPE
  2
SBK2
 70
    64
  3
______ _ _ _ ______ _ _ _ ______ _ _ _ _____  
 72
    65
 73
     8
 40
84.000000
 49
64.000000
 49
-2.000000
 49
4.000000
 49
-2.000000
 49
4.000000
 49
-2.000000
 49
4.000000
 49
-2.000000
  0
LTYPE
  2
STCH
 70
    64
  3
__ __ __ __ __ __ __ __ __ __ __ __ __ __ __
 72
    65
 73
     2
 40
3.000000
 49
1.000000
 49
-2.000000
  0
LTYPE
  2
MTCH
 70
    64
  3
_____ _ _ _____ _ _ _____ _ _ _____ _ _ ____  
 72
    65
 73
     6
 40
80.000000
 49
66.000000
 49
-2.000000
 49
4.000000
 49
-2.000000
 49
4.000000
 49
-2.000000
  0
ENDTAB
  0
TABLE
  2
LAYER
 70
     1
  0
LAYER
  2
0
 70
     0
 62
     7
  6
CONTINUOUS
  0
ENDTAB
  0
TABLE
  2
STYLE
 70
     1
  0
STYLE
  2
STANDARD
 70
     0
 40
0.000000
 41
1.000000
 50
0.000000
 71
     0
 42
0.200000
  3
txt
  4
BIGFONT
  0
ENDTAB
  0
TABLE
  2
VIEW
 70
     0
  0
ENDTAB
  0
ENDSEC
  0
SECTION
  2
BLOCKS
  0
ENDSEC
  0
SECTION
  2
ENTITIES
  0
POINT
  8
0
 10
-191.749985
 20
345.000183
  0
POINT
  8
0
 10
-76.749977
 20
345.000183
  0
POINT
  8
0
 10
-191.750092
 20
114.999939
  0
POINT
  8
0
 10
-76.750099
 20
114.999939
  0
POINT
  8
0
 10
203.249817
 20
114.999916
  0
POINT
  8
0
 10
-191.750168
 20
-139.115097
  0
POINT
  8
0
 10
-71.750160
 20
-139.115097
  0
POINT
  8
0
 10
-191.749985
 20
-389.114899
  0
POINT
  8
0
 10
-71.750000
 20
-389.114899
  0
POINT
  8
0
 10
210.249817
 20
-389.115112
  0
POINT
  8
0
 10
173.249817
 20
114.999916
  0
POINT
  8
0
 10
173.249817
 20
-389.115112
  0
LINE
  8
0
 62
     3
 10
-741.750000
 20
-509.114990
 11
741.750000
 21
-509.114990
  0
LINE
  8
0
 62
     3
 10
-741.750000
 20
509.114990
 11
741.750000
 21
509.114990
  0
LINE
  8
0
 62
     3
 10
741.750000
 20
509.114990
 11
741.750000
 21
-509.114990
  0
LINE
  8
0
 62
     3
 10
-741.750000
 20
509.114990
 11
-741.750000
 21
-509.114990
  0
LINE
  8
0
 62
     5
 10
516.764709
 20
-465.668823
 11
546.072388
 21
-465.668823
  0
LINE
  8
0
 62
     5
 10
516.764709
 20
-491.658691
 11
541.648621
 21
-491.658691
  0
LINE
  8
0
 62
     5
 10
516.764709
 20
-498.294342
 11
550.496216
 21
-498.294342
  0
LINE
  8
0
 62
     5
 10
516.764709
 20
-472.304474
 11
541.648621
 21
-472.304474
  0
LINE
  8
0
 62
     5
 10
516.764709
 20
-465.668823
 11
516.764709
 21
-472.304474
  0
LINE
  8
0
 62
     5
 10
550.496216
 20
-470.092651
 11
550.496216
 21
-498.294342
  0
LINE
  8
0
 62
     5
 10
541.648621
 20
-472.304474
 11
541.648621
 21
-491.658691
  0
LINE
  8
0
 62
     5
 10
555.472900
 20
-465.668823
 11
555.472900
 21
-472.304474
  0
LINE
  8
0
 62
     5
 10
586.992432
 20
-472.304474
 11
586.992432
 21
-493.870697
  0
LINE
  8
0
 62
     5
 10
578.144897
 20
-472.304474
 11
578.144897
 21
-491.658691
  0
LINE
  8
0
 62
     5
 10
516.764709
 20
-491.658691
 11
516.764709
 21
-498.294342
  0
LINE
  8
0
 62
     5
 10
555.472900
 20
-465.668823
 11
564.214966
 21
-465.668823
  0
LINE
  8
0
 62
     5
 10
555.472900
 20
-498.294342
 11
562.342773
 21
-498.294342
  0
LINE
  8
0
 62
     5
 10
555.472717
 20
-498.294098
 11
562.436890
 21
-472.304413
  0
LINE
  8
0
 62
     5
 10
555.472900
 20
-472.304474
 11
562.436951
 21
-472.304474
  0
LINE
  8
0
 62
     5
 10
562.343140
 20
-498.294647
 11
569.307007
 21
-472.304871
  0
LINE
  8
0
 62
     5
 10
571.509094
 20
-491.658691
 11
578.144897
 21
-491.658691
  0
LINE
  8
0
 62
     5
 10
571.508972
 20
-491.658600
 11
573.286804
 21
-498.294128
  0
LINE
  8
0
 62
     5
 10
573.287354
 20
-498.294342
 11
582.568787
 21
-498.294342
  0
LINE
  8
0
 62
     5
 10
569.306763
 20
-472.304474
 11
578.144897
 21
-472.304474
  0
LINE
  8
0
 62
     5
 10
571.084717
 20
-465.668823
 11
580.356750
 21
-465.668823
  0
LINE
  8
0
 62
     5
 10
564.215088
 20
-465.668854
 11
565.533630
 21
-460.747498
  0
LINE
  8
0
 62
     5
 10
571.084290
 20
-465.668488
 11
572.402893
 21
-460.746979
  0
LINE
  8
0
 62
     5
 10
592.522278
 20
-465.668823
 11
603.028809
 21
-465.668823
  0
LINE
  8
0
 62
     5
 10
592.522278
 20
-472.304474
 11
618.325867
 21
-472.304474
  0
LINE
  8
0
 62
     5
 10
603.028809
 20
-498.294342
 11
611.876221
 21
-498.294342
  0
LINE
  8
0
 62
     5
 10
592.522278
 20
-465.668823
 11
592.522278
 21
-472.304474
  0
LINE
  8
0
 62
     5
 10
625.147827
 20
-484.336975
 11
625.147827
 21
-491.658691
  0
LINE
  8
0
 62
     5
 10
592.521790
 20
-491.658447
 11
603.028564
 21
-486.759003
  0
LINE
  8
0
 62
     5
 10
592.522827
 20
-484.337433
 11
618.326355
 21
-472.304932
  0
LINE
  8
0
 62
     5
 10
592.522278
 20
-484.336975
 11
592.522278
 21
-491.658691
  0
LINE
  8
0
 62
     5
 10
611.876038
 20
-485.469879
 11
625.147766
 21
-491.658478
  0
LINE
  8
0
 62
     5
 10
616.686646
 20
-480.391724
 11
625.148682
 21
-484.337585
  0
LINE
  8
0
 62
     5
 10
625.147827
 20
-470.092651
 11
625.147827
 21
-473.626892
  0
LINE
  8
0
 62
     5
 10
603.028809
 20
-460.747406
 11
603.028809
 21
-465.668823
  0
LINE
  8
0
 62
     5
 10
611.876221
 20
-460.747406
 11
611.876221
 21
-465.668823
  0
LINE
  8
0
 62
     5
 10
611.876221
 20
-465.668823
 11
620.723999
 21
-465.668823
  0
LINE
  8
0
 62
     5
 10
603.028809
 20
-486.759460
 11
603.028809
 21
-498.294342
  0
LINE
  8
0
 62
     5
 10
611.876221
 20
-485.470184
 11
611.876221
 21
-498.294342
  0
LINE
  8
0
 62
     5
 10
616.686707
 20
-480.391937
 11
622.594543
 21
-477.637115
  0
LINE
  8
0
 62
     5
 10
655.008484
 20
-462.738159
 11
661.644043
 21
-462.738159
  0
LINE
  8
0
 62
     5
 10
627.912720
 20
-476.445160
 11
627.912720
 21
-483.586365
  0
LINE
  8
0
 62
     5
 10
661.644043
 20
-462.738159
 11
661.644043
 21
-465.668823
  0
LINE
  8
0
 62
     5
 10
655.008484
 20
-462.738159
 11
655.008484
 21
-464.168060
  0
LINE
  8
0
 62
     5
 10
646.160828
 20
-476.328888
 11
646.160828
 21
-498.294342
  0
LINE
  8
0
 62
     5
 10
627.912903
 20
-476.445496
 11
653.614319
 21
-466.223785
  0
LINE
  8
0
 62
     5
 10
627.912598
 20
-483.586365
 11
646.160706
 21
-476.328796
  0
LINE
  8
0
 62
     5
 10
646.160828
 20
-498.294342
 11
655.008484
 21
-498.294342
  0
LINE
  8
0
 62
     5
 10
655.008484
 20
-472.810120
 11
655.008484
 21
-498.294342
  0
LINE
  8
0
 62
     5
 10
655.009155
 20
-472.810547
 11
657.461609
 21
-471.835114
  0
LINE
  8
0
 62
     5
 10
565.533691
 20
-460.747406
 11
572.403381
 21
-460.747406
  0
LINE
  8
0
 62
     5
 10
583.398193
 20
-460.747406
 11
586.218201
 21
-460.747406
  0
LINE
  8
0
 62
     5
 10
603.028809
 20
-460.747406
 11
611.876221
 21
-460.747406
  0
LINE
  8
0
 62
     5
 10
583.398193
 20
-465.171234
 11
586.218201
 21
-465.171234
  0
LINE
  8
0
 62
     5
 10
583.398193
 20
-460.747406
 11
583.398193
 21
-465.171234
  0
LINE
  8
0
 62
     5
 10
586.218201
 20
-460.747406
 11
586.218201
 21
-465.171234
  0
LINE
  8
0
 62
     5
 10
587.877319
 20
-460.747406
 11
587.877319
 21
-465.171234
  0
LINE
  8
0
 62
     5
 10
591.029297
 20
-460.747406
 11
591.029297
 21
-465.171234
  0
LINE
  8
0
 62
     5
 10
587.877319
 20
-460.747406
 11
591.029297
 21
-460.747406
  0
LINE
  8
0
 62
     5
 10
587.877319
 20
-465.171234
 11
591.029297
 21
-465.171234
  0
LINE
  8
0
 62
     3
 10
436.659546
 20
-451.914154
 11
436.659546
 21
-509.118408
  0
LINE
  8
0
 62
     3
 10
436.659546
 20
-451.914154
 11
741.749207
 21
-451.914154
  0
LINE
  8
0
 62
     3
 10
436.659546
 20
509.118408
 11
436.659546
 21
451.914032
  0
LINE
  8
0
 62
     3
 10
436.659546
 20
451.914032
 11
741.749207
 21
451.914032
  0
LINE
  8
0
 62
     3
 10
-317.483978
 20
451.914032
 11
-317.483978
 21
509.118408
  0
LINE
  8
0
 62
     3
 10
-741.749207
 20
451.914032
 11
-317.483978
 21
451.914032
  0
LINE
  8
0
 10
-741.749207
 20
-0.000061
 11
741.750000
 21
-0.000061
  0
LINE
  8
0
  6
PHANTOM
 10
-306.750092
 20
149.999969
 11
-286.750092
 21
149.999969
  0
LINE
  8
0
  6
CENTER
 10
-191.750092
 20
48.999924
 11
-191.750092
 21
195.999939
  0
LINE
  8
0
  6
PHANTOM
 10
-288.750092
 20
80.999924
 11
-286.750092
 21
80.999924
  0
LINE
  8
0
  6
PHANTOM
 10
-280.750092
 20
53.999924
 11
-102.750092
 21
53.999924
  0
LINE
  8
0
  6
PHANTOM
 10
-280.750092
 20
53.999924
 11
-280.750092
 21
58.499969
  0
LINE
  8
0
  6
PHANTOM
 10
-102.750092
 20
53.999924
 11
-102.750092
 21
58.499969
  0
LINE
  8
0
  6
CENTER
 10
-311.750092
 20
114.999939
 11
-71.750092
 21
114.999939
  0
LINE
  8
0
  6
PHANTOM
 10
-96.750092
 20
149.999969
 11
-76.750092
 21
149.999969
  0
LINE
  8
0
  6
PHANTOM
 10
-96.750092
 20
80.999924
 11
-94.750092
 21
80.999924
  0
LINE
  8
0
  6
CENTER
 10
-311.750000
 20
345.000183
 11
-72.198715
 21
345.000183
  0
LINE
  8
0
  6
CENTER
 10
-191.749985
 20
380.000000
 11
-191.749985
 21
293.000183
  0
LINE
  8
0
  6
PHANTOM
 10
-306.750000
 20
316.000183
 11
-286.750000
 21
316.000183
  0
LINE
  8
0
  6
PHANTOM
 10
-305.643982
 20
341.750183
 11
-286.750000
 21
341.750183
  0
LINE
  8
0
  6
PHANTOM
 10
-307.856018
 20
348.250183
 11
-286.750000
 21
348.250183
  0
LINE
  8
0
  6
PHANTOM
 10
-96.749985
 20
341.750183
 11
-75.643967
 21
341.750183
  0
LINE
  8
0
  6
PHANTOM
 10
-96.749985
 20
348.250183
 11
-77.856003
 21
348.250183
  0
LINE
  8
0
  6
PHANTOM
 10
-309.467499
 20
360.000183
 11
-280.750031
 21
360.000183
  0
LINE
  8
0
  6
PHANTOM
 10
-304.032471
 20
330.000183
 11
-286.750000
 21
330.000183
  0
LINE
  8
0
  6
PHANTOM
 10
-96.749985
 20
330.000183
 11
-74.032455
 21
330.000183
  0
LINE
  8
0
  6
PHANTOM
 10
-96.749985
 20
316.000183
 11
-76.749985
 21
316.000183
  0
LINE
  8
0
  6
PHANTOM
 10
-306.750000
 20
374.000183
 11
-280.750031
 21
374.000183
  0
LINE
  8
0
  6
PHANTOM
 10
-102.750031
 20
360.000183
 11
-79.467514
 21
360.000183
  0
LINE
  8
0
  6
PHANTOM
 10
158.249817
 20
149.999969
 11
169.999817
 21
149.999969
  0
LINE
  8
0
  6
PHANTOM
 10
167.999817
 20
143.699951
 11
178.499817
 21
143.699951
  0
LINE
  8
0
  6
PHANTOM
 10
167.999817
 20
143.699951
 11
167.999817
 21
147.999939
  0
LINE
  8
0
  6
PHANTOM
 10
178.499817
 20
143.699951
 11
178.499817
 21
147.999939
  0
LINE
  8
0
  6
PHANTOM
 10
176.499817
 20
147.999969
 11
176.499817
 21
149.999969
  0
LINE
  8
0
  6
PHANTOM
 10
169.999817
 20
147.999939
 11
169.999817
 21
149.999939
  0
LINE
  8
0
  6
PHANTOM
 10
158.249817
 20
143.999908
 11
158.249817
 21
149.999939
  0
LINE
  8
0
  6
PHANTOM
 10
188.249817
 20
143.999908
 11
188.249817
 21
149.999969
  0
LINE
  8
0
  6
CENTER
 10
173.249817
 20
48.999962
 11
173.249817
 21
195.999878
  0
LINE
  8
0
  6
CENTER
 10
138.249817
 20
114.999916
 11
207.249817
 21
114.999916
  0
LINE
  8
0
  6
PHANTOM
 10
164.249939
 20
53.999916
 11
182.249939
 21
53.999916
  0
LINE
  8
0
  6
PHANTOM
 10
159.249817
 20
80.999916
 11
187.249817
 21
80.999916
  0
LINE
  8
0
  6
PHANTOM
 10
187.249817
 20
57.999985
 11
187.249817
 21
60.226410
  0
LINE
  8
0
  6
PHANTOM
 10
159.249817
 20
57.999939
 11
159.249817
 21
58.499916
  0
LINE
  8
0
  6
PHANTOM
 10
182.249817
 20
53.999977
 11
182.249817
 21
80.999977
  0
LINE
  8
0
  6
PHANTOM
 10
164.249817
 20
53.999947
 11
164.249817
 21
80.999947
  0
LINE
  8
0
  6
PHANTOM
 10
159.249939
 20
57.999916
 11
187.249939
 21
57.999916
  0
LINE
  8
0
  6
PHANTOM
 10
144.249817
 20
94.999916
 11
144.249817
 21
135.999908
  0
LINE
  8
0
  6
PHANTOM
 10
159.249817
 20
73.845215
 11
159.249817
 21
80.999916
  0
LINE
  8
0
  6
PHANTOM
 10
187.249817
 20
71.773437
 11
187.249817
 21
80.999985
  0
LINE
  8
0
  6
PHANTOM
 10
176.499817
 20
149.999969
 11
188.249817
 21
149.999969
  0
LINE
  8
0
  6
PHANTOM
 10
167.999817
 20
147.999939
 11
169.999817
 21
147.999939
  0
LINE
  8
0
  6
PHANTOM
 10
176.499817
 20
147.999939
 11
178.499817
 21
147.999939
  0
LINE
  8
0
  6
PHANTOM
 10
202.249817
 20
135.999908
 11
202.249817
 21
94.999916
  0
LINE
  8
0
  6
PHANTOM
 10
-311.750000
 20
-349.114929
 11
-291.750000
 21
-349.114929
  0
LINE
  8
0
  6
PHANTOM
 10
-311.750000
 20
-424.114929
 11
-291.750000
 21
-424.114929
  0
LINE
  8
0
  6
PHANTOM
 10
-313.621216
 20
-354.114929
 11
-291.750000
 21
-354.114929
  0
LINE
  8
0
  6
PHANTOM
 10
-285.750000
 20
-458.114929
 11
-97.749985
 21
-458.114929
  0
LINE
  8
0
  6
PHANTOM
 10
-294.250000
 20
-429.114929
 11
-291.750000
 21
-429.114929
  0
LINE
  8
0
  6
CENTER
 10
-191.749985
 20
-463.114929
 11
-191.749985
 21
-300.114990
  0
LINE
  8
0
  6
PHANTOM
 10
-285.750000
 20
-458.114929
 11
-285.750000
 21
-453.614929
  0
LINE
  8
0
  6
PHANTOM
 10
-97.749985
 20
-458.114929
 11
-97.749985
 21
-453.614929
  0
LINE
  8
0
  6
CENTER
 10
-316.750000
 20
-389.114899
 11
-66.749985
 21
-389.114899
  0
LINE
  8
0
  6
PHANTOM
 10
-91.749985
 20
-424.114929
 11
-71.749985
 21
-424.114929
  0
LINE
  8
0
  6
PHANTOM
 10
-91.749985
 20
-429.114929
 11
-89.249985
 21
-429.114929
  0
LINE
  8
0
  6
PHANTOM
 10
-91.749985
 20
-349.114929
 11
-71.749985
 21
-349.114929
  0
LINE
  8
0
  6
PHANTOM
 10
-91.749985
 20
-354.114929
 11
-73.621185
 21
-354.114929
  0
LINE
  8
0
  6
CENTER
 10
-316.750183
 20
-139.115097
 11
-66.750168
 21
-139.115097
  0
LINE
  8
0
  6
PHANTOM
 10
-311.750183
 20
-174.115097
 11
-291.750183
 21
-174.115097
  0
LINE
  8
0
  6
CENTER
 10
-191.750168
 20
-199.115097
 11
-191.750168
 21
-99.115097
  0
LINE
  8
0
  6
PHANTOM
 10
-91.750168
 20
-174.115097
 11
-71.750168
 21
-174.115097
  0
LINE
  8
0
  6
PHANTOM
 10
-308.650208
 20
-159.115097
 11
-291.750183
 21
-159.115097
  0
LINE
  8
0
  6
PHANTOM
 10
-313.125122
 20
-134.865097
 11
-291.750183
 21
-134.865097
  0
LINE
  8
0
  6
PHANTOM
 10
-310.375244
 20
-143.365097
 11
-291.750183
 21
-143.365097
  0
LINE
  8
0
  6
PHANTOM
 10
-91.750168
 20
-159.115097
 11
-68.650192
 21
-159.115097
  0
LINE
  8
0
  6
PHANTOM
 10
-91.750168
 20
-143.365097
 11
-70.375244
 21
-143.365097
  0
LINE
  8
0
  6
PHANTOM
 10
-91.750168
 20
-134.865097
 11
-73.125092
 21
-134.865097
  0
LINE
  8
0
  6
PHANTOM
 10
-314.850159
 20
-119.115097
 11
-285.750122
 21
-119.115097
  0
LINE
  8
0
  6
PHANTOM
 10
-311.750183
 20
-104.115097
 11
-71.750168
 21
-104.115097
  0
LINE
  8
0
  6
CENTER
 10
133.249802
 20
-389.115112
 11
213.249817
 21
-389.115112
  0
LINE
  8
0
  6
CENTER
 10
173.249817
 20
-463.115112
 11
173.249817
 21
-300.114960
  0
LINE
  8
0
  6
PHANTOM
 10
168.999802
 20
-351.115112
 11
168.999802
 21
-349.115112
  0
LINE
  8
0
  6
PHANTOM
 10
177.499817
 20
-351.115112
 11
177.499817
 21
-349.115112
  0
LINE
  8
0
  6
PHANTOM
 10
166.499802
 20
-356.415100
 11
166.499802
 21
-351.115112
  0
LINE
  8
0
  6
PHANTOM
 10
179.999817
 20
-356.415100
 11
179.999817
 21
-351.115112
  0
LINE
  8
0
  6
PHANTOM
 10
153.249802
 20
-349.115112
 11
168.999802
 21
-349.115112
  0
LINE
  8
0
  6
PHANTOM
 10
193.249817
 20
-354.115173
 11
193.249817
 21
-349.115112
  0
LINE
  8
0
  6
PHANTOM
 10
153.249802
 20
-354.115173
 11
153.249802
 21
-349.115112
  0
LINE
  8
0
  6
PHANTOM
 10
164.249832
 20
-458.115112
 11
182.249817
 21
-458.115112
  0
LINE
  8
0
  6
PHANTOM
 10
159.249832
 20
-454.115112
 11
187.249817
 21
-454.115112
  0
LINE
  8
0
  6
PHANTOM
 10
164.249802
 20
-458.115112
 11
164.249802
 21
-429.115112
  0
LINE
  8
0
  6
PHANTOM
 10
182.249817
 20
-458.115112
 11
182.249817
 21
-429.115112
  0
LINE
  8
0
  6
PHANTOM
 10
187.249817
 20
-454.115112
 11
187.249817
 21
-451.888611
  0
LINE
  8
0
  6
PHANTOM
 10
159.249802
 20
-454.115112
 11
159.249802
 21
-453.615112
  0
LINE
  8
0
  6
PHANTOM
 10
159.249802
 20
-429.115112
 11
187.249817
 21
-429.115112
  0
LINE
  8
0
  6
PHANTOM
 10
166.499771
 20
-356.415100
 11
179.999756
 21
-356.415100
  0
LINE
  8
0
  6
PHANTOM
 10
138.249802
 20
-416.115173
 11
138.249802
 21
-362.115173
  0
LINE
  8
0
  6
PHANTOM
 10
208.249817
 20
-416.115173
 11
208.249817
 21
-362.115173
  0
LINE
  8
0
  6
PHANTOM
 10
146.249802
 20
-354.115173
 11
153.249802
 21
-354.115173
  0
LINE
  8
0
  6
PHANTOM
 10
146.249802
 20
-424.115173
 11
200.249817
 21
-424.115173
  0
LINE
  8
0
  6
PHANTOM
 10
193.249817
 20
-354.115173
 11
200.249817
 21
-354.115173
  0
LINE
  8
0
  6
PHANTOM
 10
187.249817
 20
-440.341583
 11
187.249817
 21
-429.115112
  0
LINE
  8
0
  6
PHANTOM
 10
159.249802
 20
-438.417114
 11
159.249802
 21
-429.115112
  0
LINE
  8
0
  6
PHANTOM
 10
166.499802
 20
-351.115112
 11
168.999802
 21
-351.115112
  0
LINE
  8
0
  6
PHANTOM
 10
177.499817
 20
-349.115112
 11
193.249817
 21
-349.115112
  0
LINE
  8
0
  6
PHANTOM
 10
177.499817
 20
-351.115112
 11
179.999817
 21
-351.115112
  0
LINE
  8
0
  6
PHANTOM
 10
-102.750031
 20
374.000183
 11
-76.749985
 21
374.000183
  0
LINE
  8
0
  6
PHANTOM
 10
-97.750137
 20
-119.115097
 11
-74.850143
 21
-119.115097
  0
LINE
  8
0
  6
PHANTOM
 10
-309.092590
 20
143.999939
 11
-286.750092
 21
143.999939
  0
LINE
  8
0
  6
PHANTOM
 10
-306.750122
 20
86.999939
 11
-286.750092
 21
86.999939
  0
LINE
  8
0
  6
PHANTOM
 10
-96.750092
 20
143.999939
 11
-79.092606
 21
143.999939
  0
LINE
  8
0
  6
PHANTOM
 10
-96.750092
 20
86.999939
 11
-76.750107
 21
86.999939
  0
LINE
  8
0
  6
PHANTOM
 10
152.249817
 20
143.999908
 11
158.249817
 21
143.999908
  0
LINE
  8
0
  6
PHANTOM
 10
152.249817
 20
86.999916
 11
194.249817
 21
86.999916
  0
LINE
  8
0
  6
PHANTOM
 10
188.249817
 20
143.999908
 11
194.249817
 21
143.999908
  0
LINE
  8
0
 10
-283.750061
 20
74.999992
 11
-99.750092
 21
74.999992
  0
LINE
  8
0
  6
CENTER
 10
-210.250061
 20
65.999947
 11
-228.250061
 21
65.999947
  0
LINE
  8
0
 10
-166.750168
 20
64.556480
 11
-164.250168
 21
63.113106
  0
LINE
  8
0
 10
-280.750061
 20
190.999939
 11
-102.750076
 21
190.999939
  0
LINE
  8
0
 10
-280.750061
 20
184.999939
 11
-102.750076
 21
184.999939
  0
LINE
  8
0
 10
-280.750061
 20
183.399933
 11
-102.750076
 21
183.399933
  0
LINE
  8
0
 10
-280.750061
 20
190.999939
 11
-280.750061
 21
181.999969
  0
LINE
  8
0
 10
-102.750076
 20
190.999939
 11
-102.750076
 21
181.999969
  0
LINE
  8
0
 10
-244.250061
 20
67.443336
 11
-244.250061
 21
64.556587
  0
LINE
  8
0
 10
-246.750015
 20
63.113110
 11
-249.250015
 21
64.556480
  0
LINE
  8
0
 10
-244.250046
 20
64.556465
 11
-246.750046
 21
63.113091
  0
LINE
  8
0
 10
-249.250061
 20
64.556557
 11
-249.250061
 21
67.443306
  0
LINE
  8
0
 10
-216.750122
 20
64.556557
 11
-216.750122
 21
67.443306
  0
LINE
  8
0
 10
-283.750061
 20
91.454453
 11
-99.750092
 21
91.454453
  0
LINE
  8
0
 10
-216.750076
 20
67.443230
 11
-219.250076
 21
68.886597
  0
LINE
  8
0
 10
-286.750061
 20
58.499992
 11
-286.750061
 21
181.500000
  0
LINE
  8
0
 10
-96.750092
 20
58.499992
 11
-96.750092
 21
181.500000
  0
LINE
  8
0
 10
-164.250015
 20
63.113102
 11
-161.750015
 21
64.556480
  0
LINE
  8
0
 10
-161.750107
 20
64.556557
 11
-161.750107
 21
67.443306
  0
LINE
  8
0
 10
-219.249969
 20
68.886597
 11
-221.749954
 21
67.443222
  0
LINE
  8
0
 10
-221.750122
 20
67.443336
 11
-221.750122
 21
64.556587
  0
LINE
  8
0
 10
-221.750198
 20
64.556496
 11
-219.250198
 21
63.113121
  0
LINE
  8
0
 10
-219.250000
 20
63.113060
 11
-216.750000
 21
64.556435
  0
LINE
  8
0
 10
-166.750061
 20
172.556610
 11
-164.250092
 21
171.113251
  0
LINE
  8
0
 10
-164.250061
 20
171.113129
 11
-161.750076
 21
172.556519
  0
LINE
  8
0
 10
-161.750061
 20
172.556610
 11
-161.750061
 21
175.443359
  0
LINE
  8
0
 10
-161.750168
 20
175.443222
 11
-164.250137
 21
176.886581
  0
LINE
  8
0
 10
-164.249985
 20
176.886581
 11
-166.749985
 21
175.443207
  0
LINE
  8
0
 10
-166.750061
 20
175.443390
 11
-166.750061
 21
172.556641
  0
LINE
  8
0
 10
-249.250092
 20
67.443321
 11
-246.750107
 21
68.886688
  0
LINE
  8
0
 10
-246.750122
 20
68.886711
 11
-244.250122
 21
67.443329
  0
LINE
  8
0
 10
-194.250076
 20
169.000000
 11
-189.250076
 21
169.000000
  0
LINE
  8
0
 10
-196.250076
 20
171.000000
 11
-196.250076
 21
181.500000
  0
LINE
  8
0
 10
-134.250061
 20
172.556564
 11
-136.750092
 21
171.113174
  0
LINE
  8
0
 10
-136.750092
 20
171.113235
 11
-139.250107
 21
172.556610
  0
LINE
  8
0
 10
-139.250107
 20
172.556610
 11
-139.250107
 21
175.443359
  0
LINE
  8
0
 10
-139.250183
 20
175.443329
 11
-136.750183
 21
176.886703
  0
LINE
  8
0
 10
-136.750122
 20
176.886612
 11
-134.250137
 21
175.443237
  0
LINE
  8
0
 10
-134.250107
 20
175.443390
 11
-134.250107
 21
172.556641
  0
LINE
  8
0
 10
-187.250076
 20
171.000000
 11
-187.250076
 21
181.500000
  0
LINE
  8
0
 10
-134.250031
 20
67.443161
 11
-136.750031
 21
68.886536
  0
LINE
  8
0
 10
-136.750031
 20
68.886658
 11
-139.250031
 21
67.443291
  0
LINE
  8
0
 10
-283.750061
 20
150.023651
 11
-99.750092
 21
150.023651
  0
LINE
  8
0
 10
-286.750061
 20
181.500000
 11
-196.250076
 21
181.500000
  0
LINE
  8
0
 10
-139.250107
 20
67.443336
 11
-139.250107
 21
64.556587
  0
LINE
  8
0
 10
-187.250076
 20
181.500000
 11
-96.750092
 21
181.500000
  0
LINE
  8
0
 10
-139.250229
 20
64.556534
 11
-136.750229
 21
63.113159
  0
LINE
  8
0
 10
-136.749969
 20
63.113129
 11
-134.249969
 21
64.556503
  0
LINE
  8
0
 10
-134.250107
 20
64.556557
 11
-134.250107
 21
67.443306
  0
LINE
  8
0
  6
CENTER
 10
-255.750061
 20
65.999947
 11
-237.750061
 21
65.999947
  0
LINE
  8
0
 10
-161.750137
 20
67.443230
 11
-164.250137
 21
68.886597
  0
LINE
  8
0
 10
-164.250000
 20
68.886642
 11
-166.750000
 21
67.443268
  0
LINE
  8
0
 10
-166.750107
 20
67.443336
 11
-166.750107
 21
64.556587
  0
LINE
  8
0
 10
-283.750061
 20
159.000000
 11
-99.750092
 21
159.000000
  0
LINE
  8
0
  6
CENTER
 10
-136.750076
 20
183.000000
 11
-136.750076
 21
165.000000
  0
LINE
  8
0
  6
CENTER
 10
-127.750076
 20
174.000000
 11
-145.750076
 21
174.000000
  0
LINE
  8
0
  6
CENTER
 10
-164.250061
 20
183.000000
 11
-164.250061
 21
165.000000
  0
LINE
  8
0
  6
CENTER
 10
-173.250061
 20
174.000000
 11
-155.250061
 21
174.000000
  0
LINE
  8
0
  6
CENTER
 10
-246.750061
 20
56.999947
 11
-246.750061
 21
74.999947
  0
LINE
  8
0
  6
CENTER
 10
-219.250061
 20
56.999947
 11
-219.250061
 21
74.999947
  0
LINE
  8
0
 10
-286.750061
 20
58.499992
 11
-96.750092
 21
58.499992
  0
LINE
  8
0
  6
CENTER
 10
-155.250076
 20
65.999947
 11
-173.250076
 21
65.999947
  0
LINE
  8
0
  6
CENTER
 10
-164.250076
 20
56.999947
 11
-164.250076
 21
74.999947
  0
LINE
  8
0
  6
CENTER
 10
-127.750076
 20
65.999947
 11
-145.750076
 21
65.999947
  0
LINE
  8
0
  6
CENTER
 10
-136.750076
 20
56.999947
 11
-136.750076
 21
74.999947
  0
LINE
  8
0
 10
-249.250031
 20
172.556580
 11
-246.750061
 21
171.113235
  0
LINE
  8
0
 10
-246.750031
 20
171.113129
 11
-244.250031
 21
172.556519
  0
LINE
  8
0
 10
-244.250061
 20
172.556610
 11
-244.250061
 21
175.443359
  0
LINE
  8
0
 10
-244.250153
 20
175.443253
 11
-246.750122
 21
176.886612
  0
LINE
  8
0
 10
-246.749985
 20
176.886566
 11
-249.249985
 21
175.443192
  0
LINE
  8
0
 10
-249.250061
 20
175.443390
 11
-249.250061
 21
172.556641
  0
LINE
  8
0
  6
CENTER
 10
-246.750061
 20
183.000000
 11
-246.750061
 21
165.000000
  0
LINE
  8
0
  6
CENTER
 10
-255.750061
 20
174.000000
 11
-237.750061
 21
174.000000
  0
LINE
  8
0
 10
-221.750031
 20
172.556595
 11
-219.250046
 21
171.113235
  0
LINE
  8
0
 10
-219.250061
 20
171.113159
 11
-216.750061
 21
172.556549
  0
LINE
  8
0
 10
-216.750061
 20
172.556610
 11
-216.750061
 21
175.443359
  0
LINE
  8
0
 10
-216.750168
 20
175.443237
 11
-219.250137
 21
176.886597
  0
LINE
  8
0
 10
-219.249985
 20
176.886597
 11
-221.749985
 21
175.443222
  0
LINE
  8
0
 10
-221.750061
 20
175.443390
 11
-221.750061
 21
172.556641
  0
LINE
  8
0
  6
CENTER
 10
-219.250061
 20
183.000000
 11
-219.250061
 21
165.000000
  0
LINE
  8
0
  6
CENTER
 10
-228.250061
 20
174.000000
 11
-210.250061
 21
174.000000
  0
LINE
  8
0
 10
-102.750015
 20
331.500031
 11
-96.750061
 21
331.500031
  0
LINE
  8
0
 10
-102.750015
 20
336.000031
 11
-96.750061
 21
336.000031
  0
LINE
  8
0
 10
-102.750015
 20
354.000031
 11
-96.750061
 21
354.000031
  0
LINE
  8
0
 10
-286.750000
 20
354.000031
 11
-280.750000
 21
354.000031
  0
LINE
  8
0
 10
-102.750015
 20
375.000031
 11
-102.750015
 21
315.000031
  0
LINE
  8
0
 10
-286.750000
 20
336.000031
 11
-280.750000
 21
336.000031
  0
LINE
  8
0
 10
-102.750061
 20
354.000031
 11
-102.750061
 21
336.000031
  0
LINE
  8
0
 10
-280.750000
 20
354.000031
 11
-280.750000
 21
336.000031
  0
LINE
  8
0
 10
-286.750000
 20
298.000031
 11
-96.750061
 21
298.000031
  0
LINE
  8
0
 10
-96.750061
 20
354.000031
 11
-96.750061
 21
298.000031
  0
LINE
  8
0
 10
-280.750000
 20
375.000031
 11
-280.750000
 21
315.000031
  0
LINE
  8
0
 10
-280.750000
 20
375.000031
 11
-102.750015
 21
375.000031
  0
LINE
  8
0
 10
-280.750000
 20
315.000031
 11
-102.750015
 21
315.000031
  0
LINE
  8
0
 10
-286.750000
 20
331.500031
 11
-280.750000
 21
331.500031
  0
LINE
  8
0
 10
-286.750000
 20
354.000031
 11
-286.750000
 21
298.000031
  0
LINE
  8
0
  6
CENTER
 10
-151.750015
 20
375.000031
 11
-151.750015
 21
360.000031
  0
LINE
  8
0
  6
CENTER
 10
-144.250015
 20
367.500031
 11
-159.250015
 21
367.500031
  0
LINE
  8
0
  6
CENTER
 10
-151.750015
 20
315.000031
 11
-151.750015
 21
330.000031
  0
LINE
  8
0
  6
CENTER
 10
-144.250015
 20
322.500031
 11
-159.250015
 21
322.500031
  0
LINE
  8
0
  6
CENTER
 10
-231.750000
 20
315.000031
 11
-231.750000
 21
330.000031
  0
LINE
  8
0
  6
CENTER
 10
-239.250000
 20
322.500031
 11
-224.250000
 21
322.500031
  0
LINE
  8
0
  6
CENTER
 10
-231.750000
 20
375.000031
 11
-231.750000
 21
360.000031
  0
LINE
  8
0
  6
CENTER
 10
-239.250000
 20
367.500031
 11
-224.250000
 21
367.500031
  0
LINE
  8
0
 10
159.432373
 20
154.256058
 11
133.714767
 21
147.365051
  0
LINE
  8
0
 10
155.999863
 20
79.474449
 11
132.749863
 21
92.897850
  0
LINE
  8
0
 10
159.249969
 20
58.499977
 11
159.249969
 21
73.845276
  0
LINE
  8
0
 10
148.749969
 20
70.999947
 11
154.749969
 21
70.999947
  0
LINE
  8
0
 10
148.749969
 20
61.000015
 11
148.749969
 21
71.000015
  0
LINE
  8
0
 10
148.749969
 20
60.999947
 11
154.749969
 21
60.999947
  0
LINE
  8
0
 10
192.249969
 20
60.226440
 11
192.249969
 21
71.773468
  0
LINE
  8
0
 10
192.249908
 20
60.226440
 11
187.249969
 21
60.226440
  0
LINE
  8
0
 10
188.221283
 20
184.999878
 11
203.249969
 21
184.999878
  0
LINE
  8
0
 10
182.249969
 20
183.399948
 11
188.221329
 21
184.999954
  0
LINE
  8
0
 10
164.249969
 20
183.399826
 11
158.278656
 21
184.999832
  0
LINE
  8
0
 10
143.249969
 20
190.999878
 11
203.249969
 21
190.999878
  0
LINE
  8
0
 10
164.249969
 20
183.399872
 11
164.249969
 21
160.534637
  0
LINE
  8
0
 10
182.249969
 20
183.399872
 11
182.249969
 21
165.999939
  0
LINE
  8
0
 10
143.249969
 20
190.999878
 11
143.249969
 21
184.999878
  0
LINE
  8
0
 10
143.249969
 20
184.999878
 11
158.278656
 21
184.999878
  0
LINE
  8
0
 10
203.249969
 20
190.999878
 11
203.249969
 21
184.999878
  0
LINE
  8
0
 10
158.267639
 20
158.602676
 11
132.550095
 21
151.711685
  0
LINE
  8
0
 10
130.749969
 20
96.361992
 11
130.749969
 21
143.501465
  0
LINE
  8
0
 10
192.249908
 20
63.113190
 11
187.249969
 21
63.113190
  0
LINE
  8
0
 10
192.249908
 20
68.886688
 11
187.249969
 21
68.886688
  0
LINE
  8
0
 10
192.249908
 20
61.499947
 11
193.499908
 21
61.499947
  0
LINE
  8
0
 10
194.749969
 20
62.749931
 11
194.749969
 21
69.249931
  0
LINE
  8
0
 10
192.249908
 20
71.773468
 11
187.249969
 21
71.773468
  0
LINE
  8
0
 10
187.249969
 20
168.226440
 11
187.249969
 21
179.773468
  0
LINE
  8
0
 10
187.250092
 20
168.226440
 11
182.250153
 21
168.226440
  0
LINE
  8
0
 10
187.250092
 20
171.113190
 11
182.250153
 21
171.113190
  0
LINE
  8
0
 10
187.250153
 20
176.886688
 11
182.250153
 21
176.886688
  0
LINE
  8
0
 10
187.250153
 20
179.773468
 11
182.250153
 21
179.773468
  0
LINE
  8
0
 10
189.749969
 20
170.749939
 11
189.749969
 21
177.249939
  0
LINE
  8
0
 10
187.250092
 20
169.499939
 11
188.500092
 21
169.499939
  0
LINE
  8
0
 10
187.250092
 20
178.499939
 11
188.500092
 21
178.499939
  0
LINE
  8
0
 10
192.249908
 20
70.499947
 11
193.499908
 21
70.499947
  0
LINE
  8
0
 10
187.249969
 20
60.226410
 11
187.249969
 21
71.773437
  0
LINE
  8
0
 10
193.249969
 20
176.999908
 11
193.249969
 21
170.999908
  0
LINE
  8
0
 10
193.750046
 20
171.500031
 11
193.250015
 21
171.000000
  0
LINE
  8
0
 10
193.749969
 20
171.499908
 11
193.749969
 21
176.499908
  0
LINE
  8
0
 10
189.750031
 20
170.999939
 11
193.250092
 21
170.999939
  0
LINE
  8
0
 10
189.750092
 20
176.999939
 11
193.250092
 21
176.999939
  0
LINE
  8
0
 10
189.750092
 20
176.458435
 11
193.750092
 21
176.458435
  0
LINE
  8
0
 10
193.749985
 20
176.499786
 11
193.249969
 21
176.999786
  0
LINE
  8
0
 10
189.750092
 20
171.541443
 11
193.750092
 21
171.541443
  0
LINE
  8
0
 10
153.750214
 20
178.999939
 11
159.750214
 21
178.999939
  0
LINE
  8
0
 10
153.750214
 20
168.999939
 11
159.750214
 21
168.999939
  0
LINE
  8
0
 10
153.749969
 20
169.000000
 11
153.749969
 21
179.000000
  0
LINE
  8
0
 10
164.250092
 20
165.999939
 11
182.250092
 21
165.999939
  0
LINE
  8
0
 10
126.249969
 20
96.362007
 11
126.249969
 21
143.501465
  0
LINE
  8
0
 10
154.749847
 20
58.499947
 11
159.249847
 21
58.499947
  0
LINE
  8
0
 10
154.749969
 20
58.499985
 11
154.749969
 21
73.845284
  0
LINE
  8
0
 10
159.750092
 20
181.499939
 11
164.250092
 21
181.499939
  0
LINE
  8
0
 10
159.749969
 20
160.534637
 11
159.749969
 21
181.499969
  0
LINE
  8
0
 10
153.749878
 20
75.577293
 11
130.499863
 21
89.000694
  0
LINE
  8
0
  6
CENTER
 10
148.750092
 20
173.999939
 11
198.750092
 21
173.999939
  0
LINE
  8
0
  6
CENTER
 10
143.749847
 20
65.999947
 11
200.249969
 21
65.999947
  0
LINE
  8
0
 10
-97.750061
 20
-305.115051
 11
-97.750061
 21
-314.115051
  0
LINE
  8
0
 10
-109.249985
 20
-323.558350
 11
-111.750069
 21
-325.001770
  0
LINE
  8
0
 10
-285.750061
 20
-305.115051
 11
-285.750061
 21
-314.115051
  0
LINE
  8
0
 10
-285.750061
 20
-312.715027
 11
-97.750061
 21
-312.715027
  0
LINE
  8
0
 10
-149.250122
 20
-320.671722
 11
-149.250122
 21
-323.558502
  0
LINE
  8
0
 10
-151.749954
 20
-319.228119
 11
-149.249939
 21
-320.671539
  0
LINE
  8
0
 10
-154.250122
 20
-320.671661
 11
-151.750092
 21
-319.228302
  0
LINE
  8
0
 10
-291.750061
 20
-453.615112
 11
-291.750061
 21
-314.615112
  0
LINE
  8
0
 10
-91.750061
 20
-453.615112
 11
-91.750061
 21
-314.615112
  0
LINE
  8
0
 10
-154.250259
 20
-444.671509
 11
-151.750229
 21
-443.228119
  0
LINE
  8
0
 10
-151.750198
 20
-443.228516
 11
-149.250183
 21
-444.671906
  0
LINE
  8
0
 10
-149.250000
 20
-444.671692
 11
-149.250000
 21
-447.558472
  0
LINE
  8
0
 10
-149.250214
 20
-447.558228
 11
-151.750229
 21
-449.001617
  0
LINE
  8
0
 10
-151.749786
 20
-449.001495
 11
-154.249817
 21
-447.558105
  0
LINE
  8
0
 10
-154.250000
 20
-447.558472
 11
-154.250000
 21
-444.671692
  0
LINE
  8
0
 10
-234.250000
 20
-447.558472
 11
-234.250000
 21
-444.671692
  0
LINE
  8
0
 10
-109.250008
 20
-444.671814
 11
-111.750076
 21
-443.228424
  0
LINE
  8
0
 10
-111.750046
 20
-443.228241
 11
-114.250107
 21
-444.671631
  0
LINE
  8
0
 10
-114.250122
 20
-444.671692
 11
-114.250122
 21
-447.558472
  0
LINE
  8
0
 10
-114.250107
 20
-447.558472
 11
-111.750046
 21
-449.001862
  0
LINE
  8
0
 10
-111.750015
 20
-449.001892
 11
-109.250000
 21
-447.558502
  0
LINE
  8
0
 10
-109.250122
 20
-447.558472
 11
-109.250122
 21
-444.671692
  0
LINE
  8
0
 10
-231.749680
 20
-449.001343
 11
-234.249710
 21
-447.557953
  0
LINE
  8
0
 10
-288.750061
 20
-426.737244
 11
-94.750061
 21
-426.737244
  0
LINE
  8
0
 10
-288.750061
 20
-348.833008
 11
-94.750061
 21
-348.833008
  0
LINE
  8
0
 10
-288.750061
 20
-338.115112
 11
-94.750061
 21
-338.115112
  0
LINE
  8
0
 10
-154.250122
 20
-323.558502
 11
-154.250122
 21
-320.671722
  0
LINE
  8
0
 10
-274.249786
 20
-323.557953
 11
-271.749786
 21
-325.001343
  0
LINE
  8
0
 10
-271.750092
 20
-325.001862
 11
-269.250061
 21
-323.558472
  0
LINE
  8
0
 10
-269.250000
 20
-323.558502
 11
-269.250000
 21
-320.671722
  0
LINE
  8
0
 10
-269.249756
 20
-320.671326
 11
-271.749786
 21
-319.227936
  0
LINE
  8
0
 10
-271.750092
 20
-319.228180
 11
-274.250092
 21
-320.671570
  0
LINE
  8
0
 10
-274.250000
 20
-320.671722
 11
-274.250000
 21
-323.558502
  0
LINE
  8
0
 10
-187.250061
 20
-314.615112
 11
-91.750061
 21
-314.615112
  0
LINE
  8
0
 10
-194.250061
 20
-327.115112
 11
-189.250061
 21
-327.115112
  0
LINE
  8
0
 10
-196.250061
 20
-325.115112
 11
-196.250061
 21
-314.615112
  0
LINE
  8
0
 10
-187.250061
 20
-325.115112
 11
-187.250061
 21
-314.615112
  0
LINE
  8
0
 10
-229.250000
 20
-323.558380
 11
-231.750061
 21
-325.001770
  0
LINE
  8
0
 10
-231.749939
 20
-325.001770
 11
-234.250000
 21
-323.558380
  0
LINE
  8
0
 10
-234.250122
 20
-323.558502
 11
-234.250122
 21
-320.671722
  0
LINE
  8
0
 10
-234.250107
 20
-320.671692
 11
-231.750076
 21
-319.228333
  0
LINE
  8
0
 10
-231.749954
 20
-319.228119
 11
-229.249939
 21
-320.671539
  0
LINE
  8
0
 10
-229.250122
 20
-320.671722
 11
-229.250122
 21
-323.558502
  0
LINE
  8
0
 10
-274.250092
 20
-444.671509
 11
-271.750092
 21
-443.228119
  0
LINE
  8
0
 10
-271.750275
 20
-443.228455
 11
-269.250244
 21
-444.671844
  0
LINE
  8
0
 10
-269.250000
 20
-444.671692
 11
-269.250000
 21
-447.558472
  0
LINE
  8
0
 10
-269.250153
 20
-447.558319
 11
-271.750122
 21
-449.001678
  0
LINE
  8
0
 10
-271.749634
 20
-449.001434
 11
-274.249664
 21
-447.558044
  0
LINE
  8
0
 10
-274.250000
 20
-447.558472
 11
-274.250000
 21
-444.671692
  0
LINE
  8
0
 10
-291.750061
 20
-314.615112
 11
-196.250061
 21
-314.615112
  0
LINE
  8
0
 10
-291.750061
 20
-453.615112
 11
-91.750061
 21
-453.615112
  0
LINE
  8
0
 10
-234.250183
 20
-444.671539
 11
-231.750153
 21
-443.228149
  0
LINE
  8
0
 10
-231.750153
 20
-443.228546
 11
-229.250122
 21
-444.671936
  0
LINE
  8
0
 10
-229.250000
 20
-444.671692
 11
-229.250000
 21
-447.558472
  0
LINE
  8
0
 10
-229.250168
 20
-447.558228
 11
-231.750183
 21
-449.001617
  0
LINE
  8
0
 10
-151.749939
 20
-325.001770
 11
-154.250015
 21
-323.558380
  0
LINE
  8
0
 10
-288.750061
 20
-436.115112
 11
-94.750061
 21
-436.115112
  0
LINE
  8
0
 10
-149.250000
 20
-323.558380
 11
-151.750061
 21
-325.001770
  0
LINE
  8
0
 10
-285.750061
 20
-311.115051
 11
-97.750061
 21
-311.115051
  0
LINE
  8
0
 10
-285.750061
 20
-305.115051
 11
-97.750061
 21
-305.115051
  0
LINE
  8
0
 10
-109.250122
 20
-320.671722
 11
-109.250122
 21
-323.558502
  0
LINE
  8
0
 10
-111.749931
 20
-319.228119
 11
-109.249916
 21
-320.671509
  0
LINE
  8
0
 10
-114.250145
 20
-320.671692
 11
-111.750107
 21
-319.228333
  0
LINE
  8
0
 10
-114.250122
 20
-323.558502
 11
-114.250122
 21
-320.671722
  0
LINE
  8
0
 10
-111.749947
 20
-325.001770
 11
-114.250015
 21
-323.558380
  0
LINE
  8
0
  6
CENTER
 10
-102.750061
 20
-446.115112
 11
-120.750061
 21
-446.115112
  0
LINE
  8
0
  6
CENTER
 10
-111.750061
 20
-455.115112
 11
-111.750061
 21
-437.115112
  0
LINE
  8
0
  6
CENTER
 10
-160.750061
 20
-446.115112
 11
-142.750061
 21
-446.115112
  0
LINE
  8
0
  6
CENTER
 10
-151.750061
 20
-455.115112
 11
-151.750061
 21
-437.115112
  0
LINE
  8
0
  6
CENTER
 10
-240.750061
 20
-446.115112
 11
-222.750061
 21
-446.115112
  0
LINE
  8
0
  6
CENTER
 10
-231.750061
 20
-455.115112
 11
-231.750061
 21
-437.115112
  0
LINE
  8
0
  6
CENTER
 10
-280.750061
 20
-446.115112
 11
-262.750061
 21
-446.115112
  0
LINE
  8
0
  6
CENTER
 10
-271.750061
 20
-455.115112
 11
-271.750061
 21
-437.115112
  0
LINE
  8
0
  6
CENTER
 10
-271.750061
 20
-313.115082
 11
-271.750061
 21
-331.115082
  0
LINE
  8
0
  6
CENTER
 10
-280.750061
 20
-322.115082
 11
-262.750061
 21
-322.115082
  0
LINE
  8
0
  6
CENTER
 10
-231.750061
 20
-313.115082
 11
-231.750061
 21
-331.115082
  0
LINE
  8
0
  6
CENTER
 10
-222.750061
 20
-322.115082
 11
-240.750061
 21
-322.115082
  0
LINE
  8
0
  6
CENTER
 10
-151.750061
 20
-313.115082
 11
-151.750061
 21
-331.115082
  0
LINE
  8
0
  6
CENTER
 10
-142.750061
 20
-322.115082
 11
-160.750061
 21
-322.115082
  0
LINE
  8
0
  6
CENTER
 10
-111.750061
 20
-313.115082
 11
-111.750061
 21
-331.115082
  0
LINE
  8
0
  6
CENTER
 10
-102.750061
 20
-322.115082
 11
-120.750061
 21
-322.115082
  0
LINE
  8
0
 10
-285.750214
 20
-148.115097
 11
-285.750214
 21
-130.115082
  0
LINE
  8
0
 10
-97.750229
 20
-154.115097
 11
-91.750229
 21
-154.115097
  0
LINE
  8
0
 10
-97.750229
 20
-148.115097
 11
-91.750229
 21
-148.115097
  0
LINE
  8
0
 10
-97.750229
 20
-130.115082
 11
-91.750229
 21
-130.115082
  0
LINE
  8
0
 10
-97.750229
 20
-109.115097
 11
-97.750229
 21
-169.115097
  0
LINE
  8
0
 10
-97.750229
 20
-148.115097
 11
-97.750229
 21
-130.115082
  0
LINE
  8
0
 10
-291.750214
 20
-154.115097
 11
-285.750214
 21
-154.115097
  0
LINE
  8
0
 10
-291.750214
 20
-194.115097
 11
-91.750229
 21
-194.115097
  0
LINE
  8
0
 10
-291.750214
 20
-130.115082
 11
-285.750214
 21
-130.115082
  0
LINE
  8
0
 10
-285.750214
 20
-109.115097
 11
-97.750229
 21
-109.115097
  0
LINE
  8
0
 10
-285.750214
 20
-169.115097
 11
-97.750229
 21
-169.115097
  0
LINE
  8
0
 10
-285.750214
 20
-109.115097
 11
-285.750214
 21
-169.115097
  0
LINE
  8
0
 10
-91.750229
 20
-194.115097
 11
-91.750229
 21
-130.115082
  0
LINE
  8
0
 10
-291.750214
 20
-194.115097
 11
-291.750214
 21
-130.115082
  0
LINE
  8
0
 10
-291.750214
 20
-148.115097
 11
-285.750214
 21
-148.115097
  0
LINE
  8
0
  6
CENTER
 10
-251.750214
 20
-124.115097
 11
-251.750214
 21
-109.115097
  0
LINE
  8
0
  6
CENTER
 10
-259.250214
 20
-116.615097
 11
-244.250214
 21
-116.615097
  0
LINE
  8
0
  6
CENTER
 10
-251.750214
 20
-154.115097
 11
-251.750214
 21
-169.115097
  0
LINE
  8
0
  6
CENTER
 10
-259.250214
 20
-161.615097
 11
-244.250214
 21
-161.615097
  0
LINE
  8
0
  6
CENTER
 10
-124.250229
 20
-161.615097
 11
-139.250229
 21
-161.615097
  0
LINE
  8
0
  6
CENTER
 10
-131.750229
 20
-154.115097
 11
-131.750229
 21
-169.115097
  0
LINE
  8
0
  6
CENTER
 10
-131.750229
 20
-124.115097
 11
-131.750229
 21
-109.115097
  0
LINE
  8
0
  6
CENTER
 10
-124.250229
 20
-116.615097
 11
-139.250229
 21
-116.615097
  0
LINE
  8
0
 10
157.579163
 20
-344.506073
 11
128.696869
 21
-352.245056
  0
LINE
  8
0
 10
147.250061
 20
-441.115051
 11
153.250031
 21
-441.115051
  0
LINE
  8
0
 10
192.249939
 20
-451.888519
 11
192.249939
 21
-440.341492
  0
LINE
  8
0
 10
192.250061
 20
-451.888550
 11
187.250061
 21
-451.888550
  0
LINE
  8
0
 10
192.250061
 20
-449.001801
 11
187.250061
 21
-449.001801
  0
LINE
  8
0
 10
192.250031
 20
-443.228302
 11
187.250061
 21
-443.228302
  0
LINE
  8
0
 10
192.250031
 20
-440.341522
 11
187.250061
 21
-440.341522
  0
LINE
  8
0
 10
192.250061
 20
-446.115051
 11
187.250061
 21
-446.115051
  0
LINE
  8
0
 10
143.249939
 20
-305.114990
 11
203.249939
 21
-305.114990
  0
LINE
  8
0
 10
143.249939
 20
-311.114990
 11
158.278702
 21
-311.114990
  0
LINE
  8
0
 10
188.221344
 20
-311.114990
 11
203.249939
 21
-311.114990
  0
LINE
  8
0
 10
182.249924
 20
-312.715027
 11
188.221313
 21
-311.115021
  0
LINE
  8
0
 10
164.249969
 20
-312.714966
 11
158.278656
 21
-311.114960
  0
LINE
  8
0
 10
182.249939
 20
-312.714996
 11
182.249939
 21
-330.115051
  0
LINE
  8
0
 10
164.249939
 20
-312.714996
 11
164.249939
 21
-335.813110
  0
LINE
  8
0
 10
203.249939
 20
-305.114990
 11
203.249939
 21
-311.114990
  0
LINE
  8
0
 10
143.249939
 20
-305.114990
 11
143.249939
 21
-311.114990
  0
LINE
  8
0
 10
124.249939
 20
-417.529022
 11
124.249939
 21
-358.041016
  0
LINE
  8
0
 10
152.579193
 20
-429.724457
 11
128.696899
 21
-423.325226
  0
LINE
  8
0
 10
194.749939
 20
-449.365021
 11
194.749939
 21
-442.865021
  0
LINE
  8
0
 10
192.250031
 20
-441.615051
 11
193.500031
 21
-441.615051
  0
LINE
  8
0
 10
147.249939
 20
-451.115082
 11
147.249939
 21
-441.115082
  0
LINE
  8
0
 10
192.250061
 20
-450.615051
 11
193.500061
 21
-450.615051
  0
LINE
  8
0
 10
187.249878
 20
-327.888550
 11
182.249878
 21
-327.888550
  0
LINE
  8
0
 10
187.249878
 20
-325.001801
 11
182.249878
 21
-325.001801
  0
LINE
  8
0
 10
187.249847
 20
-319.228302
 11
182.249847
 21
-319.228302
  0
LINE
  8
0
 10
187.249847
 20
-316.341522
 11
182.249847
 21
-316.341522
  0
LINE
  8
0
 10
187.249847
 20
-322.115051
 11
182.249847
 21
-322.115051
  0
LINE
  8
0
 10
189.749939
 20
-325.365021
 11
189.749939
 21
-318.865021
  0
LINE
  8
0
 10
187.249847
 20
-317.615051
 11
188.499847
 21
-317.615051
  0
LINE
  8
0
 10
187.249878
 20
-326.615051
 11
188.499878
 21
-326.615051
  0
LINE
  8
0
 10
147.250061
 20
-451.115051
 11
153.250031
 21
-451.115051
  0
LINE
  8
0
 10
187.249939
 20
-327.888519
 11
187.249939
 21
-316.341492
  0
LINE
  8
0
 10
192.249939
 20
-324.615021
 11
192.249939
 21
-319.615021
  0
LINE
  8
0
 10
189.749847
 20
-325.115051
 11
191.749847
 21
-325.115051
  0
LINE
  8
0
 10
189.749817
 20
-319.115051
 11
191.749817
 21
-319.115051
  0
LINE
  8
0
 10
189.749847
 20
-324.573547
 11
192.249847
 21
-324.573547
  0
LINE
  8
0
 10
189.749817
 20
-319.656555
 11
192.249817
 21
-319.656555
  0
LINE
  8
0
 10
191.749939
 20
-319.115021
 11
191.749939
 21
-325.115021
  0
LINE
  8
0
 10
192.249817
 20
-324.614990
 11
191.749817
 21
-325.114960
  0
LINE
  8
0
 10
192.249939
 20
-319.614990
 11
191.749908
 21
-319.114960
  0
LINE
  8
0
 10
152.249939
 20
-327.115082
 11
152.249939
 21
-317.115082
  0
LINE
  8
0
 10
152.249847
 20
-317.115051
 11
158.249817
 21
-317.115051
  0
LINE
  8
0
 10
152.249878
 20
-327.115051
 11
158.249847
 21
-327.115051
  0
LINE
  8
0
 10
187.249939
 20
-451.888519
 11
187.249939
 21
-440.341492
  0
LINE
  8
0
 10
118.249939
 20
-417.529022
 11
118.249939
 21
-358.041016
  0
LINE
  8
0
 10
164.249847
 20
-330.115051
 11
182.249847
 21
-330.115051
  0
LINE
  8
0
 10
153.249939
 20
-453.615082
 11
153.249939
 21
-438.417084
  0
LINE
  8
0
 10
153.250031
 20
-453.615051
 11
159.250031
 21
-453.615051
  0
LINE
  8
0
 10
159.249939
 20
-453.615082
 11
159.249939
 21
-438.417084
  0
LINE
  8
0
 10
158.249817
 20
-314.615051
 11
164.249817
 21
-314.615051
  0
LINE
  8
0
 10
158.249939
 20
-335.813110
 11
158.249939
 21
-314.615082
  0
LINE
  8
0
 10
151.026291
 20
-435.519958
 11
127.143997
 21
-429.120728
  0
LINE
  8
0
 10
156.026199
 20
-338.710480
 11
127.143913
 21
-346.449463
  0
LINE
  8
0
  6
CENTER
 10
147.249847
 20
-322.115051
 11
197.249817
 21
-322.115051
  0
LINE
  8
0
  6
CENTER
 10
142.250061
 20
-446.115051
 11
200.250061
 21
-446.115051
  0
ARC
  8
0
 62
     5
 10
655.008484
 20
-465.668823
 40
6.635708
 50
291.688293
 51
0.000000
  0
ARC
  8
0
 62
     5
 10
652.796448
 20
-464.168060
 40
2.211920
 50
291.688660
 51
0.000000
  0
ARC
  8
0
 62
     5
 10
546.072388
 20
-470.092651
 40
4.423828
 50
0.000000
 51
90.000000
  0
ARC
  8
0
 62
     5
 10
582.568787
 20
-493.870697
 40
4.423798
 50
270.000000
 51
0.000000
  0
ARC
  8
0
 62
     5
 10
580.356750
 20
-472.304474
 40
6.635681
 50
0.000000
 51
90.000000
  0
ARC
  8
0
 62
     5
 10
620.723999
 20
-470.092651
 40
4.423828
 50
0.000000
 51
90.000000
  0
ARC
  8
0
 62
     5
 10
620.723999
 20
-473.626892
 40
4.423808
 50
294.999786
 51
0.000000
  0
ARC
  8
0
  6
PHANTOM
 10
-270.781372
 20
132.499954
 40
39.999992
 50
154.055496
 51
205.944473
  0
ARC
  8
0
  6
PHANTOM
 10
-344.220093
 20
100.999954
 40
39.999989
 50
339.512665
 51
20.487288
  0
ARC
  8
0
  6
PHANTOM
 10
-40.781372
 20
132.499954
 40
40.000000
 50
154.055496
 51
205.944473
  0
ARC
  8
0
  6
PHANTOM
 10
-114.220093
 20
100.999954
 40
40.000004
 50
339.512665
 51
20.487291
  0
ARC
  8
0
  6
PHANTOM
 10
-269.470642
 20
359.500183
 40
39.999996
 50
158.746231
 51
201.253769
  0
ARC
  8
0
  6
PHANTOM
 10
-344.029358
 20
330.500183
 40
40.000008
 50
338.746185
 51
21.253805
  0
ARC
  8
0
  6
PHANTOM
 10
-39.470627
 20
359.500183
 40
39.999996
 50
158.746231
 51
201.253754
  0
ARC
  8
0
  6
PHANTOM
 10
-114.029343
 20
330.500183
 40
40.000000
 50
338.746185
 51
21.253809
  0
ARC
  8
0
  6
PHANTOM
 10
-89.249985
 20
-426.614929
 40
2.500000
 50
270.000000
 51
90.000000
  0
ARC
  8
0
  6
PHANTOM
 10
-294.250000
 20
-426.614929
 40
2.500000
 50
90.000000
 51
270.000000
  0
ARC
  8
0
  6
PHANTOM
 10
-265.924255
 20
-369.114929
 40
50.000004
 50
156.421860
 51
203.578110
  0
ARC
  8
0
  6
PHANTOM
 10
-358.587463
 20
-406.614929
 40
50.000019
 50
339.512665
 51
20.487345
  0
ARC
  8
0
  6
PHANTOM
 10
-25.924225
 20
-369.114929
 40
49.999996
 50
156.421860
 51
203.578110
  0
ARC
  8
0
  6
PHANTOM
 10
-118.587463
 20
-406.614929
 40
50.000004
 50
339.512665
 51
20.487350
  0
ARC
  8
0
  6
PHANTOM
 10
-24.912674
 20
-121.615097
 40
50.000004
 50
159.512711
 51
200.487274
  0
ARC
  8
0
  6
PHANTOM
 10
-264.912659
 20
-121.615097
 40
50.000004
 50
159.512711
 51
200.487274
  0
ARC
  8
0
  6
PHANTOM
 10
-118.587662
 20
-156.615097
 40
50.000000
 50
339.512695
 51
20.487314
  0
ARC
  8
0
  6
PHANTOM
 10
-358.587646
 20
-156.615097
 40
50.000008
 50
339.512695
 51
20.487312
  0
ARC
  8
0
  6
PHANTOM
 10
146.249802
 20
-362.115173
 40
8.000000
 50
90.000000
 51
180.000000
  0
ARC
  8
0
  6
PHANTOM
 10
146.249802
 20
-416.115173
 40
8.000000
 50
180.000000
 51
270.000000
  0
ARC
  8
0
  6
PHANTOM
 10
200.249817
 20
-416.115173
 40
8.000000
 50
270.000000
 51
0.000000
  0
ARC
  8
0
  6
PHANTOM
 10
200.249817
 20
-362.115173
 40
8.000000
 50
0.000000
 51
90.000000
  0
ARC
  8
0
  6
PHANTOM
 10
194.249817
 20
94.999916
 40
8.000000
 50
270.000000
 51
0.000000
  0
ARC
  8
0
  6
PHANTOM
 10
152.249817
 20
94.999916
 40
8.000000
 50
180.000000
 51
270.000000
  0
ARC
  8
0
  6
PHANTOM
 10
194.249817
 20
135.999908
 40
8.000000
 50
0.000000
 51
90.000000
  0
ARC
  8
0
  6
PHANTOM
 10
152.249817
 20
135.999908
 40
8.000000
 50
90.000000
 51
180.000000
  0
ARC
  8
0
  6
PHANTOM
 10
159.749771
 20
-426.615143
 40
2.499969
 50
90.000000
 51
270.000000
  0
ARC
  8
0
  6
PHANTOM
 10
186.749847
 20
-426.615143
 40
2.499969
 50
270.000000
 51
90.000000
  0
ARC
  8
0
  6
PHANTOM
 10
-288.750092
 20
83.999931
 40
3.000008
 50
90.000000
 51
270.000000
  0
ARC
  8
0
  6
PHANTOM
 10
-94.750092
 20
83.999931
 40
3.000008
 50
270.000000
 51
90.000000
  0
ARC
  8
0
  6
PHANTOM
 10
160.249817
 20
83.999916
 40
3.000000
 50
90.000000
 51
270.000000
  0
ARC
  8
0
  6
PHANTOM
 10
186.249817
 20
83.999916
 40
3.000000
 50
270.000000
 51
90.000000
  0
CIRCLE
  8
0
 10
-219.250061
 20
65.999947
 40
5.000000
  0
ARC
  8
0
 10
-189.250076
 20
171.000000
 40
2.000000
 50
270.000000
 51
0.000000
  0
ARC
  8
0
 10
-194.250076
 20
171.000000
 40
2.000000
 50
180.000000
 51
270.000000
  0
CIRCLE
  8
0
 10
-164.250076
 20
65.999947
 40
5.000000
  0
CIRCLE
  8
0
 10
-136.750076
 20
65.999947
 40
5.000000
  0
CIRCLE
  8
0
 10
-136.750076
 20
174.000000
 40
5.000000
  0
CIRCLE
  8
0
 10
-164.250061
 20
174.000000
 40
5.000000
  0
CIRCLE
  8
0
 10
-246.750061
 20
65.999947
 40
5.000000
  0
CIRCLE
  8
0
 10
-246.750061
 20
174.000000
 40
5.000000
  0
CIRCLE
  8
0
 10
-219.250061
 20
174.000000
 40
5.000000
  0
CIRCLE
  8
0
 10
-151.750015
 20
322.500031
 40
3.500000
  0
CIRCLE
  8
0
 10
-231.750000
 20
367.500031
 40
3.500000
  0
CIRCLE
  8
0
 10
-151.750015
 20
367.500031
 40
3.500000
  0
CIRCLE
  8
0
 10
-231.750000
 20
322.500031
 40
3.500000
  0
ARC
  8
0
 10
157.750092
 20
160.534637
 40
2.000003
 50
285.000000
 51
0.000000
  0
ARC
  8
0
 10
152.749847
 20
73.845284
 40
2.000000
 50
0.000000
 51
59.999962
  0
ARC
  8
0
 10
188.500092
 20
170.749939
 40
1.250000
 50
270.000000
 51
0.000000
  0
ARC
  8
0
 10
188.500153
 20
177.249939
 40
1.250000
 50
0.000000
 51
90.000000
  0
ARC
  8
0
 10
193.499908
 20
62.749931
 40
1.250000
 50
270.000000
 51
0.000000
  0
ARC
  8
0
 10
193.499908
 20
69.249931
 40
1.250000
 50
0.000000
 51
90.000000
  0
ARC
  8
0
 10
134.749969
 20
96.361984
 40
8.500000
 50
180.000000
 51
240.000000
  0
ARC
  8
0
 10
134.750031
 20
143.501465
 40
8.500005
 50
105.000023
 51
180.000000
  0
ARC
  8
0
 10
134.750031
 20
143.501465
 40
4.000006
 50
105.000008
 51
180.000000
  0
ARC
  8
0
 10
134.749969
 20
96.361984
 40
4.000000
 50
180.000000
 51
240.000015
  0
ARC
  8
0
 10
152.749847
 20
73.845284
 40
6.500000
 50
0.000000
 51
60.000004
  0
ARC
  8
0
 10
157.750092
 20
160.534637
 40
6.500002
 50
285.000031
 51
0.000000
  0
CIRCLE
  8
0
 10
-151.750061
 20
-322.115082
 40
5.000000
  0
CIRCLE
  8
0
 10
-111.750061
 20
-322.115082
 40
5.000000
  0
CIRCLE
  8
0
 10
-111.750061
 20
-446.115112
 40
5.000000
  0
CIRCLE
  8
0
 10
-151.750061
 20
-446.115112
 40
5.000000
  0
CIRCLE
  8
0
 10
-231.750061
 20
-322.115082
 40
5.000000
  0
CIRCLE
  8
0
 10
-271.750061
 20
-322.115082
 40
5.000000
  0
CIRCLE
  8
0
 10
-271.750061
 20
-446.115112
 40
5.000000
  0
CIRCLE
  8
0
 10
-231.750061
 20
-446.115112
 40
5.000000
  0
ARC
  8
0
 10
-194.250061
 20
-325.115112
 40
2.000000
 50
180.000000
 51
270.000000
  0
ARC
  8
0
 10
-189.250061
 20
-325.115112
 40
2.000000
 50
270.000000
 51
0.000000
  0
CIRCLE
  8
0
 10
-251.750214
 20
-161.615097
 40
3.500000
  0
CIRCLE
  8
0
 10
-251.750214
 20
-116.615097
 40
3.500000
  0
CIRCLE
  8
0
 10
-131.750229
 20
-161.615097
 40
3.500000
  0
CIRCLE
  8
0
 10
-131.750229
 20
-116.615097
 40
3.500000
  0
ARC
  8
0
 10
155.249847
 20
-335.813110
 40
2.999990
 50
285.000092
 51
0.000000
  0
ARC
  8
0
 10
150.250031
 20
-438.417084
 40
3.000000
 50
0.000000
 51
74.999916
  0
ARC
  8
0
 10
188.499878
 20
-325.365021
 40
1.250000
 50
270.000000
 51
0.000000
  0
ARC
  8
0
 10
188.499847
 20
-318.865021
 40
1.250000
 50
0.000000
 51
90.000000
  0
ARC
  8
0
 10
193.500061
 20
-442.865021
 40
1.250000
 50
0.000000
 51
90.000000
  0
ARC
  8
0
 10
193.500061
 20
-449.365021
 40
1.250000
 50
270.000000
 51
0.000000
  0
ARC
  8
0
 10
130.249878
 20
-358.040985
 40
11.999990
 50
105.000084
 51
180.000000
  0
ARC
  8
0
 10
130.250000
 20
-417.528992
 40
12.000000
 50
180.000000
 51
254.999954
  0
ARC
  8
0
 10
130.250000
 20
-417.528992
 40
6.000000
 50
180.000000
 51
254.999985
  0
ARC
  8
0
 10
130.249878
 20
-358.040985
 40
6.000009
 50
105.000008
 51
180.000000
  0
ARC
  8
0
 10
155.249847
 20
-335.813110
 40
8.999998
 50
285.000031
 51
0.000000
  0
ARC
  8
0
 10
150.250031
 20
-438.417084
 40
9.000000
 50
0.000000
 51
74.999962
  0
TEXT
  8
0
 10
452.676331
 20
466.216309
 40
17.000000
  1
DATE : MAY ,1991
 50
0.000000
 41
1.052631
 51
0.000000
  7
STANDARD
  0
TEXT
  8
0
 10
-662.223694
 20
463.516205
 40
20.000000
  1
ORCA CT MOUNT
 50
0.000000
 41
1.052632
 51
0.000000
  7
STANDARD
  0
TEXT
  8
0
 10
-704.357117
 20
384.914032
 40
20.000000
  1
BORE : 40
 50
0.000000
 41
1.052632
 51
0.000000
  7
STANDARD
  0
TEXT
  8
0
 10
-704.357117
 20
-67.000061
 40
20.000000
  1
BORE : 50
 50
0.000000
 41
1.052632
 51
0.000000
  7
STANDARD
  0
ENDSEC
  0
EOF
