  0
SECTION
  2
HEADER
  0
ENDSEC
  0
SECTION
  2
TABLES
  0
TABLE
  2
LTYPE
 70
     4
  0
LTYPE
  2
CONTINUOUS
 70
    64
  3
Solid line
 72
    65
 73
     0
 40
0.000000
  0
LTYPE
  2
DASHED
 70
    64
  3
__ __ __ __ __ __ __ __ __ __ __ __ __ __ __
 72
    65
 73
     2
 40
3.500000
 49
2.000000
 49
-1.500000
  0
LTYPE
  2
CENTER
 70
    64
  3
____ _ ____ _ ____ _ ____ _ ____ _ ____ _ ____
 72
    65
 73
     4
 40
17.500000
 49
13.000000
 49
-1.500000
 49
1.500000
 49
-1.500000
  0
LTYPE
  2
PHANTOM
 70
    64
  3
_____ _ _ _____ _ _ _____ _ _ _____ _ _ ____  
 72
    65
 73
     6
 40
15.500000
 49
8.000000
 49
-1.500000
 49
1.500000
 49
-1.500000
 49
1.500000
 49
-1.500000
  0
LTYPE
  2
DASHED1
 70
    64
  3
__ __ __ __ __ __ __ __ __ __ __ __ __ __ __
 72
    65
 73
     2
 40
1.500000
 49
1.000000
 49
-0.500000
  0
LTYPE
  2
DASHED2
 70
    64
  3
__ __ __ __ __ __ __ __ __ __ __ __ __ __ __
 72
    65
 73
     2
 40
3.500000
 49
2.500000
 49
-1.000000
  0
LTYPE
  2
DASHED3
 70
    64
  3
__ __ __ __ __ __ __ __ __ __ __ __ __ __ __
 72
    65
 73
     2
 40
6.000000
 49
4.000000
 49
-2.000000
  0
LTYPE
  2
DASHED4
 70
    64
  3
__ __ __ __ __ __ __ __ __ __ __ __ __ __ __
 72
    65
 73
     2
 40
12.000000
 49
10.000000
 49
-2.000000
  0
LTYPE
  2
DASHED5
 70
    64
  3
__ __ __ __ __ __ __ __ __ __ __ __ __ __ __
 72
    65
 73
     2
 40
17.000000
 49
15.000000
 49
-2.000000
  0
LTYPE
  2
DASHED6
 70
    64
  3
__ __ __ __ __ __ __ __ __ __ __ __ __ __ __
 72
    65
 73
     2
 40
29.000000
 49
27.000000
 49
-2.000000
  0
LTYPE
  2
PHANTOM1
 70
    64
  3
_____ _ _ _____ _ _ _____ _ _ _____ _ _ ____  
 72
    65
 73
     6
 40
31.000000
 49
25.000000
 49
-1.500000
 49
1.000000
 49
-1.000000
 49
1.000000
 49
-1.500000
  0
LTYPE
  2
PHANTOM2
 70
    64
  3
_____ _ _ _____ _ _ _____ _ _ _____ _ _ ____  
 72
    65
 73
     6
 40
36.000000
 49
27.000000
 49
-1.500000
 49
2.500000
 49
-1.000000
 49
2.500000
 49
-1.500000
  0
LTYPE
  2
PHANTOM3
 70
    64
  3
_____ _ _ _____ _ _ _____ _ _ _____ _ _ ____  
 72
    65
 73
     6
 40
78.000000
 49
64.000000
 49
-2.000000
 49
4.000000
 49
-2.000000
 49
4.000000
 49
-2.000000
  0
LTYPE
  2
CENTER1
 70
    64
  3
____ _ ____ _ ____ _ ____ _ ____ _ ____ _ ____
 72
    65
 73
     4
 40
19.000000
 49
14.000000
 49
-1.000000
 49
3.000000
 49
-1.000000
  0
LTYPE
  2
CENTER2
 70
    64
  3
____ _ ____ _ ____ _ ____ _ ____ _ ____ _ ____
 72
    65
 73
     4
 40
28.500000
 49
25.000000
 49
-1.000000
 49
1.500000
 49
-1.000000
  0
LTYPE
  2
CENTER3
 70
    64
  3
____ _ ____ _ ____ _ ____ _ ____ _ ____ _ ____
 72
    65
 73
     4
 40
31.500000
 49
27.000000
 49
-1.000000
 49
2.500000
 49
-1.000000
  0
LTYPE
  2
CENTER4
 70
    64
  3
____ _ ____ _ ____ _ ____ _ ____ _ ____ _ ____
 72
    65
 73
     4
 40
50.000000
 49
45.000000
 49
-1.000000
 49
3.000000
 49
-1.000000
  0
LTYPE
  2
CENTER5
 70
    64
  3
____ _ ____ _ ____ _ ____ _ ____ _ ____ _ ____
 72
    65
 73
     4
 40
100.000000
 49
92.000000
 49
-2.000000
 49
4.000000
 49
-2.000000
  0
LTYPE
  2
SBK1
 70
    64
  3
______ _ _ _ ______ _ _ _ ______ _ _ _ _____  
 72
    65
 73
     8
 40
60.500000
 49
45.000000
 49
-2.000000
 49
2.500000
 49
-2.000000
 49
2.500000
 49
-2.000000
 49
2.500000
 49
-2.000000
  0
LTYPE
  2
SBK2
 70
    64
  3
______ _ _ _ ______ _ _ _ ______ _ _ _ _____  
 72
    65
 73
     8
 40
84.000000
 49
64.000000
 49
-2.000000
 49
4.000000
 49
-2.000000
 49
4.000000
 49
-2.000000
 49
4.000000
 49
-2.000000
  0
LTYPE
  2
STCH
 70
    64
  3
__ __ __ __ __ __ __ __ __ __ __ __ __ __ __
 72
    65
 73
     2
 40
3.000000
 49
1.000000
 49
-2.000000
  0
LTYPE
  2
MTCH
 70
    64
  3
_____ _ _ _____ _ _ _____ _ _ _____ _ _ ____  
 72
    65
 73
     6
 40
80.000000
 49
66.000000
 49
-2.000000
 49
4.000000
 49
-2.000000
 49
4.000000
 49
-2.000000
  0
ENDTAB
  0
TABLE
  2
LAYER
 70
     1
  0
LAYER
  2
0
 70
     0
 62
     7
  6
CONTINUOUS
  0
ENDTAB
  0
TABLE
  2
STYLE
 70
     1
  0
STYLE
  2
STANDARD
 70
     0
 40
0.000000
 41
1.000000
 50
0.000000
 71
     0
 42
0.200000
  3
txt
  4
BIGFONT
  0
ENDTAB
  0
TABLE
  2
VIEW
 70
     0
  0
ENDTAB
  0
ENDSEC
  0
SECTION
  2
BLOCKS
  0
ENDSEC
  0
SECTION
  2
ENTITIES
  0
POINT
  8
0
 10
-283.873566
 20
149.999969
  0
POINT
  8
0
 10
-283.873444
 20
49.999977
  0
POINT
  8
0
 10
-148.873566
 20
49.999977
  0
POINT
  8
0
 10
-148.873566
 20
149.999969
  0
POINT
  8
0
 10
-62.373566
 20
49.999977
  0
POINT
  8
0
 10
-75.873566
 20
49.999977
  0
POINT
  8
0
 10
74.999969
 20
159.999969
  0
POINT
  8
0
 10
239.999985
 20
159.999969
  0
POINT
  8
0
 10
75.000015
 20
49.999977
  0
POINT
  8
0
 10
239.999985
 20
49.999977
  0
POINT
  8
0
 10
332.000000
 20
49.999977
  0
POINT
  8
0
 10
315.000000
 20
49.999977
  0
POINT
  8
0
 10
-115.873581
 20
-64.558479
  0
POINT
  8
0
 10
94.126419
 20
-64.558479
  0
POINT
  8
0
 10
-115.873474
 20
-174.558487
  0
POINT
  8
0
 10
94.126419
 20
-174.558487
  0
POINT
  8
0
 10
224.126434
 20
-174.558487
  0
POINT
  8
0
 10
204.126434
 20
-174.558487
  0
LINE
  8
0
 62
     3
 10
218.329163
 20
-225.956436
 11
370.873566
 21
-225.956436
  0
LINE
  8
0
 62
     3
 10
-218.329163
 20
225.956390
 11
-218.329163
 21
254.558487
  0
LINE
  8
0
 62
     3
 10
-370.873566
 20
225.956390
 11
-218.329163
 21
225.956390
  0
LINE
  8
0
 62
     3
 10
-370.873566
 20
254.558487
 11
370.873566
 21
254.558487
  0
LINE
  8
0
 62
     3
 10
-370.873566
 20
-254.558487
 11
370.873566
 21
-254.558487
  0
LINE
  8
0
 62
     3
 10
370.873566
 20
254.558487
 11
370.873566
 21
-254.558487
  0
LINE
  8
0
 62
     3
 10
-370.873566
 20
-254.558487
 11
-370.873566
 21
254.558487
  0
LINE
  8
0
 62
     3
 10
218.329163
 20
-225.956436
 11
218.329163
 21
-254.558487
  0
LINE
  8
0
 62
     3
 10
218.329163
 20
254.558487
 11
218.329163
 21
225.956390
  0
LINE
  8
0
 62
     3
 10
218.329163
 20
225.956390
 11
370.873566
 21
225.956390
  0
LINE
  8
0
 62
     5
 10
258.381622
 20
-232.833740
 11
258.381622
 21
-236.151566
  0
LINE
  8
0
 62
     5
 10
258.381622
 20
-236.151566
 11
270.823547
 21
-236.151566
  0
LINE
  8
0
 62
     5
 10
258.381622
 20
-249.146469
 11
275.247345
 21
-249.146469
  0
LINE
  8
0
 62
     5
 10
258.381622
 20
-245.828644
 11
270.823547
 21
-245.828644
  0
LINE
  8
0
 62
     5
 10
258.381622
 20
-232.833740
 11
273.035400
 21
-232.833740
  0
LINE
  8
0
 62
     5
 10
270.823547
 20
-236.151566
 11
270.823547
 21
-245.828644
  0
LINE
  8
0
 62
     5
 10
275.247345
 20
-235.045654
 11
275.247345
 21
-249.146469
  0
LINE
  8
0
 62
     5
 10
258.381622
 20
-245.828644
 11
258.381622
 21
-249.146469
  0
LINE
  8
0
 62
     5
 10
293.495392
 20
-236.151566
 11
293.495392
 21
-246.934647
  0
LINE
  8
0
 62
     5
 10
277.735657
 20
-232.833740
 11
277.735657
 21
-236.151566
  0
LINE
  8
0
 62
     5
 10
293.937836
 20
-232.584961
 11
295.513824
 21
-232.584961
  0
LINE
  8
0
 62
     5
 10
293.937836
 20
-230.373016
 11
295.513824
 21
-230.373016
  0
LINE
  8
0
 62
     5
 10
295.513824
 20
-230.373016
 11
295.513824
 21
-232.584961
  0
LINE
  8
0
 62
     5
 10
293.937836
 20
-230.373016
 11
293.937836
 21
-232.584961
  0
LINE
  8
0
 62
     5
 10
293.108276
 20
-230.373016
 11
293.108276
 21
-232.584961
  0
LINE
  8
0
 62
     5
 10
282.766052
 20
-230.373016
 11
286.200897
 21
-230.373016
  0
LINE
  8
0
 62
     5
 10
285.541260
 20
-232.833466
 11
286.200562
 21
-230.372711
  0
LINE
  8
0
 62
     5
 10
282.106689
 20
-232.833710
 11
282.766022
 21
-230.372986
  0
LINE
  8
0
 62
     5
 10
285.541565
 20
-232.833740
 11
290.177551
 21
-232.833740
  0
LINE
  8
0
 62
     5
 10
284.652557
 20
-236.151566
 11
289.071625
 21
-236.151566
  0
LINE
  8
0
 62
     5
 10
286.642853
 20
-249.146469
 11
291.283569
 21
-249.146469
  0
LINE
  8
0
 62
     5
 10
285.753693
 20
-245.828583
 11
286.642731
 21
-249.146347
  0
LINE
  8
0
 62
     5
 10
285.753754
 20
-245.828644
 11
289.071625
 21
-245.828644
  0
LINE
  8
0
 62
     5
 10
281.170746
 20
-249.146637
 11
284.652679
 21
-236.151733
  0
LINE
  8
0
 62
     5
 10
277.735657
 20
-236.151566
 11
281.217682
 21
-236.151566
  0
LINE
  8
0
 62
     5
 10
277.735413
 20
-249.146210
 11
281.217468
 21
-236.151337
  0
LINE
  8
0
 62
     5
 10
277.735657
 20
-249.146469
 11
281.170593
 21
-249.146469
  0
LINE
  8
0
 62
     5
 10
277.735657
 20
-232.833740
 11
282.106689
 21
-232.833740
  0
LINE
  8
0
 62
     5
 10
289.071625
 20
-236.151566
 11
289.071625
 21
-245.828644
  0
LINE
  8
0
 62
     5
 10
291.532288
 20
-230.373016
 11
293.108276
 21
-230.373016
  0
LINE
  8
0
 62
     5
 10
291.532288
 20
-232.584961
 11
293.108276
 21
-232.584961
  0
LINE
  8
0
 62
     5
 10
291.532288
 20
-230.373016
 11
291.532288
 21
-232.584961
  0
LINE
  8
0
 62
     5
 10
301.513550
 20
-230.373016
 11
305.937286
 21
-230.373016
  0
LINE
  8
0
 62
     5
 10
308.342316
 20
-240.195053
 11
311.296204
 21
-238.817642
  0
LINE
  8
0
 62
     5
 10
305.937286
 20
-242.734406
 11
305.937286
 21
-249.146469
  0
LINE
  8
0
 62
     5
 10
301.513550
 20
-243.379044
 11
301.513550
 21
-249.146469
  0
LINE
  8
0
 62
     5
 10
305.937286
 20
-232.833740
 11
310.361115
 21
-232.833740
  0
LINE
  8
0
 62
     5
 10
305.937286
 20
-230.373016
 11
305.937286
 21
-232.833740
  0
LINE
  8
0
 62
     5
 10
301.513550
 20
-230.373016
 11
301.513550
 21
-232.833740
  0
LINE
  8
0
 62
     5
 10
312.572998
 20
-235.045654
 11
312.572998
 21
-236.812775
  0
LINE
  8
0
 62
     5
 10
308.342377
 20
-240.195038
 11
312.573395
 21
-242.168030
  0
LINE
  8
0
 62
     5
 10
305.937256
 20
-242.734329
 11
312.573059
 21
-245.828613
  0
LINE
  8
0
 62
     5
 10
296.260284
 20
-242.167801
 11
296.260284
 21
-245.828644
  0
LINE
  8
0
 62
     5
 10
296.260742
 20
-242.168167
 11
309.162567
 21
-236.151932
  0
LINE
  8
0
 62
     5
 10
296.260254
 20
-245.828598
 11
301.513580
 21
-243.378937
  0
LINE
  8
0
 62
     5
 10
312.572998
 20
-242.167801
 11
312.572998
 21
-245.828644
  0
LINE
  8
0
 62
     5
 10
296.260284
 20
-232.833740
 11
296.260284
 21
-236.151566
  0
LINE
  8
0
 62
     5
 10
301.513550
 20
-249.146469
 11
305.937286
 21
-249.146469
  0
LINE
  8
0
 62
     5
 10
296.260284
 20
-236.151566
 11
309.162079
 21
-236.151566
  0
LINE
  8
0
 62
     5
 10
296.260284
 20
-232.833740
 11
301.513550
 21
-232.833740
  0
LINE
  8
0
 62
     5
 10
327.503998
 20
-236.404739
 11
328.730042
 21
-235.917068
  0
LINE
  8
0
 62
     5
 10
327.503357
 20
-236.404404
 11
327.503357
 21
-249.146469
  0
LINE
  8
0
 62
     5
 10
323.079498
 20
-249.146469
 11
327.503357
 21
-249.146469
  0
LINE
  8
0
 62
     5
 10
313.955292
 20
-241.792511
 11
323.079376
 21
-238.163742
  0
LINE
  8
0
 62
     5
 10
313.955536
 20
-238.221954
 11
326.806152
 21
-233.111084
  0
LINE
  8
0
 62
     5
 10
323.079498
 20
-238.163773
 11
323.079498
 21
-249.146469
  0
LINE
  8
0
 62
     5
 10
327.503357
 20
-231.368408
 11
327.503357
 21
-232.083389
  0
LINE
  8
0
 62
     5
 10
330.821106
 20
-231.368408
 11
330.821106
 21
-232.833755
  0
LINE
  8
0
 62
     5
 10
313.955444
 20
-238.221893
 11
313.955444
 21
-241.792496
  0
LINE
  8
0
 62
     5
 10
327.503357
 20
-231.368408
 11
330.821106
 21
-231.368408
  0
LINE
  8
0
 10
-370.873566
 20
-0.000023
 11
370.873566
 21
-0.000023
  0
LINE
  8
0
 10
-20.000000
 20
254.558487
 11
-20.000000
 21
-0.000023
  0
LINE
  8
0
  6
CENTER
 10
-338.873566
 20
149.999969
 11
-143.873566
 21
149.999969
  0
LINE
  8
0
  6
CENTER
 10
-75.873566
 20
29.999977
 11
-75.873566
 21
79.999977
  0
LINE
  8
0
  6
CENTER
 10
-94.373566
 20
49.999977
 11
-57.373566
 21
49.999977
  0
LINE
  8
0
  6
PHANTOM
 10
-81.873566
 20
34.999977
 11
-77.573563
 21
34.999977
  0
LINE
  8
0
  6
PHANTOM
 10
-81.873566
 20
34.999977
 11
-81.873566
 21
35.999977
  0
LINE
  8
0
  6
PHANTOM
 10
-69.873566
 20
34.999977
 11
-69.873566
 21
35.999977
  0
LINE
  8
0
  6
PHANTOM
 10
-77.573563
 20
34.999977
 11
-77.573563
 21
35.999977
  0
LINE
  8
0
  6
PHANTOM
 10
-74.173569
 20
34.999977
 11
-74.173569
 21
35.999977
  0
LINE
  8
0
  6
PHANTOM
 10
-74.173569
 20
34.999977
 11
-69.873566
 21
34.999977
  0
LINE
  8
0
  6
PHANTOM
 10
-78.873566
 20
35.999977
 11
-77.573563
 21
35.999977
  0
LINE
  8
0
  6
PHANTOM
 10
-77.873566
 20
38.499977
 11
-73.873566
 21
38.499977
  0
LINE
  8
0
  6
PHANTOM
 10
-78.873566
 20
35.999977
 11
-78.873566
 21
37.499977
  0
LINE
  8
0
  6
PHANTOM
 10
-72.873566
 20
35.999977
 11
-72.873566
 21
37.499977
  0
LINE
  8
0
  6
PHANTOM
 10
-74.173569
 20
35.999977
 11
-72.873566
 21
35.999977
  0
LINE
  8
0
  6
PHANTOM
 10
-78.873573
 20
37.499992
 11
-77.873566
 21
38.499992
  0
LINE
  8
0
  6
PHANTOM
 10
-73.873550
 20
38.499966
 11
-72.873550
 21
37.499962
  0
LINE
  8
0
  6
PHANTOM
 10
-333.873566
 20
34.999977
 11
-148.873566
 21
34.999977
  0
LINE
  8
0
  6
PHANTOM
 10
-333.873566
 20
61.999977
 11
-322.373566
 21
61.999977
  0
LINE
  8
0
  6
PHANTOM
 10
-332.554871
 20
37.999977
 11
-147.554871
 21
37.999977
  0
LINE
  8
0
  6
CENTER
 10
-338.873566
 20
49.999977
 11
-143.873566
 21
49.999977
  0
LINE
  8
0
  6
PHANTOM
 10
-333.873566
 20
137.999969
 11
-148.873566
 21
137.999969
  0
LINE
  8
0
  6
PHANTOM
 10
-333.873566
 20
161.999969
 11
-148.873566
 21
161.999969
  0
LINE
  8
0
  6
PHANTOM
 10
-332.677734
 20
145.299988
 11
-322.873566
 21
145.299988
  0
LINE
  8
0
  6
PHANTOM
 10
-335.069397
 20
154.699982
 11
-322.873566
 21
154.699982
  0
LINE
  8
0
  6
PHANTOM
 10
-244.873566
 20
154.699982
 11
-237.873566
 21
154.699982
  0
LINE
  8
0
  6
PHANTOM
 10
-244.873566
 20
145.299988
 11
-237.873566
 21
145.299988
  0
LINE
  8
0
  6
PHANTOM
 10
-245.373566
 20
61.999977
 11
-237.373566
 21
61.999977
  0
LINE
  8
0
  6
PHANTOM
 10
-160.373566
 20
61.999977
 11
-148.873566
 21
61.999977
  0
LINE
  8
0
  6
PHANTOM
 10
-159.873566
 20
154.699982
 11
-150.069397
 21
154.699982
  0
LINE
  8
0
  6
PHANTOM
 10
-159.873566
 20
145.299988
 11
-147.677734
 21
145.299988
  0
LINE
  8
0
  6
PHANTOM
 10
-63.873566
 20
40.999977
 11
-63.873566
 21
58.999977
  0
LINE
  8
0
  6
PHANTOM
 10
-87.873566
 20
40.999977
 11
-87.873566
 21
58.999977
  0
LINE
  8
0
  6
PHANTOM
 10
-84.873566
 20
37.999977
 11
-83.873566
 21
37.999977
  0
LINE
  8
0
  6
PHANTOM
 10
-67.873566
 20
37.999977
 11
-66.873566
 21
37.999977
  0
LINE
  8
0
  6
CENTER
 10
10.000000
 20
49.999977
 11
245.000000
 21
49.999977
  0
LINE
  8
0
  6
CENTER
 10
10.000000
 20
159.999969
 11
245.000000
 21
159.999969
  0
LINE
  8
0
  6
CENTER
 10
293.000000
 20
49.999977
 11
337.000000
 21
49.999977
  0
LINE
  8
0
  6
CENTER
 10
315.000000
 20
25.999977
 11
315.000000
 21
86.999977
  0
LINE
  8
0
  6
PHANTOM
 10
307.000000
 20
30.999977
 11
312.799988
 21
30.999977
  0
LINE
  8
0
  6
PHANTOM
 10
317.200012
 20
30.999977
 11
317.200012
 21
31.999977
  0
LINE
  8
0
  6
PHANTOM
 10
312.799988
 20
30.999977
 11
312.799988
 21
31.999977
  0
LINE
  8
0
  6
PHANTOM
 10
317.200012
 20
30.999977
 11
323.000000
 21
30.999977
  0
LINE
  8
0
  6
PHANTOM
 10
307.000000
 20
30.999977
 11
307.000000
 21
32.499977
  0
LINE
  8
0
  6
PHANTOM
 10
323.000000
 20
30.999977
 11
323.000000
 21
32.499977
  0
LINE
  8
0
  6
PHANTOM
 10
318.750000
 20
31.999977
 11
318.750000
 21
33.499977
  0
LINE
  8
0
  6
PHANTOM
 10
311.250000
 20
31.999977
 11
311.250000
 21
33.499977
  0
LINE
  8
0
  6
PHANTOM
 10
311.250000
 20
31.999977
 11
312.799988
 21
31.999977
  0
LINE
  8
0
  6
PHANTOM
 10
317.200012
 20
31.999977
 11
318.750000
 21
31.999977
  0
LINE
  8
0
  6
PHANTOM
 10
313.250000
 20
35.499977
 11
316.750000
 21
35.499977
  0
LINE
  8
0
  6
PHANTOM
 10
15.000015
 20
30.999977
 11
240.000000
 21
30.999977
  0
LINE
  8
0
  6
PHANTOM
 10
15.000000
 20
65.499977
 11
27.000000
 21
65.499977
  0
LINE
  8
0
  6
PHANTOM
 10
16.479080
 20
34.499977
 11
241.479065
 21
34.499977
  0
LINE
  8
0
  6
PHANTOM
 10
14.999985
 20
144.499969
 11
240.000000
 21
144.499969
  0
LINE
  8
0
  6
PHANTOM
 10
15.000000
 20
175.499969
 11
240.000000
 21
175.499969
  0
LINE
  8
0
  6
PHANTOM
 10
16.555023
 20
152.799988
 11
26.000000
 21
152.799988
  0
LINE
  8
0
  6
PHANTOM
 10
13.444962
 20
167.199982
 11
26.000000
 21
167.199982
  0
LINE
  8
0
  6
PHANTOM
 10
124.000000
 20
167.199982
 11
131.000000
 21
167.199982
  0
LINE
  8
0
  6
PHANTOM
 10
124.000000
 20
152.799988
 11
131.000000
 21
152.799988
  0
LINE
  8
0
  6
PHANTOM
 10
229.000000
 20
167.199982
 11
238.444946
 21
167.199982
  0
LINE
  8
0
  6
PHANTOM
 10
229.000000
 20
152.799988
 11
241.555023
 21
152.799988
  0
LINE
  8
0
  6
PHANTOM
 10
123.000000
 20
65.499977
 11
132.000000
 21
65.499977
  0
LINE
  8
0
  6
PHANTOM
 10
228.000000
 20
65.499977
 11
240.000000
 21
65.499977
  0
LINE
  8
0
  6
PHANTOM
 10
330.500000
 20
37.499977
 11
330.500000
 21
62.499977
  0
LINE
  8
0
  6
PHANTOM
 10
299.500000
 20
37.499977
 11
299.500000
 21
62.499977
  0
LINE
  8
0
  6
PHANTOM
 10
302.500000
 20
34.499977
 11
305.000000
 21
34.499977
  0
LINE
  8
0
  6
PHANTOM
 10
325.000000
 20
34.499977
 11
327.500000
 21
34.499977
  0
LINE
  8
0
  6
CENTER
 10
-195.873566
 20
-64.558479
 11
99.126434
 21
-64.558479
  0
LINE
  8
0
  6
CENTER
 10
-195.873566
 20
-174.558487
 11
99.126434
 21
-174.558487
  0
LINE
  8
0
  6
CENTER
 10
204.126434
 20
-131.558487
 11
204.126434
 21
-201.558472
  0
LINE
  8
0
  6
CENTER
 10
179.126434
 20
-174.558487
 11
229.126434
 21
-174.558487
  0
LINE
  8
0
  6
PHANTOM
 10
195.126434
 20
-196.558487
 11
201.926422
 21
-196.558487
  0
LINE
  8
0
  6
PHANTOM
 10
206.326447
 20
-195.558487
 11
206.326447
 21
-196.558487
  0
LINE
  8
0
  6
PHANTOM
 10
201.926422
 20
-195.558487
 11
201.926422
 21
-196.558487
  0
LINE
  8
0
  6
PHANTOM
 10
206.326447
 20
-196.558487
 11
213.126434
 21
-196.558487
  0
LINE
  8
0
  6
PHANTOM
 10
213.126434
 20
-195.558487
 11
213.126434
 21
-196.558487
  0
LINE
  8
0
  6
PHANTOM
 10
195.126434
 20
-195.558487
 11
195.126434
 21
-196.558487
  0
LINE
  8
0
  6
PHANTOM
 10
200.376434
 20
-195.558487
 11
201.926422
 21
-195.558487
  0
LINE
  8
0
  6
PHANTOM
 10
206.326447
 20
-195.558487
 11
207.876434
 21
-195.558487
  0
LINE
  8
0
  6
PHANTOM
 10
200.376434
 20
-194.058487
 11
200.376434
 21
-195.558487
  0
LINE
  8
0
  6
PHANTOM
 10
207.876434
 20
-194.058487
 11
207.876434
 21
-195.558487
  0
LINE
  8
0
  6
PHANTOM
 10
202.376434
 20
-192.058487
 11
205.876434
 21
-192.058487
  0
LINE
  8
0
  6
PHANTOM
 10
-190.873566
 20
-196.558487
 11
94.126434
 21
-196.558487
  0
LINE
  8
0
  6
PHANTOM
 10
-190.873566
 20
-156.558487
 11
-175.873566
 21
-156.558487
  0
LINE
  8
0
  6
PHANTOM
 10
-189.323517
 20
-192.558487
 11
95.676483
 21
-192.558487
  0
LINE
  8
0
  6
PHANTOM
 10
-190.873566
 20
-46.558479
 11
94.126434
 21
-46.558479
  0
LINE
  8
0
  6
PHANTOM
 10
-190.873581
 20
-82.558479
 11
94.126434
 21
-82.558479
  0
LINE
  8
0
  6
PHANTOM
 10
-189.262268
 20
-71.758484
 11
-176.873566
 21
-71.758484
  0
LINE
  8
0
  6
PHANTOM
 10
-192.484879
 20
-57.358482
 11
-176.873566
 21
-57.358482
  0
LINE
  8
0
  6
PHANTOM
 10
-54.873566
 20
-57.358482
 11
-41.873566
 21
-57.358482
  0
LINE
  8
0
  6
PHANTOM
 10
-54.873566
 20
-71.758484
 11
-41.873566
 21
-71.758484
  0
LINE
  8
0
  6
PHANTOM
 10
80.126434
 20
-57.358482
 11
92.515137
 21
-57.358482
  0
LINE
  8
0
  6
PHANTOM
 10
80.126434
 20
-71.758484
 11
95.737732
 21
-71.758484
  0
LINE
  8
0
  6
PHANTOM
 10
192.126434
 20
-192.558487
 11
192.126434
 21
-192.558487
  0
LINE
  8
0
  6
PHANTOM
 10
222.126434
 20
-162.558487
 11
222.126434
 21
-186.558487
  0
LINE
  8
0
  6
PHANTOM
 10
186.126434
 20
-162.558487
 11
186.126434
 21
-186.558487
  0
LINE
  8
0
  6
PHANTOM
 10
216.126434
 20
-192.558487
 11
216.126434
 21
-192.558487
  0
LINE
  8
0
  6
PHANTOM
 10
-55.873566
 20
-156.558487
 11
-40.873566
 21
-156.558487
  0
LINE
  8
0
  6
PHANTOM
 10
79.126434
 20
-156.558487
 11
94.126434
 21
-156.558487
  0
LINE
  8
0
 10
-236.873444
 20
74.999977
 11
-200.873444
 21
74.999977
  0
LINE
  8
0
  6
CENTER
 10
-299.873444
 20
75.499977
 11
-299.873444
 21
68.499977
  0
LINE
  8
0
 10
-160.873444
 20
62.999977
 11
-160.873444
 21
74.999977
  0
LINE
  8
0
 10
-236.873444
 20
62.999977
 11
-236.873444
 21
74.999977
  0
LINE
  8
0
 10
-237.373444
 20
62.999977
 11
-160.373444
 21
62.999977
  0
LINE
  8
0
 10
-196.873444
 20
72.499977
 11
-196.873444
 21
74.999977
  0
LINE
  8
0
 10
-200.873444
 20
72.499977
 11
-200.873444
 21
74.999977
  0
LINE
  8
0
 10
-196.873444
 20
74.999977
 11
-160.873444
 21
74.999977
  0
LINE
  8
0
 10
-200.373444
 20
71.999977
 11
-197.373444
 21
71.999977
  0
LINE
  8
0
 10
-285.373444
 20
71.999977
 11
-282.373444
 21
71.999977
  0
LINE
  8
0
 10
-321.873444
 20
74.999977
 11
-285.873444
 21
74.999977
  0
LINE
  8
0
 10
-245.873444
 20
62.999977
 11
-245.873444
 21
74.999977
  0
LINE
  8
0
 10
-321.873444
 20
62.999977
 11
-321.873444
 21
74.999977
  0
LINE
  8
0
 10
-322.373444
 20
62.999977
 11
-245.373444
 21
62.999977
  0
LINE
  8
0
 10
-281.873444
 20
72.499977
 11
-281.873444
 21
74.999977
  0
LINE
  8
0
 10
-285.873444
 20
72.499977
 11
-285.873444
 21
74.999977
  0
LINE
  8
0
 10
-281.873444
 20
74.999977
 11
-245.873444
 21
74.999977
  0
LINE
  8
0
 10
-322.373444
 20
61.999977
 11
-245.373444
 21
61.999977
  0
LINE
  8
0
 10
-237.373444
 20
61.999977
 11
-160.373444
 21
61.999977
  0
LINE
  8
0
  6
CENTER
 10
-303.373444
 20
71.999977
 11
-296.373444
 21
71.999977
  0
LINE
  8
0
  6
CENTER
 10
-283.873444
 20
29.999977
 11
-283.873444
 21
79.999977
  0
LINE
  8
0
  6
CENTER
 10
-264.373444
 20
71.999977
 11
-271.373444
 21
71.999977
  0
LINE
  8
0
  6
CENTER
 10
-267.873444
 20
75.499977
 11
-267.873444
 21
68.499977
  0
LINE
  8
0
  6
CENTER
 10
-218.373444
 20
71.999977
 11
-211.373444
 21
71.999977
  0
LINE
  8
0
  6
CENTER
 10
-214.873444
 20
75.499977
 11
-214.873444
 21
68.499977
  0
LINE
  8
0
  6
CENTER
 10
-179.373444
 20
71.999977
 11
-186.373444
 21
71.999977
  0
LINE
  8
0
  6
CENTER
 10
-182.873444
 20
75.499977
 11
-182.873444
 21
68.499977
  0
LINE
  8
0
  6
CENTER
 10
-198.873444
 20
29.999977
 11
-198.873444
 21
79.999977
  0
LINE
  8
0
 10
-236.873566
 20
158.999954
 11
-236.873566
 21
140.999954
  0
LINE
  8
0
 10
-160.873566
 20
158.999954
 11
-160.873566
 21
140.999954
  0
LINE
  8
0
 10
-200.873566
 20
158.999954
 11
-200.873566
 21
154.999954
  0
LINE
  8
0
 10
-196.873566
 20
158.999954
 11
-196.873566
 21
154.999954
  0
LINE
  8
0
 10
-236.873566
 20
140.999954
 11
-160.873566
 21
140.999954
  0
LINE
  8
0
 10
-236.873566
 20
158.999954
 11
-160.873566
 21
158.999954
  0
LINE
  8
0
 10
-200.873566
 20
144.999954
 11
-200.873566
 21
140.999954
  0
LINE
  8
0
 10
-196.873566
 20
144.999954
 11
-196.873566
 21
140.999954
  0
LINE
  8
0
 10
-202.373566
 20
154.999954
 11
-202.373566
 21
144.999954
  0
LINE
  8
0
 10
-195.373566
 20
154.999954
 11
-195.373566
 21
144.999954
  0
LINE
  8
0
 10
-202.373566
 20
154.999954
 11
-195.373566
 21
154.999954
  0
LINE
  8
0
 10
-202.373566
 20
144.999954
 11
-195.373566
 21
144.999954
  0
LINE
  8
0
 10
-237.873566
 20
157.999954
 11
-237.873566
 21
141.999954
  0
LINE
  8
0
 10
-159.873566
 20
157.999954
 11
-159.873566
 21
141.999954
  0
LINE
  8
0
 10
-321.873566
 20
158.999954
 11
-321.873566
 21
140.999954
  0
LINE
  8
0
 10
-245.873566
 20
158.999954
 11
-245.873566
 21
140.999954
  0
LINE
  8
0
 10
-285.873566
 20
158.999954
 11
-285.873566
 21
154.999954
  0
LINE
  8
0
 10
-281.873566
 20
158.999954
 11
-281.873566
 21
154.999954
  0
LINE
  8
0
 10
-321.873566
 20
140.999954
 11
-245.873566
 21
140.999954
  0
LINE
  8
0
 10
-321.873566
 20
158.999954
 11
-245.873566
 21
158.999954
  0
LINE
  8
0
 10
-285.873566
 20
144.999954
 11
-285.873566
 21
140.999954
  0
LINE
  8
0
 10
-281.873566
 20
144.999954
 11
-281.873566
 21
140.999954
  0
LINE
  8
0
 10
-287.373566
 20
154.999954
 11
-287.373566
 21
144.999954
  0
LINE
  8
0
 10
-280.373566
 20
154.999954
 11
-280.373566
 21
144.999954
  0
LINE
  8
0
 10
-287.373566
 20
154.999954
 11
-280.373566
 21
154.999954
  0
LINE
  8
0
 10
-287.373566
 20
144.999954
 11
-280.373566
 21
144.999954
  0
LINE
  8
0
 10
-322.873566
 20
157.999954
 11
-322.873566
 21
141.999954
  0
LINE
  8
0
 10
-244.873566
 20
157.999954
 11
-244.873566
 21
141.999954
  0
LINE
  8
0
  6
CENTER
 10
-309.873566
 20
152.999954
 11
-309.873566
 21
146.999954
  0
LINE
  8
0
  6
CENTER
 10
-283.873566
 20
166.999954
 11
-283.873566
 21
132.999954
  0
LINE
  8
0
  6
CENTER
 10
-257.873566
 20
152.999954
 11
-257.873566
 21
146.999954
  0
LINE
  8
0
  6
CENTER
 10
-224.873566
 20
152.999954
 11
-224.873566
 21
146.999954
  0
LINE
  8
0
  6
CENTER
 10
-198.873566
 20
166.999954
 11
-198.873566
 21
132.999954
  0
LINE
  8
0
  6
CENTER
 10
-172.873566
 20
152.999954
 11
-172.873566
 21
146.999954
  0
LINE
  8
0
 10
-84.873589
 20
62.999981
 11
-66.873589
 21
62.999981
  0
LINE
  8
0
 10
-84.873589
 20
74.999985
 11
-66.873589
 21
74.999985
  0
LINE
  8
0
 10
-66.873589
 20
61.999981
 11
-66.873589
 21
74.999985
  0
LINE
  8
0
 10
-84.873589
 20
61.999981
 11
-84.873589
 21
74.999985
  0
LINE
  8
0
 10
-84.873589
 20
61.999981
 11
-66.873589
 21
61.999981
  0
LINE
  8
0
  6
CENTER
 10
-87.873589
 20
71.999985
 11
-63.873589
 21
71.999985
  0
LINE
  8
0
 10
132.000015
 20
82.000000
 11
177.500015
 21
82.000000
  0
LINE
  8
0
 10
132.000015
 20
67.500000
 11
132.000015
 21
82.000000
  0
LINE
  8
0
 10
228.000015
 20
67.500000
 11
228.000015
 21
82.000000
  0
LINE
  8
0
 10
132.000015
 20
67.500000
 11
228.000015
 21
67.500000
  0
LINE
  8
0
 10
182.500015
 20
78.699997
 11
182.500015
 21
82.000000
  0
LINE
  8
0
 10
177.500015
 20
78.699997
 11
177.500015
 21
82.000000
  0
LINE
  8
0
 10
178.000015
 20
78.199997
 11
182.000015
 21
78.199997
  0
LINE
  8
0
 10
182.500015
 20
82.000000
 11
228.000015
 21
82.000000
  0
LINE
  8
0
 10
27.000015
 20
82.000000
 11
72.500015
 21
82.000000
  0
LINE
  8
0
 10
27.000015
 20
67.500000
 11
27.000015
 21
82.000000
  0
LINE
  8
0
 10
123.000015
 20
67.500000
 11
123.000015
 21
82.000000
  0
LINE
  8
0
 10
27.000015
 20
67.500000
 11
123.000015
 21
67.500000
  0
LINE
  8
0
 10
77.500015
 20
78.699997
 11
77.500015
 21
82.000000
  0
LINE
  8
0
 10
72.500015
 20
78.699997
 11
72.500015
 21
82.000000
  0
LINE
  8
0
 10
73.000015
 20
78.199997
 11
77.000015
 21
78.199997
  0
LINE
  8
0
 10
77.500015
 20
82.000000
 11
123.000015
 21
82.000000
  0
LINE
  8
0
 10
132.000015
 20
65.500000
 11
228.000015
 21
65.500000
  0
LINE
  8
0
 10
27.000015
 20
65.500000
 11
123.000015
 21
65.500000
  0
LINE
  8
0
  6
CENTER
 10
75.000015
 20
25.999996
 11
75.000015
 21
87.000000
  0
LINE
  8
0
  6
CENTER
 10
180.000015
 20
25.999996
 11
180.000015
 21
87.000000
  0
LINE
  8
0
  6
CENTER
 10
51.000015
 20
78.000000
 11
59.000015
 21
78.000000
  0
LINE
  8
0
  6
CENTER
 10
55.000015
 20
82.000000
 11
55.000015
 21
74.000000
  0
LINE
  8
0
  6
CENTER
 10
99.000015
 20
78.000000
 11
91.000015
 21
78.000000
  0
LINE
  8
0
  6
CENTER
 10
95.000015
 20
82.000000
 11
95.000015
 21
74.000000
  0
LINE
  8
0
  6
CENTER
 10
156.000015
 20
78.000000
 11
164.000015
 21
78.000000
  0
LINE
  8
0
  6
CENTER
 10
160.000015
 20
82.000000
 11
160.000015
 21
74.000000
  0
LINE
  8
0
  6
CENTER
 10
204.000015
 20
78.000000
 11
196.000015
 21
78.000000
  0
LINE
  8
0
  6
CENTER
 10
200.000015
 20
82.000000
 11
200.000015
 21
74.000000
  0
LINE
  8
0
 10
131.999969
 20
172.999969
 11
131.999969
 21
146.999969
  0
LINE
  8
0
 10
130.999969
 20
171.999969
 11
130.999969
 21
147.999969
  0
LINE
  8
0
 10
177.499969
 20
172.999969
 11
177.499969
 21
167.499969
  0
LINE
  8
0
 10
131.999969
 20
146.999969
 11
227.999969
 21
146.999969
  0
LINE
  8
0
 10
131.999969
 20
172.999969
 11
227.999969
 21
172.999969
  0
LINE
  8
0
 10
227.999969
 20
172.999969
 11
227.999969
 21
146.999969
  0
LINE
  8
0
 10
228.999969
 20
171.999969
 11
228.999969
 21
147.999969
  0
LINE
  8
0
 10
175.699966
 20
167.499969
 11
175.699966
 21
152.499969
  0
LINE
  8
0
 10
175.699966
 20
152.499969
 11
184.299973
 21
152.499969
  0
LINE
  8
0
 10
175.699966
 20
167.499969
 11
184.299973
 21
167.499969
  0
LINE
  8
0
 10
177.499969
 20
152.499969
 11
177.499969
 21
146.999969
  0
LINE
  8
0
 10
182.499969
 20
172.999969
 11
182.499969
 21
167.499969
  0
LINE
  8
0
 10
184.299973
 20
167.499969
 11
184.299973
 21
152.499969
  0
LINE
  8
0
 10
182.499969
 20
152.499969
 11
182.499969
 21
146.999969
  0
LINE
  8
0
 10
26.999973
 20
172.999969
 11
26.999973
 21
146.999969
  0
LINE
  8
0
 10
25.999973
 20
171.999969
 11
25.999973
 21
147.999969
  0
LINE
  8
0
 10
72.499969
 20
172.999969
 11
72.499969
 21
167.499969
  0
LINE
  8
0
 10
26.999973
 20
146.999969
 11
122.999969
 21
146.999969
  0
LINE
  8
0
 10
26.999973
 20
172.999969
 11
122.999969
 21
172.999969
  0
LINE
  8
0
 10
122.999969
 20
172.999969
 11
122.999969
 21
146.999969
  0
LINE
  8
0
 10
123.999969
 20
171.999969
 11
123.999969
 21
147.999969
  0
LINE
  8
0
 10
70.699966
 20
167.499969
 11
70.699966
 21
152.499969
  0
LINE
  8
0
 10
70.699966
 20
152.499969
 11
79.299973
 21
152.499969
  0
LINE
  8
0
 10
70.699966
 20
167.499969
 11
79.299973
 21
167.499969
  0
LINE
  8
0
 10
72.499969
 20
152.499969
 11
72.499969
 21
146.999969
  0
LINE
  8
0
 10
77.499969
 20
172.999969
 11
77.499969
 21
167.499969
  0
LINE
  8
0
 10
79.299973
 20
167.499969
 11
79.299973
 21
152.499969
  0
LINE
  8
0
 10
77.499969
 20
152.499969
 11
77.499969
 21
146.999969
  0
LINE
  8
0
  6
CENTER
 10
42.499973
 20
163.999969
 11
42.499973
 21
155.999969
  0
LINE
  8
0
  6
CENTER
 10
74.999969
 20
178.499969
 11
74.999969
 21
141.499969
  0
LINE
  8
0
  6
CENTER
 10
107.499969
 20
163.999969
 11
107.499969
 21
155.999969
  0
LINE
  8
0
  6
CENTER
 10
147.499969
 20
163.999969
 11
147.499969
 21
155.999969
  0
LINE
  8
0
  6
CENTER
 10
179.999969
 20
178.499969
 11
179.999969
 21
141.499969
  0
LINE
  8
0
  6
CENTER
 10
212.499969
 20
163.999969
 11
212.499969
 21
155.999969
  0
LINE
  8
0
 10
302.000092
 20
67.500008
 11
328.000092
 21
67.500008
  0
LINE
  8
0
 10
302.000092
 20
82.000008
 11
328.000092
 21
82.000008
  0
LINE
  8
0
 10
328.000092
 20
65.500008
 11
328.000092
 21
82.000008
  0
LINE
  8
0
 10
302.000092
 20
65.500008
 11
302.000092
 21
82.000008
  0
LINE
  8
0
 10
302.000092
 20
65.500008
 11
328.000092
 21
65.500008
  0
LINE
  8
0
  6
CENTER
 10
299.000092
 20
78.000008
 11
331.000092
 21
78.000008
  0
LINE
  8
0
 10
-40.873474
 20
-136.558395
 11
16.126526
 21
-136.558395
  0
LINE
  8
0
 10
79.126526
 20
-136.558395
 11
79.126526
 21
-154.558395
  0
LINE
  8
0
 10
-40.873474
 20
-136.558395
 11
-40.873474
 21
-154.558395
  0
LINE
  8
0
 10
-40.873474
 20
-154.558395
 11
79.126526
 21
-154.558395
  0
LINE
  8
0
 10
22.126526
 20
-136.558395
 11
79.126526
 21
-136.558395
  0
LINE
  8
0
 10
16.126526
 20
-136.558395
 11
16.126526
 21
-140.558395
  0
LINE
  8
0
 10
22.126526
 20
-136.558395
 11
22.126526
 21
-140.558395
  0
LINE
  8
0
 10
17.126526
 20
-141.558395
 11
21.126526
 21
-141.558395
  0
LINE
  8
0
 10
-175.873474
 20
-136.558395
 11
-118.873474
 21
-136.558395
  0
LINE
  8
0
 10
-55.873474
 20
-136.558395
 11
-55.873474
 21
-154.558395
  0
LINE
  8
0
 10
-175.873474
 20
-136.558395
 11
-175.873474
 21
-154.558395
  0
LINE
  8
0
 10
-175.873474
 20
-154.558395
 11
-55.873474
 21
-154.558395
  0
LINE
  8
0
 10
-112.873474
 20
-136.558395
 11
-55.873474
 21
-136.558395
  0
LINE
  8
0
 10
-118.873474
 20
-136.558395
 11
-118.873474
 21
-140.558395
  0
LINE
  8
0
 10
-112.873474
 20
-136.558395
 11
-112.873474
 21
-140.558395
  0
LINE
  8
0
 10
-117.873474
 20
-141.558395
 11
-113.873474
 21
-141.558395
  0
LINE
  8
0
 10
-175.873474
 20
-156.558395
 11
-55.873474
 21
-156.558395
  0
LINE
  8
0
 10
-40.873474
 20
-156.558395
 11
79.126526
 21
-156.558395
  0
LINE
  8
0
  6
CENTER
 10
-115.873474
 20
-131.558395
 11
-115.873474
 21
-201.558380
  0
LINE
  8
0
  6
CENTER
 10
-146.373474
 20
-141.558395
 11
-135.373474
 21
-141.558395
  0
LINE
  8
0
  6
CENTER
 10
-140.873474
 20
-136.058395
 11
-140.873474
 21
-147.058395
  0
LINE
  8
0
  6
CENTER
 10
-85.373474
 20
-141.558395
 11
-96.373474
 21
-141.558395
  0
LINE
  8
0
  6
CENTER
 10
-90.873474
 20
-136.058395
 11
-90.873474
 21
-147.058395
  0
LINE
  8
0
  6
CENTER
 10
-11.373474
 20
-141.558395
 11
-0.373474
 21
-141.558395
  0
LINE
  8
0
  6
CENTER
 10
-5.873474
 20
-136.058395
 11
-5.873474
 21
-147.058395
  0
LINE
  8
0
  6
CENTER
 10
19.126526
 20
-131.558395
 11
19.126526
 21
-201.558380
  0
LINE
  8
0
  6
CENTER
 10
49.626526
 20
-141.558395
 11
38.626526
 21
-141.558395
  0
LINE
  8
0
  6
CENTER
 10
44.126526
 20
-136.058395
 11
44.126526
 21
-147.058395
  0
LINE
  8
0
 10
-40.873581
 20
-51.558487
 11
-40.873581
 21
-77.558487
  0
LINE
  8
0
 10
79.126419
 20
-51.558487
 11
79.126419
 21
-77.558487
  0
LINE
  8
0
 10
-40.873581
 20
-77.558487
 11
79.126419
 21
-77.558487
  0
LINE
  8
0
 10
-40.873581
 20
-51.558487
 11
79.126419
 21
-51.558487
  0
LINE
  8
0
 10
-41.873581
 20
-52.558487
 11
-41.873581
 21
-76.558487
  0
LINE
  8
0
 10
80.126419
 20
-52.558487
 11
80.126419
 21
-76.558487
  0
LINE
  8
0
 10
16.126419
 20
-51.558487
 11
16.126419
 21
-57.058487
  0
LINE
  8
0
 10
22.126419
 20
-51.558487
 11
22.126419
 21
-57.058487
  0
LINE
  8
0
 10
16.126419
 20
-72.058487
 11
16.126419
 21
-77.558487
  0
LINE
  8
0
 10
22.126419
 20
-72.058487
 11
22.126419
 21
-77.558487
  0
LINE
  8
0
 10
24.426422
 20
-57.058487
 11
24.426422
 21
-72.058487
  0
LINE
  8
0
 10
13.826416
 20
-57.058487
 11
13.826416
 21
-72.058487
  0
LINE
  8
0
 10
13.826416
 20
-72.058487
 11
24.426422
 21
-72.058487
  0
LINE
  8
0
 10
13.826416
 20
-57.058487
 11
24.426422
 21
-57.058487
  0
LINE
  8
0
 10
-175.873581
 20
-51.558487
 11
-175.873581
 21
-77.558487
  0
LINE
  8
0
 10
-55.873581
 20
-51.558487
 11
-55.873581
 21
-77.558487
  0
LINE
  8
0
 10
-175.873581
 20
-77.558487
 11
-55.873581
 21
-77.558487
  0
LINE
  8
0
 10
-175.873581
 20
-51.558487
 11
-55.873581
 21
-51.558487
  0
LINE
  8
0
 10
-176.873581
 20
-52.558487
 11
-176.873581
 21
-76.558487
  0
LINE
  8
0
 10
-54.873581
 20
-52.558487
 11
-54.873581
 21
-76.558487
  0
LINE
  8
0
 10
-118.873581
 20
-51.558487
 11
-118.873581
 21
-57.058487
  0
LINE
  8
0
 10
-112.873581
 20
-51.558487
 11
-112.873581
 21
-57.058487
  0
LINE
  8
0
 10
-118.873581
 20
-72.058487
 11
-118.873581
 21
-77.558487
  0
LINE
  8
0
 10
-112.873581
 20
-72.058487
 11
-112.873581
 21
-77.558487
  0
LINE
  8
0
 10
-110.573578
 20
-57.058487
 11
-110.573578
 21
-72.058487
  0
LINE
  8
0
 10
-121.173584
 20
-57.058487
 11
-121.173584
 21
-72.058487
  0
LINE
  8
0
 10
-121.173584
 20
-72.058487
 11
-110.573578
 21
-72.058487
  0
LINE
  8
0
 10
-121.173584
 20
-57.058487
 11
-110.573578
 21
-57.058487
  0
LINE
  8
0
  6
CENTER
 10
-155.873581
 20
-60.058487
 11
-155.873581
 21
-69.058487
  0
LINE
  8
0
  6
CENTER
 10
-115.873581
 20
-41.558487
 11
-115.873581
 21
-87.558487
  0
LINE
  8
0
  6
CENTER
 10
-75.873581
 20
-60.058487
 11
-75.873581
 21
-69.058487
  0
LINE
  8
0
  6
CENTER
 10
-20.873581
 20
-60.058487
 11
-20.873581
 21
-69.058487
  0
LINE
  8
0
  6
CENTER
 10
19.126419
 20
-41.558487
 11
19.126419
 21
-87.558487
  0
LINE
  8
0
  6
CENTER
 10
59.126419
 20
-60.058487
 11
59.126419
 21
-69.058487
  0
LINE
  8
0
 10
191.126343
 20
-156.558395
 11
217.126343
 21
-156.558395
  0
LINE
  8
0
 10
191.126343
 20
-136.558395
 11
217.126343
 21
-136.558395
  0
LINE
  8
0
 10
191.126343
 20
-154.558395
 11
217.126343
 21
-154.558395
  0
LINE
  8
0
 10
191.126343
 20
-136.558395
 11
191.126343
 21
-156.558395
  0
LINE
  8
0
 10
217.126343
 20
-136.558395
 11
217.126343
 21
-156.558395
  0
LINE
  8
0
  6
CENTER
 10
188.126343
 20
-141.558395
 11
220.126343
 21
-141.558395
  0
ARC
  8
0
 62
     5
 10
273.035400
 20
-235.045654
 40
2.211884
 50
0.000000
 51
90.000000
  0
ARC
  8
0
 62
     5
 10
291.283569
 20
-246.934647
 40
2.211899
 50
270.000000
 51
0.000000
  0
ARC
  8
0
 62
     5
 10
290.177551
 20
-236.151566
 40
3.317841
 50
0.000000
 51
90.000000
  0
ARC
  8
0
 62
     5
 10
310.361115
 20
-236.812775
 40
2.211890
 50
294.999969
 51
0.000000
  0
ARC
  8
0
 62
     5
 10
310.361115
 20
-235.045654
 40
2.211884
 50
0.000000
 51
90.000000
  0
ARC
  8
0
 62
     5
 10
327.503357
 20
-232.833755
 40
3.317840
 50
291.688385
 51
0.000000
  0
ARC
  8
0
 62
     5
 10
326.397308
 20
-232.083389
 40
1.105946
 50
291.688965
 51
0.000000
  0
ARC
  8
0
  6
PHANTOM
 10
-135.125839
 20
55.999977
 40
14.999998
 50
156.421829
 51
203.578156
  0
ARC
  8
0
  6
PHANTOM
 10
-161.863953
 20
42.499977
 40
15.000003
 50
330.000031
 51
29.999975
  0
ARC
  8
0
  6
PHANTOM
 10
-346.863953
 20
42.499977
 40
15.000003
 50
330.000031
 51
29.999975
  0
ARC
  8
0
  6
PHANTOM
 10
-320.125854
 20
55.999977
 40
15.000011
 50
156.421860
 51
203.578125
  0
ARC
  8
0
  6
PHANTOM
 10
-320.125854
 20
155.999969
 40
15.000013
 50
156.421844
 51
203.578110
  0
ARC
  8
0
  6
PHANTOM
 10
-347.621277
 20
143.999969
 40
15.000013
 50
336.421844
 51
23.578156
  0
ARC
  8
0
  6
PHANTOM
 10
-135.125839
 20
155.999969
 40
14.999999
 50
156.421814
 51
203.578125
  0
ARC
  8
0
  6
PHANTOM
 10
-162.621292
 20
143.999969
 40
14.999999
 50
336.421814
 51
23.578180
  0
ARC
  8
0
  6
PHANTOM
 10
-84.873566
 20
58.999977
 40
3.000000
 50
90.000000
 51
180.000000
  0
ARC
  8
0
  6
PHANTOM
 10
-84.873566
 20
40.999977
 40
3.000000
 50
180.000000
 51
270.000000
  0
ARC
  8
0
  6
PHANTOM
 10
-66.873566
 20
40.999977
 40
3.000000
 50
270.000000
 51
0.000000
  0
ARC
  8
0
  6
PHANTOM
 10
-66.873566
 20
58.999977
 40
3.000000
 50
0.000000
 51
90.000000
  0
ARC
  8
0
  6
PHANTOM
 10
-83.873566
 20
35.999977
 40
2.000000
 50
0.000000
 51
90.000000
  0
ARC
  8
0
  6
PHANTOM
 10
-67.873566
 20
35.999977
 40
2.000000
 50
90.000000
 51
180.000000
  0
ARC
  8
0
  6
PHANTOM
 10
313.250000
 20
33.499977
 40
2.000000
 50
90.000000
 51
180.000000
  0
ARC
  8
0
  6
PHANTOM
 10
316.750000
 20
33.499977
 40
2.000000
 50
0.000000
 51
90.000000
  0
ARC
  8
0
  6
PHANTOM
 10
258.437378
 20
57.749977
 40
19.999996
 50
157.200989
 51
202.798996
  0
ARC
  8
0
  6
PHANTOM
 10
222.400299
 20
40.499977
 40
20.000000
 50
331.640656
 51
28.359350
  0
ARC
  8
0
  6
PHANTOM
 10
258.437378
 20
167.749969
 40
20.000000
 50
157.200974
 51
202.798996
  0
ARC
  8
0
  6
PHANTOM
 10
221.562592
 20
152.249969
 40
20.000000
 50
337.200958
 51
22.799032
  0
ARC
  8
0
  6
PHANTOM
 10
-2.599701
 20
40.499977
 40
20.000000
 50
331.640656
 51
28.359350
  0
ARC
  8
0
  6
PHANTOM
 10
33.437393
 20
57.749977
 40
19.999998
 50
157.200989
 51
202.798996
  0
ARC
  8
0
  6
PHANTOM
 10
-3.437408
 20
152.249969
 40
20.000000
 50
337.200958
 51
22.799030
  0
ARC
  8
0
  6
PHANTOM
 10
33.437393
 20
167.749969
 40
20.000002
 50
157.200974
 51
202.798981
  0
ARC
  8
0
  6
PHANTOM
 10
302.500000
 20
62.499977
 40
3.000000
 50
90.000000
 51
180.000000
  0
ARC
  8
0
  6
PHANTOM
 10
302.500000
 20
37.499977
 40
3.000000
 50
180.000000
 51
270.000000
  0
ARC
  8
0
  6
PHANTOM
 10
327.500000
 20
37.499977
 40
3.000000
 50
270.000000
 51
0.000000
  0
ARC
  8
0
  6
PHANTOM
 10
327.500000
 20
62.499977
 40
3.000000
 50
0.000000
 51
90.000000
  0
ARC
  8
0
  6
PHANTOM
 10
305.000000
 20
32.499977
 40
2.000000
 50
0.000000
 51
90.000000
  0
ARC
  8
0
  6
PHANTOM
 10
325.000000
 20
32.499977
 40
2.000000
 50
90.000000
 51
180.000000
  0
ARC
  8
0
  6
PHANTOM
 10
202.376434
 20
-194.058487
 40
2.000000
 50
90.000000
 51
180.000000
  0
ARC
  8
0
  6
PHANTOM
 10
205.876434
 20
-194.058487
 40
2.000000
 50
0.000000
 51
90.000000
  0
ARC
  8
0
  6
PHANTOM
 10
117.450226
 20
-165.558487
 40
25.000000
 50
158.899811
 51
201.100159
  0
ARC
  8
0
  6
PHANTOM
 10
71.676483
 20
-185.558487
 40
25.000000
 50
333.896118
 51
26.103882
  0
ARC
  8
0
  6
PHANTOM
 10
117.450226
 20
-55.558479
 40
24.999998
 50
158.899811
 51
201.100159
  0
ARC
  8
0
  6
PHANTOM
 10
70.802612
 20
-73.558479
 40
25.000000
 50
338.899811
 51
21.100197
  0
ARC
  8
0
  6
PHANTOM
 10
-213.323517
 20
-185.558487
 40
25.000006
 50
333.896118
 51
26.103874
  0
ARC
  8
0
  6
PHANTOM
 10
-167.549759
 20
-165.558487
 40
25.000000
 50
158.899811
 51
201.100159
  0
ARC
  8
0
  6
PHANTOM
 10
-214.197388
 20
-73.558479
 40
25.000000
 50
338.899811
 51
21.100197
  0
ARC
  8
0
  6
PHANTOM
 10
-167.549759
 20
-55.558479
 40
24.999998
 50
158.899811
 51
201.100159
  0
ARC
  8
0
  6
PHANTOM
 10
192.126434
 20
-162.558487
 40
6.000000
 50
90.000000
 51
180.000000
  0
ARC
  8
0
  6
PHANTOM
 10
192.126434
 20
-186.558487
 40
6.000000
 50
180.000000
 51
270.000000
  0
ARC
  8
0
  6
PHANTOM
 10
216.126434
 20
-186.558487
 40
6.000000
 50
270.000000
 51
0.000000
  0
ARC
  8
0
  6
PHANTOM
 10
216.126434
 20
-162.558487
 40
6.000000
 50
0.000000
 51
90.000000
  0
ARC
  8
0
  6
PHANTOM
 10
216.126434
 20
-195.558487
 40
3.000000
 50
90.000000
 51
180.000000
  0
ARC
  8
0
  6
PHANTOM
 10
192.126434
 20
-195.558487
 40
3.000000
 50
0.000000
 51
90.000000
  0
ARC
  8
0
 10
-285.373444
 20
72.499977
 40
0.500000
 50
180.000000
 51
270.000000
  0
CIRCLE
  8
0
 10
-267.873444
 20
71.999977
 40
1.700000
  0
ARC
  8
0
 10
-245.373444
 20
62.499977
 40
0.500000
 50
270.000000
 51
90.000000
  0
ARC
  8
0
 10
-282.373444
 20
72.499977
 40
0.500000
 50
270.000000
 51
0.000000
  0
ARC
  8
0
 10
-197.373444
 20
72.499977
 40
0.500000
 50
270.000000
 51
0.000000
  0
ARC
  8
0
 10
-200.373444
 20
72.499977
 40
0.500000
 50
180.000000
 51
270.000000
  0
ARC
  8
0
 10
-160.373444
 20
62.499977
 40
0.500000
 50
270.000000
 51
90.000000
  0
ARC
  8
0
 10
-237.373444
 20
62.499977
 40
0.500000
 50
90.000000
 51
270.000000
  0
CIRCLE
  8
0
 10
-182.873444
 20
71.999977
 40
1.700000
  0
CIRCLE
  8
0
 10
-214.873444
 20
71.999977
 40
1.700000
  0
ARC
  8
0
 10
-322.373444
 20
62.499977
 40
0.500000
 50
90.000000
 51
270.000000
  0
CIRCLE
  8
0
 10
-299.873444
 20
71.999977
 40
1.700000
  0
CIRCLE
  8
0
 10
-309.873566
 20
149.999954
 40
1.500000
  0
ARC
  8
0
 10
-245.873566
 20
157.999954
 40
1.000000
 50
0.000000
 51
90.000000
  0
ARC
  8
0
 10
-321.873566
 20
141.999954
 40
1.000000
 50
180.000000
 51
270.000000
  0
CIRCLE
  8
0
 10
-257.873566
 20
149.999954
 40
1.500000
  0
CIRCLE
  8
0
 10
-309.873566
 20
149.999954
 40
1.229500
  0
ARC
  8
0
 10
-321.873566
 20
157.999954
 40
1.000000
 50
90.000000
 51
180.000000
  0
ARC
  8
0
 10
-245.873566
 20
141.999954
 40
1.000000
 50
270.000000
 51
0.000000
  0
CIRCLE
  8
0
 10
-257.873566
 20
149.999954
 40
1.229500
  0
ARC
  8
0
 10
-160.873566
 20
141.999954
 40
1.000000
 50
270.000000
 51
0.000000
  0
ARC
  8
0
 10
-160.873566
 20
157.999954
 40
1.000000
 50
0.000000
 51
90.000000
  0
ARC
  8
0
 10
-236.873566
 20
141.999954
 40
1.000000
 50
180.000000
 51
270.000000
  0
ARC
  8
0
 10
-236.873566
 20
157.999954
 40
1.000000
 50
90.000000
 51
180.000000
  0
CIRCLE
  8
0
 10
-172.873566
 20
149.999954
 40
1.229500
  0
CIRCLE
  8
0
 10
-172.873566
 20
149.999954
 40
1.500000
  0
CIRCLE
  8
0
 10
-224.873566
 20
149.999954
 40
1.229500
  0
CIRCLE
  8
0
 10
-224.873566
 20
149.999954
 40
1.500000
  0
ARC
  8
0
 10
73.000015
 20
78.699997
 40
0.500000
 50
180.000000
 51
270.000000
  0
CIRCLE
  8
0
 10
95.000015
 20
78.000000
 40
2.250000
  0
CIRCLE
  8
0
 10
55.000015
 20
78.000000
 40
2.250000
  0
ARC
  8
0
 10
27.000015
 20
66.500000
 40
1.000000
 50
90.000000
 51
270.000000
  0
ARC
  8
0
 10
123.000015
 20
66.500000
 40
1.000000
 50
270.000000
 51
90.000000
  0
ARC
  8
0
 10
77.000015
 20
78.699997
 40
0.500000
 50
270.000000
 51
0.000000
  0
ARC
  8
0
 10
182.000015
 20
78.699997
 40
0.500000
 50
270.000000
 51
0.000000
  0
ARC
  8
0
 10
178.000015
 20
78.699997
 40
0.500000
 50
180.000000
 51
270.000000
  0
CIRCLE
  8
0
 10
200.000015
 20
78.000000
 40
2.250000
  0
CIRCLE
  8
0
 10
160.000015
 20
78.000000
 40
2.250000
  0
ARC
  8
0
 10
132.000015
 20
66.500000
 40
1.000000
 50
90.000000
 51
270.000000
  0
ARC
  8
0
 10
228.000015
 20
66.500000
 40
1.000000
 50
270.000000
 51
90.000000
  0
ARC
  8
0
 10
227.999969
 20
171.999969
 40
1.000000
 50
0.000000
 51
90.000000
  0
ARC
  8
0
 10
227.999969
 20
147.999969
 40
1.000000
 50
270.000000
 51
0.000000
  0
ARC
  8
0
 10
131.999969
 20
147.999969
 40
1.000000
 50
180.000000
 51
270.000000
  0
ARC
  8
0
 10
131.999969
 20
171.999969
 40
1.000000
 50
90.000000
 51
180.000000
  0
ARC
  8
0
 10
122.999969
 20
171.999969
 40
1.000000
 50
0.000000
 51
90.000000
  0
ARC
  8
0
 10
122.999969
 20
147.999969
 40
1.000000
 50
270.000000
 51
0.000000
  0
ARC
  8
0
 10
26.999973
 20
147.999969
 40
1.000000
 50
180.000000
 51
270.000000
  0
ARC
  8
0
 10
26.999973
 20
171.999969
 40
1.000000
 50
90.000000
 51
180.000000
  0
CIRCLE
  8
0
 10
42.499973
 20
159.999969
 40
2.000000
  0
CIRCLE
  8
0
 10
107.499969
 20
159.999969
 40
2.000000
  0
CIRCLE
  8
0
 10
107.499969
 20
159.999969
 40
1.621000
  0
CIRCLE
  8
0
 10
42.499973
 20
159.999969
 40
1.621000
  0
CIRCLE
  8
0
 10
212.499969
 20
159.999969
 40
1.621000
  0
CIRCLE
  8
0
 10
212.499969
 20
159.999969
 40
2.000000
  0
CIRCLE
  8
0
 10
147.499969
 20
159.999969
 40
1.621000
  0
CIRCLE
  8
0
 10
147.499969
 20
159.999969
 40
2.000000
  0
ARC
  8
0
 10
-117.873474
 20
-140.558395
 40
1.000000
 50
180.000000
 51
270.000000
  0
CIRCLE
  8
0
 10
-90.873474
 20
-141.558395
 40
2.750000
  0
CIRCLE
  8
0
 10
-140.873474
 20
-141.558395
 40
2.750000
  0
ARC
  8
0
 10
-55.873474
 20
-155.558395
 40
1.000000
 50
270.000000
 51
90.000000
  0
ARC
  8
0
 10
-175.873474
 20
-155.558395
 40
1.000000
 50
90.000000
 51
270.000000
  0
ARC
  8
0
 10
21.126526
 20
-140.558395
 40
1.000000
 50
270.000000
 51
0.000000
  0
ARC
  8
0
 10
17.126526
 20
-140.558395
 40
1.000000
 50
180.000000
 51
270.000000
  0
CIRCLE
  8
0
 10
44.126526
 20
-141.558395
 40
2.750000
  0
CIRCLE
  8
0
 10
-5.873474
 20
-141.558395
 40
2.750000
  0
ARC
  8
0
 10
79.126526
 20
-155.558395
 40
1.000000
 50
270.000000
 51
90.000000
  0
ARC
  8
0
 10
-40.873474
 20
-155.558395
 40
1.000000
 50
90.000000
 51
270.000000
  0
ARC
  8
0
 10
-113.873474
 20
-140.558395
 40
1.000000
 50
270.000000
 51
0.000000
  0
ARC
  8
0
 10
-55.873581
 20
-52.558487
 40
1.000000
 50
0.000000
 51
90.000000
  0
ARC
  8
0
 10
-175.873581
 20
-52.558487
 40
1.000000
 50
90.000000
 51
180.000000
  0
CIRCLE
  8
0
 10
-155.873581
 20
-64.558487
 40
2.500000
  0
ARC
  8
0
 10
-175.873581
 20
-76.558487
 40
1.000000
 50
180.000000
 51
270.000000
  0
ARC
  8
0
 10
-55.873581
 20
-76.558487
 40
1.000000
 50
270.000000
 51
0.000000
  0
CIRCLE
  8
0
 10
-75.873581
 20
-64.558487
 40
2.500000
  0
CIRCLE
  8
0
 10
-75.873581
 20
-64.558487
 40
2.067000
  0
CIRCLE
  8
0
 10
-155.873581
 20
-64.558487
 40
2.067000
  0
CIRCLE
  8
0
 10
59.126419
 20
-64.558487
 40
2.067000
  0
CIRCLE
  8
0
 10
59.126419
 20
-64.558487
 40
2.500000
  0
CIRCLE
  8
0
 10
-20.873581
 20
-64.558487
 40
2.067000
  0
CIRCLE
  8
0
 10
-20.873581
 20
-64.558487
 40
2.500000
  0
ARC
  8
0
 10
-40.873581
 20
-52.558487
 40
1.000000
 50
90.000000
 51
180.000000
  0
ARC
  8
0
 10
-40.873581
 20
-76.558487
 40
1.000000
 50
180.000000
 51
270.000000
  0
ARC
  8
0
 10
79.126419
 20
-76.558487
 40
1.000000
 50
270.000000
 51
0.000000
  0
ARC
  8
0
 10
79.126419
 20
-52.558487
 40
1.000000
 50
0.000000
 51
90.000000
  0
TEXT
  8
0
 10
226.462494
 20
233.607468
 40
8.500000
  1
DATE : OCT ,1991
 50
0.000000
 41
1.052631
 51
0.000000
  7
STANDARD
  0
TEXT
  8
0
 10
-366.896820
 20
232.257462
 40
10.000000
  1
ORCA DUAL PISTON
 50
0.000000
 41
0.937799
 51
0.000000
  7
STANDARD
  0
TEXT
  8
0
 10
-6.178569
 20
222.956390
 40
10.000000
  1
BORE : 20
 50
0.000000
 41
1.052632
 51
0.000000
  7
STANDARD
  0
TEXT
  8
0
 10
-357.052124
 20
197.956390
 40
10.000000
  1
BORE : 16
 50
0.000000
 41
1.052632
 51
0.000000
  7
STANDARD
  0
TEXT
  8
0
 10
-357.052124
 20
-36.602112
 40
10.000000
  1
BORE : 25
 50
0.000000
 41
1.052632
 51
0.000000
  7
STANDARD
  0
ENDSEC
  0
EOF
