  0
SECTION
  2
HEADER
  0
ENDSEC
  0
SECTION
  2
TABLES
  0
TABLE
  2
LTYPE
 70
     4
  0
LTYPE
  2
CONTINUOUS
 70
    64
  3
Solid line
 72
    65
 73
     0
 40
0.000000
  0
LTYPE
  2
DASHED
 70
    64
  3
__ __ __ __ __ __ __ __ __ __ __ __ __ __ __
 72
    65
 73
     2
 40
3.500000
 49
2.000000
 49
-1.500000
  0
LTYPE
  2
CENTER
 70
    64
  3
____ _ ____ _ ____ _ ____ _ ____ _ ____ _ ____
 72
    65
 73
     4
 40
17.500000
 49
13.000000
 49
-1.500000
 49
1.500000
 49
-1.500000
  0
LTYPE
  2
PHANTOM
 70
    64
  3
_____ _ _ _____ _ _ _____ _ _ _____ _ _ ____  
 72
    65
 73
     6
 40
15.500000
 49
8.000000
 49
-1.500000
 49
1.500000
 49
-1.500000
 49
1.500000
 49
-1.500000
  0
LTYPE
  2
DASHED1
 70
    64
  3
__ __ __ __ __ __ __ __ __ __ __ __ __ __ __
 72
    65
 73
     2
 40
1.500000
 49
1.000000
 49
-0.500000
  0
LTYPE
  2
DASHED2
 70
    64
  3
__ __ __ __ __ __ __ __ __ __ __ __ __ __ __
 72
    65
 73
     2
 40
3.500000
 49
2.500000
 49
-1.000000
  0
LTYPE
  2
DASHED3
 70
    64
  3
__ __ __ __ __ __ __ __ __ __ __ __ __ __ __
 72
    65
 73
     2
 40
6.000000
 49
4.000000
 49
-2.000000
  0
LTYPE
  2
DASHED4
 70
    64
  3
__ __ __ __ __ __ __ __ __ __ __ __ __ __ __
 72
    65
 73
     2
 40
12.000000
 49
10.000000
 49
-2.000000
  0
LTYPE
  2
DASHED5
 70
    64
  3
__ __ __ __ __ __ __ __ __ __ __ __ __ __ __
 72
    65
 73
     2
 40
17.000000
 49
15.000000
 49
-2.000000
  0
LTYPE
  2
DASHED6
 70
    64
  3
__ __ __ __ __ __ __ __ __ __ __ __ __ __ __
 72
    65
 73
     2
 40
29.000000
 49
27.000000
 49
-2.000000
  0
LTYPE
  2
PHANTOM1
 70
    64
  3
_____ _ _ _____ _ _ _____ _ _ _____ _ _ ____  
 72
    65
 73
     6
 40
31.000000
 49
25.000000
 49
-1.500000
 49
1.000000
 49
-1.000000
 49
1.000000
 49
-1.500000
  0
LTYPE
  2
PHANTOM2
 70
    64
  3
_____ _ _ _____ _ _ _____ _ _ _____ _ _ ____  
 72
    65
 73
     6
 40
36.000000
 49
27.000000
 49
-1.500000
 49
2.500000
 49
-1.000000
 49
2.500000
 49
-1.500000
  0
LTYPE
  2
PHANTOM3
 70
    64
  3
_____ _ _ _____ _ _ _____ _ _ _____ _ _ ____  
 72
    65
 73
     6
 40
78.000000
 49
64.000000
 49
-2.000000
 49
4.000000
 49
-2.000000
 49
4.000000
 49
-2.000000
  0
LTYPE
  2
CENTER1
 70
    64
  3
____ _ ____ _ ____ _ ____ _ ____ _ ____ _ ____
 72
    65
 73
     4
 40
19.000000
 49
14.000000
 49
-1.000000
 49
3.000000
 49
-1.000000
  0
LTYPE
  2
CENTER2
 70
    64
  3
____ _ ____ _ ____ _ ____ _ ____ _ ____ _ ____
 72
    65
 73
     4
 40
28.500000
 49
25.000000
 49
-1.000000
 49
1.500000
 49
-1.000000
  0
LTYPE
  2
CENTER3
 70
    64
  3
____ _ ____ _ ____ _ ____ _ ____ _ ____ _ ____
 72
    65
 73
     4
 40
31.500000
 49
27.000000
 49
-1.000000
 49
2.500000
 49
-1.000000
  0
LTYPE
  2
CENTER4
 70
    64
  3
____ _ ____ _ ____ _ ____ _ ____ _ ____ _ ____
 72
    65
 73
     4
 40
50.000000
 49
45.000000
 49
-1.000000
 49
3.000000
 49
-1.000000
  0
LTYPE
  2
CENTER5
 70
    64
  3
____ _ ____ _ ____ _ ____ _ ____ _ ____ _ ____
 72
    65
 73
     4
 40
100.000000
 49
92.000000
 49
-2.000000
 49
4.000000
 49
-2.000000
  0
LTYPE
  2
SBK1
 70
    64
  3
______ _ _ _ ______ _ _ _ ______ _ _ _ _____  
 72
    65
 73
     8
 40
60.500000
 49
45.000000
 49
-2.000000
 49
2.500000
 49
-2.000000
 49
2.500000
 49
-2.000000
 49
2.500000
 49
-2.000000
  0
LTYPE
  2
SBK2
 70
    64
  3
______ _ _ _ ______ _ _ _ ______ _ _ _ _____  
 72
    65
 73
     8
 40
84.000000
 49
64.000000
 49
-2.000000
 49
4.000000
 49
-2.000000
 49
4.000000
 49
-2.000000
 49
4.000000
 49
-2.000000
  0
LTYPE
  2
STCH
 70
    64
  3
__ __ __ __ __ __ __ __ __ __ __ __ __ __ __
 72
    65
 73
     2
 40
3.000000
 49
1.000000
 49
-2.000000
  0
LTYPE
  2
MTCH
 70
    64
  3
_____ _ _ _____ _ _ _____ _ _ _____ _ _ ____  
 72
    65
 73
     6
 40
80.000000
 49
66.000000
 49
-2.000000
 49
4.000000
 49
-2.000000
 49
4.000000
 49
-2.000000
  0
ENDTAB
  0
TABLE
  2
LAYER
 70
     1
  0
LAYER
  2
0
 70
     0
 62
     7
  6
CONTINUOUS
  0
ENDTAB
  0
TABLE
  2
STYLE
 70
     1
  0
STYLE
  2
STANDARD
 70
     0
 40
0.000000
 41
1.000000
 50
0.000000
 71
     0
 42
0.200000
  3
txt
  4
BIGFONT
  0
ENDTAB
  0
TABLE
  2
VIEW
 70
     0
  0
ENDTAB
  0
ENDSEC
  0
SECTION
  2
BLOCKS
  0
ENDSEC
  0
SECTION
  2
ENTITIES
  0
POINT
  8
0
 10
-546.750000
 20
289.999939
  0
POINT
  8
0
 10
-271.750000
 20
289.999939
  0
POINT
  8
0
 10
-546.750000
 20
84.999939
  0
POINT
  8
0
 10
-271.750000
 20
84.999939
  0
POINT
  8
0
 10
-85.749939
 20
84.999893
  0
POINT
  8
0
 10
-111.749939
 20
84.999893
  0
POINT
  8
0
 10
184.999908
 20
309.999939
  0
POINT
  8
0
 10
519.999939
 20
309.999939
  0
POINT
  8
0
 10
185.000031
 20
104.999939
  0
POINT
  8
0
 10
520.000000
 20
104.999939
  0
POINT
  8
0
 10
674.999939
 20
104.999908
  0
POINT
  8
0
 10
644.999939
 20
104.999908
  0
POINT
  8
0
 10
-251.750000
 20
-139.114990
  0
POINT
  8
0
 10
108.249977
 20
-139.114990
  0
POINT
  8
0
 10
-251.750000
 20
-374.114990
  0
POINT
  8
0
 10
108.249985
 20
-374.114990
  0
POINT
  8
0
 10
355.249908
 20
-374.114960
  0
POINT
  8
0
 10
318.249908
 20
-374.114960
  0
LINE
  8
0
 62
     3
 10
-741.750000
 20
-509.114990
 11
741.750000
 21
-509.114990
  0
LINE
  8
0
 62
     3
 10
-741.750000
 20
509.114990
 11
741.750000
 21
509.114990
  0
LINE
  8
0
 62
     3
 10
741.750000
 20
509.114990
 11
741.750000
 21
-509.114990
  0
LINE
  8
0
 62
     3
 10
-741.750000
 20
509.114990
 11
-741.750000
 21
-509.114990
  0
LINE
  8
0
 62
     5
 10
516.764709
 20
-465.668823
 11
546.072388
 21
-465.668823
  0
LINE
  8
0
 62
     5
 10
516.764709
 20
-491.658691
 11
541.648621
 21
-491.658691
  0
LINE
  8
0
 62
     5
 10
516.764709
 20
-498.294342
 11
550.496216
 21
-498.294342
  0
LINE
  8
0
 62
     5
 10
516.764709
 20
-472.304474
 11
541.648621
 21
-472.304474
  0
LINE
  8
0
 62
     5
 10
516.764709
 20
-465.668823
 11
516.764709
 21
-472.304474
  0
LINE
  8
0
 62
     5
 10
550.496216
 20
-470.092651
 11
550.496216
 21
-498.294342
  0
LINE
  8
0
 62
     5
 10
541.648621
 20
-472.304474
 11
541.648621
 21
-491.658691
  0
LINE
  8
0
 62
     5
 10
555.472900
 20
-465.668823
 11
555.472900
 21
-472.304474
  0
LINE
  8
0
 62
     5
 10
586.992432
 20
-472.304474
 11
586.992432
 21
-493.870697
  0
LINE
  8
0
 62
     5
 10
578.144897
 20
-472.304474
 11
578.144897
 21
-491.658691
  0
LINE
  8
0
 62
     5
 10
516.764709
 20
-491.658691
 11
516.764709
 21
-498.294342
  0
LINE
  8
0
 62
     5
 10
555.472900
 20
-465.668823
 11
564.214966
 21
-465.668823
  0
LINE
  8
0
 62
     5
 10
555.472900
 20
-498.294342
 11
562.342773
 21
-498.294342
  0
LINE
  8
0
 62
     5
 10
555.472717
 20
-498.294098
 11
562.436890
 21
-472.304413
  0
LINE
  8
0
 62
     5
 10
555.472900
 20
-472.304474
 11
562.436951
 21
-472.304474
  0
LINE
  8
0
 62
     5
 10
562.343140
 20
-498.294647
 11
569.307007
 21
-472.304871
  0
LINE
  8
0
 62
     5
 10
571.509094
 20
-491.658691
 11
578.144897
 21
-491.658691
  0
LINE
  8
0
 62
     5
 10
571.508972
 20
-491.658600
 11
573.286804
 21
-498.294128
  0
LINE
  8
0
 62
     5
 10
573.287354
 20
-498.294342
 11
582.568787
 21
-498.294342
  0
LINE
  8
0
 62
     5
 10
569.306763
 20
-472.304474
 11
578.144897
 21
-472.304474
  0
LINE
  8
0
 62
     5
 10
571.084717
 20
-465.668823
 11
580.356750
 21
-465.668823
  0
LINE
  8
0
 62
     5
 10
564.215088
 20
-465.668854
 11
565.533630
 21
-460.747498
  0
LINE
  8
0
 62
     5
 10
571.084290
 20
-465.668488
 11
572.402893
 21
-460.746979
  0
LINE
  8
0
 62
     5
 10
592.522278
 20
-465.668823
 11
603.028809
 21
-465.668823
  0
LINE
  8
0
 62
     5
 10
592.522278
 20
-472.304474
 11
618.325867
 21
-472.304474
  0
LINE
  8
0
 62
     5
 10
603.028809
 20
-498.294342
 11
611.876221
 21
-498.294342
  0
LINE
  8
0
 62
     5
 10
592.522278
 20
-465.668823
 11
592.522278
 21
-472.304474
  0
LINE
  8
0
 62
     5
 10
625.147827
 20
-484.336975
 11
625.147827
 21
-491.658691
  0
LINE
  8
0
 62
     5
 10
592.521790
 20
-491.658447
 11
603.028564
 21
-486.759003
  0
LINE
  8
0
 62
     5
 10
592.522827
 20
-484.337433
 11
618.326355
 21
-472.304932
  0
LINE
  8
0
 62
     5
 10
592.522278
 20
-484.336975
 11
592.522278
 21
-491.658691
  0
LINE
  8
0
 62
     5
 10
611.876038
 20
-485.469879
 11
625.147766
 21
-491.658478
  0
LINE
  8
0
 62
     5
 10
616.686646
 20
-480.391724
 11
625.148682
 21
-484.337585
  0
LINE
  8
0
 62
     5
 10
625.147827
 20
-470.092651
 11
625.147827
 21
-473.626892
  0
LINE
  8
0
 62
     5
 10
603.028809
 20
-460.747406
 11
603.028809
 21
-465.668823
  0
LINE
  8
0
 62
     5
 10
611.876221
 20
-460.747406
 11
611.876221
 21
-465.668823
  0
LINE
  8
0
 62
     5
 10
611.876221
 20
-465.668823
 11
620.723999
 21
-465.668823
  0
LINE
  8
0
 62
     5
 10
603.028809
 20
-486.759460
 11
603.028809
 21
-498.294342
  0
LINE
  8
0
 62
     5
 10
611.876221
 20
-485.470184
 11
611.876221
 21
-498.294342
  0
LINE
  8
0
 62
     5
 10
616.686707
 20
-480.391937
 11
622.594543
 21
-477.637115
  0
LINE
  8
0
 62
     5
 10
655.008484
 20
-462.738159
 11
661.644043
 21
-462.738159
  0
LINE
  8
0
 62
     5
 10
627.912720
 20
-476.445160
 11
627.912720
 21
-483.586365
  0
LINE
  8
0
 62
     5
 10
661.644043
 20
-462.738159
 11
661.644043
 21
-465.668823
  0
LINE
  8
0
 62
     5
 10
655.008484
 20
-462.738159
 11
655.008484
 21
-464.168060
  0
LINE
  8
0
 62
     5
 10
646.160828
 20
-476.328888
 11
646.160828
 21
-498.294342
  0
LINE
  8
0
 62
     5
 10
627.912903
 20
-476.445496
 11
653.614319
 21
-466.223785
  0
LINE
  8
0
 62
     5
 10
627.912598
 20
-483.586365
 11
646.160706
 21
-476.328796
  0
LINE
  8
0
 62
     5
 10
646.160828
 20
-498.294342
 11
655.008484
 21
-498.294342
  0
LINE
  8
0
 62
     5
 10
655.008484
 20
-472.810120
 11
655.008484
 21
-498.294342
  0
LINE
  8
0
 62
     5
 10
655.009155
 20
-472.810547
 11
657.461609
 21
-471.835114
  0
LINE
  8
0
 62
     5
 10
565.533691
 20
-460.747406
 11
572.403381
 21
-460.747406
  0
LINE
  8
0
 62
     5
 10
583.398193
 20
-460.747406
 11
586.218201
 21
-460.747406
  0
LINE
  8
0
 62
     5
 10
603.028809
 20
-460.747406
 11
611.876221
 21
-460.747406
  0
LINE
  8
0
 62
     5
 10
583.398193
 20
-465.171234
 11
586.218201
 21
-465.171234
  0
LINE
  8
0
 62
     5
 10
583.398193
 20
-460.747406
 11
583.398193
 21
-465.171234
  0
LINE
  8
0
 62
     5
 10
586.218201
 20
-460.747406
 11
586.218201
 21
-465.171234
  0
LINE
  8
0
 62
     5
 10
587.877319
 20
-460.747406
 11
587.877319
 21
-465.171234
  0
LINE
  8
0
 62
     5
 10
591.029297
 20
-460.747406
 11
591.029297
 21
-465.171234
  0
LINE
  8
0
 62
     5
 10
587.877319
 20
-460.747406
 11
591.029297
 21
-460.747406
  0
LINE
  8
0
 62
     5
 10
587.877319
 20
-465.171234
 11
591.029297
 21
-465.171234
  0
LINE
  8
0
 62
     3
 10
436.659546
 20
-451.914154
 11
436.659546
 21
-509.118408
  0
LINE
  8
0
 62
     3
 10
436.659546
 20
-451.914154
 11
741.749207
 21
-451.914154
  0
LINE
  8
0
 62
     3
 10
436.659546
 20
509.118408
 11
436.659546
 21
451.914032
  0
LINE
  8
0
 62
     3
 10
436.659546
 20
451.914032
 11
741.749207
 21
451.914032
  0
LINE
  8
0
 62
     3
 10
-317.483978
 20
451.914032
 11
-317.483978
 21
509.118408
  0
LINE
  8
0
 62
     3
 10
-741.749207
 20
451.914032
 11
-317.483978
 21
451.914032
  0
LINE
  8
0
 10
0.000000
 20
509.114990
 11
0.000000
 21
-0.000061
  0
LINE
  8
0
 10
-741.750000
 20
-0.000061
 11
741.749207
 21
-0.000061
  0
LINE
  8
0
  6
CENTER
 10
-651.750000
 20
84.999939
 11
-261.750000
 21
84.999939
  0
LINE
  8
0
  6
PHANTOM
 10
-641.750000
 20
54.999939
 11
-271.750000
 21
54.999939
  0
LINE
  8
0
  6
PHANTOM
 10
-628.750122
 20
108.999939
 11
-628.250000
 21
108.999939
  0
LINE
  8
0
  6
PHANTOM
 10
-639.820190
 20
58.999939
 11
-269.820190
 21
58.999939
  0
LINE
  8
0
  6
PHANTOM
 10
-465.250000
 20
108.999939
 11
-464.750122
 21
108.999939
  0
LINE
  8
0
  6
PHANTOM
 10
-285.250000
 20
108.999939
 11
-271.313477
 21
108.999939
  0
LINE
  8
0
  6
CENTER
 10
-651.750000
 20
289.999939
 11
-261.750000
 21
289.999939
  0
LINE
  8
0
  6
PHANTOM
 10
-641.750000
 20
265.999939
 11
-271.750000
 21
265.999939
  0
LINE
  8
0
  6
PHANTOM
 10
-641.750000
 20
313.999939
 11
-271.750000
 21
313.999939
  0
LINE
  8
0
  6
PHANTOM
 10
-453.750000
 20
298.499939
 11
-453.750000
 21
281.499939
  0
LINE
  8
0
  6
PHANTOM
 10
-639.450378
 20
281.499939
 11
-633.750000
 21
281.499939
  0
LINE
  8
0
  6
PHANTOM
 10
-644.049622
 20
298.499939
 11
-633.750000
 21
298.499939
  0
LINE
  8
0
  6
PHANTOM
 10
-453.750000
 20
298.499939
 11
-459.750000
 21
298.499939
  0
LINE
  8
0
  6
PHANTOM
 10
-279.750000
 20
298.499939
 11
-279.750000
 21
281.499939
  0
LINE
  8
0
  6
PHANTOM
 10
-453.750000
 20
281.499939
 11
-459.750000
 21
281.499939
  0
LINE
  8
0
  6
PHANTOM
 10
-633.750000
 20
298.499939
 11
-633.750000
 21
281.499939
  0
LINE
  8
0
  6
PHANTOM
 10
-459.750000
 20
298.499939
 11
-459.750000
 21
281.499939
  0
LINE
  8
0
  6
PHANTOM
 10
-274.049683
 20
298.499939
 11
-279.750000
 21
298.499939
  0
LINE
  8
0
  6
PHANTOM
 10
-269.450317
 20
281.499939
 11
-279.750000
 21
281.499939
  0
LINE
  8
0
  6
CENTER
 10
-142.749939
 20
84.999893
 11
-80.749939
 21
84.999893
  0
LINE
  8
0
  6
PHANTOM
 10
-124.749863
 20
54.999893
 11
-114.999863
 21
54.999893
  0
LINE
  8
0
  6
PHANTOM
 10
-98.749939
 20
60.999893
 11
-98.749939
 21
54.999924
  0
LINE
  8
0
  6
PHANTOM
 10
-124.749939
 20
60.999893
 11
-124.749939
 21
54.999863
  0
LINE
  8
0
  6
PHANTOM
 10
-106.499939
 20
61.299911
 11
-106.499939
 21
56.999908
  0
LINE
  8
0
  6
PHANTOM
 10
-116.999939
 20
61.299881
 11
-116.999939
 21
56.999878
  0
LINE
  8
0
  6
PHANTOM
 10
-108.499939
 20
56.999901
 11
-108.499939
 21
54.999901
  0
LINE
  8
0
  6
PHANTOM
 10
-114.999939
 20
56.999886
 11
-114.999939
 21
54.999886
  0
LINE
  8
0
  6
PHANTOM
 10
-108.499863
 20
54.999893
 11
-98.749863
 21
54.999893
  0
LINE
  8
0
  6
PHANTOM
 10
-108.499878
 20
56.999893
 11
-106.499878
 21
56.999893
  0
LINE
  8
0
  6
PHANTOM
 10
-116.999878
 20
56.999893
 11
-114.999878
 21
56.999893
  0
LINE
  8
0
  6
PHANTOM
 10
-116.999878
 20
61.299896
 11
-106.499878
 21
61.299896
  0
LINE
  8
0
  6
PHANTOM
 10
-87.749939
 20
104.999893
 11
-87.749939
 21
64.999893
  0
LINE
  8
0
  6
PHANTOM
 10
-135.749939
 20
104.999893
 11
-135.749939
 21
64.999893
  0
LINE
  8
0
  6
PHANTOM
 10
70.000000
 20
69.999908
 11
520.000000
 21
69.999908
  0
LINE
  8
0
  6
CENTER
 10
60.000000
 20
104.999939
 11
530.000000
 21
104.999939
  0
LINE
  8
0
  6
CENTER
 10
60.000000
 20
309.999939
 11
530.000000
 21
309.999939
  0
LINE
  8
0
  6
PHANTOM
 10
70.000000
 20
280.999939
 11
520.000000
 21
280.999939
  0
LINE
  8
0
  6
PHANTOM
 10
70.000000
 20
338.999939
 11
520.000000
 21
338.999939
  0
LINE
  8
0
  6
PHANTOM
 10
300.000000
 20
318.999939
 11
300.000000
 21
300.999939
  0
LINE
  8
0
  6
PHANTOM
 10
72.340721
 20
300.999939
 11
80.000000
 21
300.999939
  0
LINE
  8
0
  6
PHANTOM
 10
67.659279
 20
318.999939
 11
80.000000
 21
318.999939
  0
LINE
  8
0
  6
PHANTOM
 10
302.000000
 20
298.999939
 11
305.000000
 21
298.999939
  0
LINE
  8
0
  6
PHANTOM
 10
302.000000
 20
320.999939
 11
305.000000
 21
320.999939
  0
LINE
  8
0
  6
PHANTOM
 10
510.000000
 20
318.999939
 11
510.000000
 21
300.999939
  0
LINE
  8
0
  6
PHANTOM
 10
522.340698
 20
300.999939
 11
510.000000
 21
300.999939
  0
LINE
  8
0
  6
PHANTOM
 10
517.659302
 20
318.999939
 11
510.000000
 21
318.999939
  0
LINE
  8
0
  6
PHANTOM
 10
508.000000
 20
298.999939
 11
505.000000
 21
298.999939
  0
LINE
  8
0
  6
PHANTOM
 10
508.000000
 20
320.999939
 11
505.000000
 21
320.999939
  0
LINE
  8
0
  6
PHANTOM
 10
300.000000
 20
318.999939
 11
290.000000
 21
318.999939
  0
LINE
  8
0
  6
PHANTOM
 10
300.000000
 20
300.999939
 11
290.000000
 21
300.999939
  0
LINE
  8
0
  6
PHANTOM
 10
290.000000
 20
318.999939
 11
290.000000
 21
300.999939
  0
LINE
  8
0
  6
PHANTOM
 10
80.000000
 20
318.999939
 11
80.000000
 21
300.999939
  0
LINE
  8
0
  6
PHANTOM
 10
82.000000
 20
298.999939
 11
85.000000
 21
298.999939
  0
LINE
  8
0
  6
PHANTOM
 10
82.000000
 20
320.999939
 11
85.000000
 21
320.999939
  0
LINE
  8
0
  6
PHANTOM
 10
288.000000
 20
298.999939
 11
285.000000
 21
298.999939
  0
LINE
  8
0
  6
PHANTOM
 10
288.000000
 20
320.999939
 11
285.000000
 21
320.999939
  0
LINE
  8
0
  6
PHANTOM
 10
630.000000
 20
69.999863
 11
641.750000
 21
69.999863
  0
LINE
  8
0
  6
PHANTOM
 10
639.750000
 20
71.999863
 11
641.750000
 21
71.999863
  0
LINE
  8
0
  6
PHANTOM
 10
639.750000
 20
76.299866
 11
650.250000
 21
76.299866
  0
LINE
  8
0
  6
PHANTOM
 10
639.750000
 20
76.299866
 11
639.750000
 21
71.999863
  0
LINE
  8
0
  6
PHANTOM
 10
650.250000
 20
76.299866
 11
650.250000
 21
71.999863
  0
LINE
  8
0
  6
PHANTOM
 10
648.250000
 20
71.999863
 11
648.250000
 21
69.999863
  0
LINE
  8
0
  6
PHANTOM
 10
641.750000
 20
71.999863
 11
641.750000
 21
69.999863
  0
LINE
  8
0
  6
PHANTOM
 10
648.250000
 20
71.999863
 11
650.250000
 21
71.999863
  0
LINE
  8
0
  6
PHANTOM
 10
648.250000
 20
69.999863
 11
660.000000
 21
69.999863
  0
LINE
  8
0
  6
PHANTOM
 10
630.000000
 20
75.999908
 11
630.000000
 21
69.999855
  0
LINE
  8
0
  6
PHANTOM
 10
660.000000
 20
75.999908
 11
660.000000
 21
69.999870
  0
LINE
  8
0
  6
CENTER
 10
610.000000
 20
104.999908
 11
680.000000
 21
104.999908
  0
LINE
  8
0
  6
PHANTOM
 10
616.000000
 20
124.999908
 11
616.000000
 21
83.999908
  0
LINE
  8
0
  6
PHANTOM
 10
674.000000
 20
124.999908
 11
674.000000
 21
83.999908
  0
LINE
  8
0
 10
439.999908
 20
599.999756
 11
439.999908
 21
605.999756
  0
LINE
  8
0
 10
429.999908
 20
599.999756
 11
429.999908
 21
605.999756
  0
LINE
  8
0
 10
429.999969
 20
599.999756
 11
439.999969
 21
599.999756
  0
LINE
  8
0
 10
429.999908
 20
638.999756
 11
439.999908
 21
638.999756
  0
LINE
  8
0
 10
394.999908
 20
633.999756
 11
394.999908
 21
605.999756
  0
LINE
  8
0
 10
584.999878
 20
633.999756
 11
584.999878
 21
605.999756
  0
LINE
  8
0
 10
394.999908
 20
633.999756
 11
584.999878
 21
633.999756
  0
LINE
  8
0
 10
394.999908
 20
628.999756
 11
584.999878
 21
628.999756
  0
LINE
  8
0
 10
394.999908
 20
610.999756
 11
584.999878
 21
610.999756
  0
LINE
  8
0
 10
394.999908
 20
605.999756
 11
584.999878
 21
605.999756
  0
LINE
  8
0
 10
578.999878
 20
628.999756
 11
578.999878
 21
610.999756
  0
LINE
  8
0
 10
400.999908
 20
628.999756
 11
400.999908
 21
610.999756
  0
LINE
  8
0
 10
389.999908
 20
630.999756
 11
389.999908
 21
608.999756
  0
LINE
  8
0
 10
589.999878
 20
630.999756
 11
589.999878
 21
608.999756
  0
LINE
  8
0
 10
394.999908
 20
635.999756
 11
429.999908
 21
635.999756
  0
LINE
  8
0
 10
394.999908
 20
603.999756
 11
429.999908
 21
603.999756
  0
LINE
  8
0
 10
494.999908
 20
633.999756
 11
494.999908
 21
628.999756
  0
LINE
  8
0
 10
484.999908
 20
633.999756
 11
484.999908
 21
628.999756
  0
LINE
  8
0
 10
484.999908
 20
610.999756
 11
484.999908
 21
605.999756
  0
LINE
  8
0
 10
494.999908
 20
610.999756
 11
494.999908
 21
605.999756
  0
LINE
  8
0
 10
439.999908
 20
603.999756
 11
539.999878
 21
603.999756
  0
LINE
  8
0
 10
439.999908
 20
635.999756
 11
539.999878
 21
635.999756
  0
LINE
  8
0
 10
434.999908
 20
638.999756
 11
434.999908
 21
633.999756
  0
LINE
  8
0
 10
439.999908
 20
638.999756
 11
439.999908
 21
633.999756
  0
LINE
  8
0
 10
429.999908
 20
638.999756
 11
429.999908
 21
633.999756
  0
LINE
  8
0
 10
539.999878
 20
599.999756
 11
539.999878
 21
605.999756
  0
LINE
  8
0
 10
549.999878
 20
599.999756
 11
549.999878
 21
605.999756
  0
LINE
  8
0
 10
549.999878
 20
638.999756
 11
539.999878
 21
638.999756
  0
LINE
  8
0
 10
539.999878
 20
638.999756
 11
539.999878
 21
633.999756
  0
LINE
  8
0
 10
549.999878
 20
638.999756
 11
549.999878
 21
633.999756
  0
LINE
  8
0
 10
549.999878
 20
599.999756
 11
539.999878
 21
599.999756
  0
LINE
  8
0
 10
544.999878
 20
638.999756
 11
544.999878
 21
633.999756
  0
LINE
  8
0
 10
549.999878
 20
603.999756
 11
584.999878
 21
603.999756
  0
LINE
  8
0
 10
549.999878
 20
635.999756
 11
584.999878
 21
635.999756
  0
LINE
  8
0
 10
329.999908
 20
635.999756
 11
364.999908
 21
635.999756
  0
LINE
  8
0
 10
329.999908
 20
603.999756
 11
364.999908
 21
603.999756
  0
LINE
  8
0
 10
320.999878
 20
638.999756
 11
320.999878
 21
639.999756
  0
LINE
  8
0
 10
328.999878
 20
638.999756
 11
328.999878
 21
639.999756
  0
LINE
  8
0
 10
322.999908
 20
641.999756
 11
326.999908
 21
641.999756
  0
LINE
  8
0
 10
210.999878
 20
638.999756
 11
210.999878
 21
639.999756
  0
LINE
  8
0
 10
212.999908
 20
641.999756
 11
216.999908
 21
641.999756
  0
LINE
  8
0
 10
218.999878
 20
638.999756
 11
218.999878
 21
639.999756
  0
LINE
  8
0
 10
432.999908
 20
641.999756
 11
436.999908
 21
641.999756
  0
LINE
  8
0
 10
438.999878
 20
638.999756
 11
438.999878
 21
639.999756
  0
LINE
  8
0
 10
430.999878
 20
638.999756
 11
430.999878
 21
639.999756
  0
LINE
  8
0
 10
542.999878
 20
641.999756
 11
546.999878
 21
641.999756
  0
LINE
  8
0
 10
548.999878
 20
638.999756
 11
548.999878
 21
639.999756
  0
LINE
  8
0
 10
540.999878
 20
638.999756
 11
540.999878
 21
639.999756
  0
LINE
  8
0
 10
219.999908
 20
599.999756
 11
219.999908
 21
605.999756
  0
LINE
  8
0
 10
209.999908
 20
599.999756
 11
209.999908
 21
605.999756
  0
LINE
  8
0
 10
209.999969
 20
599.999756
 11
219.999969
 21
599.999756
  0
LINE
  8
0
 10
209.999908
 20
638.999756
 11
219.999908
 21
638.999756
  0
LINE
  8
0
 10
174.999908
 20
633.999756
 11
174.999908
 21
605.999756
  0
LINE
  8
0
 10
364.999908
 20
633.999756
 11
364.999908
 21
605.999756
  0
LINE
  8
0
 10
174.999908
 20
633.999756
 11
364.999908
 21
633.999756
  0
LINE
  8
0
 10
174.999908
 20
628.999756
 11
364.999908
 21
628.999756
  0
LINE
  8
0
 10
174.999908
 20
610.999756
 11
364.999908
 21
610.999756
  0
LINE
  8
0
 10
174.999908
 20
605.999756
 11
364.999908
 21
605.999756
  0
LINE
  8
0
 10
358.999908
 20
628.999756
 11
358.999908
 21
610.999756
  0
LINE
  8
0
 10
180.999908
 20
628.999756
 11
180.999908
 21
610.999756
  0
LINE
  8
0
 10
169.999908
 20
630.999756
 11
169.999908
 21
608.999756
  0
LINE
  8
0
 10
369.999908
 20
630.999756
 11
369.999908
 21
608.999756
  0
LINE
  8
0
 10
174.999908
 20
635.999756
 11
209.999908
 21
635.999756
  0
LINE
  8
0
 10
174.999908
 20
603.999756
 11
209.999908
 21
603.999756
  0
LINE
  8
0
 10
274.999908
 20
633.999756
 11
274.999908
 21
628.999756
  0
LINE
  8
0
 10
264.999908
 20
633.999756
 11
264.999908
 21
628.999756
  0
LINE
  8
0
 10
264.999908
 20
610.999756
 11
264.999908
 21
605.999756
  0
LINE
  8
0
 10
274.999908
 20
610.999756
 11
274.999908
 21
605.999756
  0
LINE
  8
0
 10
219.999908
 20
603.999756
 11
319.999908
 21
603.999756
  0
LINE
  8
0
 10
219.999908
 20
635.999756
 11
319.999908
 21
635.999756
  0
LINE
  8
0
 10
214.999908
 20
638.999756
 11
214.999908
 21
633.999756
  0
LINE
  8
0
 10
219.999908
 20
638.999756
 11
219.999908
 21
633.999756
  0
LINE
  8
0
 10
209.999908
 20
638.999756
 11
209.999908
 21
633.999756
  0
LINE
  8
0
 10
319.999908
 20
599.999756
 11
319.999908
 21
605.999756
  0
LINE
  8
0
 10
329.999908
 20
599.999756
 11
329.999908
 21
605.999756
  0
LINE
  8
0
 10
329.999908
 20
638.999756
 11
319.999908
 21
638.999756
  0
LINE
  8
0
 10
319.999908
 20
638.999756
 11
319.999908
 21
633.999756
  0
LINE
  8
0
 10
329.999908
 20
638.999756
 11
329.999908
 21
633.999756
  0
LINE
  8
0
 10
329.999847
 20
599.999756
 11
319.999847
 21
599.999756
  0
LINE
  8
0
 10
324.999908
 20
638.999756
 11
324.999908
 21
633.999756
  0
LINE
  8
0
  6
CENTER
 10
214.999908
 20
594.999756
 11
214.999908
 21
646.999756
  0
LINE
  8
0
  6
CENTER
 10
224.999908
 20
625.999756
 11
224.999908
 21
613.999756
  0
LINE
  8
0
  6
CENTER
 10
242.499908
 20
638.999756
 11
242.499908
 21
600.999756
  0
LINE
  8
0
  6
CENTER
 10
269.999908
 20
653.999756
 11
269.999908
 21
579.999756
  0
LINE
  8
0
  6
CENTER
 10
314.999908
 20
625.999756
 11
314.999908
 21
613.999756
  0
LINE
  8
0
  6
CENTER
 10
324.999908
 20
594.999756
 11
324.999908
 21
646.999756
  0
LINE
  8
0
  6
CENTER
 10
434.999908
 20
594.999756
 11
434.999908
 21
646.999756
  0
LINE
  8
0
  6
CENTER
 10
444.999908
 20
625.999756
 11
444.999908
 21
613.999756
  0
LINE
  8
0
  6
CENTER
 10
462.499908
 20
638.999756
 11
462.499908
 21
600.999756
  0
LINE
  8
0
  6
CENTER
 10
489.999908
 20
653.999756
 11
489.999908
 21
579.999756
  0
LINE
  8
0
  6
CENTER
 10
517.499878
 20
638.999756
 11
517.499878
 21
600.999756
  0
LINE
  8
0
  6
CENTER
 10
534.999878
 20
625.999756
 11
534.999878
 21
613.999756
  0
LINE
  8
0
  6
CENTER
 10
544.999878
 20
594.999756
 11
544.999878
 21
646.999756
  0
LINE
  8
0
 10
491.261108
 20
611.685547
 11
491.261108
 21
617.685547
  0
LINE
  8
0
 10
481.261108
 20
611.685547
 11
481.261108
 21
617.685547
  0
LINE
  8
0
 10
481.261169
 20
611.685547
 11
491.261169
 21
611.685547
  0
LINE
  8
0
 10
481.261108
 20
650.685547
 11
491.261108
 21
650.685547
  0
LINE
  8
0
 10
446.261108
 20
645.685547
 11
446.261108
 21
617.685547
  0
LINE
  8
0
 10
636.261108
 20
645.685547
 11
636.261108
 21
617.685547
  0
LINE
  8
0
 10
446.261108
 20
645.685547
 11
636.261108
 21
645.685547
  0
LINE
  8
0
 10
446.261108
 20
640.685547
 11
636.261108
 21
640.685547
  0
LINE
  8
0
 10
446.261108
 20
622.685547
 11
636.261108
 21
622.685547
  0
LINE
  8
0
 10
446.261108
 20
617.685547
 11
636.261108
 21
617.685547
  0
LINE
  8
0
 10
630.261108
 20
640.685547
 11
630.261108
 21
622.685547
  0
LINE
  8
0
 10
452.261108
 20
640.685547
 11
452.261108
 21
622.685547
  0
LINE
  8
0
 10
441.261108
 20
642.685547
 11
441.261108
 21
620.685547
  0
LINE
  8
0
 10
641.261108
 20
642.685547
 11
641.261108
 21
620.685547
  0
LINE
  8
0
 10
446.261108
 20
647.685547
 11
481.261108
 21
647.685547
  0
LINE
  8
0
 10
446.261108
 20
615.685547
 11
481.261108
 21
615.685547
  0
LINE
  8
0
 10
546.261108
 20
645.685547
 11
546.261108
 21
640.685547
  0
LINE
  8
0
 10
536.261108
 20
645.685547
 11
536.261108
 21
640.685547
  0
LINE
  8
0
 10
536.261108
 20
622.685547
 11
536.261108
 21
617.685547
  0
LINE
  8
0
 10
546.261108
 20
622.685547
 11
546.261108
 21
617.685547
  0
LINE
  8
0
 10
491.261108
 20
615.685547
 11
591.261108
 21
615.685547
  0
LINE
  8
0
 10
491.261108
 20
647.685547
 11
591.261108
 21
647.685547
  0
LINE
  8
0
 10
486.261108
 20
650.685547
 11
486.261108
 21
645.685547
  0
LINE
  8
0
 10
491.261108
 20
650.685547
 11
491.261108
 21
645.685547
  0
LINE
  8
0
 10
481.261108
 20
650.685547
 11
481.261108
 21
645.685547
  0
LINE
  8
0
 10
591.261108
 20
611.685547
 11
591.261108
 21
617.685547
  0
LINE
  8
0
 10
601.261108
 20
611.685547
 11
601.261108
 21
617.685547
  0
LINE
  8
0
 10
601.261108
 20
650.685547
 11
591.261108
 21
650.685547
  0
LINE
  8
0
 10
591.261108
 20
650.685547
 11
591.261108
 21
645.685547
  0
LINE
  8
0
 10
601.261108
 20
650.685547
 11
601.261108
 21
645.685547
  0
LINE
  8
0
 10
601.261047
 20
611.685547
 11
591.261047
 21
611.685547
  0
LINE
  8
0
 10
596.261108
 20
650.685547
 11
596.261108
 21
645.685547
  0
LINE
  8
0
 10
601.261108
 20
615.685547
 11
636.261108
 21
615.685547
  0
LINE
  8
0
 10
601.261108
 20
647.685547
 11
636.261108
 21
647.685547
  0
LINE
  8
0
 10
381.261108
 20
647.685547
 11
416.261108
 21
647.685547
  0
LINE
  8
0
 10
381.261108
 20
615.685547
 11
416.261108
 21
615.685547
  0
LINE
  8
0
 10
372.261078
 20
650.685547
 11
372.261078
 21
651.685547
  0
LINE
  8
0
 10
380.261078
 20
650.685547
 11
380.261078
 21
651.685547
  0
LINE
  8
0
 10
374.261108
 20
653.685486
 11
378.261108
 21
653.685486
  0
LINE
  8
0
 10
262.261078
 20
650.685547
 11
262.261078
 21
651.685547
  0
LINE
  8
0
 10
264.261108
 20
653.685486
 11
268.261108
 21
653.685486
  0
LINE
  8
0
 10
270.261078
 20
650.685547
 11
270.261078
 21
651.685547
  0
LINE
  8
0
 10
484.261108
 20
653.685486
 11
488.261108
 21
653.685486
  0
LINE
  8
0
 10
490.261078
 20
650.685547
 11
490.261078
 21
651.685547
  0
LINE
  8
0
 10
482.261078
 20
650.685547
 11
482.261078
 21
651.685547
  0
LINE
  8
0
 10
594.261108
 20
653.685486
 11
598.261108
 21
653.685486
  0
LINE
  8
0
 10
600.261108
 20
650.685547
 11
600.261108
 21
651.685547
  0
LINE
  8
0
 10
592.261108
 20
650.685547
 11
592.261108
 21
651.685547
  0
LINE
  8
0
 10
271.261108
 20
611.685547
 11
271.261108
 21
617.685547
  0
LINE
  8
0
 10
261.261108
 20
611.685547
 11
261.261108
 21
617.685547
  0
LINE
  8
0
 10
261.261169
 20
611.685547
 11
271.261169
 21
611.685547
  0
LINE
  8
0
 10
261.261108
 20
650.685547
 11
271.261108
 21
650.685547
  0
LINE
  8
0
 10
226.261108
 20
645.685547
 11
226.261108
 21
617.685547
  0
LINE
  8
0
 10
416.261108
 20
645.685547
 11
416.261108
 21
617.685547
  0
LINE
  8
0
 10
226.261108
 20
645.685547
 11
416.261108
 21
645.685547
  0
LINE
  8
0
 10
226.261108
 20
640.685547
 11
416.261108
 21
640.685547
  0
LINE
  8
0
 10
226.261108
 20
622.685547
 11
416.261108
 21
622.685547
  0
LINE
  8
0
 10
226.261108
 20
617.685547
 11
416.261108
 21
617.685547
  0
LINE
  8
0
 10
410.261108
 20
640.685547
 11
410.261108
 21
622.685547
  0
LINE
  8
0
 10
232.261108
 20
640.685547
 11
232.261108
 21
622.685547
  0
LINE
  8
0
 10
221.261108
 20
642.685547
 11
221.261108
 21
620.685547
  0
LINE
  8
0
 10
421.261108
 20
642.685547
 11
421.261108
 21
620.685547
  0
LINE
  8
0
 10
226.261108
 20
647.685547
 11
261.261108
 21
647.685547
  0
LINE
  8
0
 10
226.261108
 20
615.685547
 11
261.261108
 21
615.685547
  0
LINE
  8
0
 10
326.261108
 20
645.685547
 11
326.261108
 21
640.685547
  0
LINE
  8
0
 10
316.261108
 20
645.685547
 11
316.261108
 21
640.685547
  0
LINE
  8
0
 10
316.261108
 20
622.685547
 11
316.261108
 21
617.685547
  0
LINE
  8
0
 10
326.261108
 20
622.685547
 11
326.261108
 21
617.685547
  0
LINE
  8
0
 10
271.261108
 20
615.685547
 11
371.261108
 21
615.685547
  0
LINE
  8
0
 10
271.261108
 20
647.685547
 11
371.261108
 21
647.685547
  0
LINE
  8
0
 10
266.261108
 20
650.685547
 11
266.261108
 21
645.685547
  0
LINE
  8
0
 10
271.261108
 20
650.685547
 11
271.261108
 21
645.685547
  0
LINE
  8
0
 10
261.261108
 20
650.685547
 11
261.261108
 21
645.685547
  0
LINE
  8
0
 10
371.261108
 20
611.685547
 11
371.261108
 21
617.685547
  0
LINE
  8
0
 10
381.261108
 20
611.685547
 11
381.261108
 21
617.685547
  0
LINE
  8
0
 10
381.261108
 20
650.685547
 11
371.261108
 21
650.685547
  0
LINE
  8
0
 10
371.261108
 20
650.685547
 11
371.261108
 21
645.685547
  0
LINE
  8
0
 10
381.261108
 20
650.685547
 11
381.261108
 21
645.685547
  0
LINE
  8
0
 10
381.261047
 20
611.685547
 11
371.261047
 21
611.685547
  0
LINE
  8
0
 10
376.261108
 20
650.685547
 11
376.261108
 21
645.685547
  0
LINE
  8
0
  6
CENTER
 10
266.261108
 20
606.685547
 11
266.261108
 21
658.685547
  0
LINE
  8
0
  6
CENTER
 10
276.261108
 20
637.685547
 11
276.261108
 21
625.685547
  0
LINE
  8
0
  6
CENTER
 10
293.761108
 20
650.685547
 11
293.761108
 21
612.685547
  0
LINE
  8
0
  6
CENTER
 10
321.261108
 20
665.685547
 11
321.261108
 21
591.685547
  0
LINE
  8
0
  6
CENTER
 10
366.261108
 20
637.685547
 11
366.261108
 21
625.685547
  0
LINE
  8
0
  6
CENTER
 10
376.261108
 20
606.685547
 11
376.261108
 21
658.685547
  0
LINE
  8
0
  6
CENTER
 10
486.261108
 20
606.685547
 11
486.261108
 21
658.685547
  0
LINE
  8
0
  6
CENTER
 10
496.261108
 20
637.685547
 11
496.261108
 21
625.685547
  0
LINE
  8
0
  6
CENTER
 10
513.761108
 20
650.685547
 11
513.761108
 21
612.685547
  0
LINE
  8
0
  6
CENTER
 10
541.261108
 20
665.685547
 11
541.261108
 21
591.685547
  0
LINE
  8
0
  6
CENTER
 10
568.761108
 20
650.685547
 11
568.761108
 21
612.685547
  0
LINE
  8
0
  6
CENTER
 10
586.261108
 20
637.685547
 11
586.261108
 21
625.685547
  0
LINE
  8
0
  6
CENTER
 10
596.261108
 20
606.685547
 11
596.261108
 21
658.685547
  0
LINE
  8
0
  6
PHANTOM
 10
-371.750000
 20
-414.114960
 11
108.250000
 21
-414.114960
  0
LINE
  8
0
  6
PHANTOM
 10
-371.750000
 20
-339.114960
 11
-354.250000
 21
-339.114960
  0
LINE
  8
0
  6
PHANTOM
 10
-369.878784
 20
-409.114960
 11
110.115479
 21
-409.114960
  0
LINE
  8
0
  6
CENTER
 10
-381.750000
 20
-374.114990
 11
118.250000
 21
-374.114990
  0
LINE
  8
0
  6
PHANTOM
 10
-149.250000
 20
-339.114960
 11
-114.250000
 21
-339.114960
  0
LINE
  8
0
  6
PHANTOM
 10
90.750000
 20
-339.114960
 11
108.250000
 21
-339.114960
  0
LINE
  8
0
  6
CENTER
 10
-381.750000
 20
-139.114990
 11
118.250000
 21
-139.114990
  0
LINE
  8
0
  6
PHANTOM
 10
-371.750000
 20
-174.114990
 11
108.250000
 21
-174.114990
  0
LINE
  8
0
  6
PHANTOM
 10
-371.750000
 20
-104.114990
 11
108.250000
 21
-104.114990
  0
LINE
  8
0
  6
PHANTOM
 10
-121.750000
 20
-131.114990
 11
-121.750000
 21
-147.114990
  0
LINE
  8
0
  6
PHANTOM
 10
-119.750000
 20
-129.114990
 11
-116.750000
 21
-129.114990
  0
LINE
  8
0
  6
PHANTOM
 10
-119.750000
 20
-149.114990
 11
-116.750000
 21
-149.114990
  0
LINE
  8
0
  6
PHANTOM
 10
-369.498291
 20
-147.114990
 11
-361.750000
 21
-147.114990
  0
LINE
  8
0
  6
PHANTOM
 10
-374.001709
 20
-131.114990
 11
-361.750000
 21
-131.114990
  0
LINE
  8
0
  6
PHANTOM
 10
98.250000
 20
-131.114990
 11
98.250000
 21
-147.114990
  0
LINE
  8
0
  6
PHANTOM
 10
96.250000
 20
-129.114990
 11
93.250000
 21
-129.114990
  0
LINE
  8
0
  6
PHANTOM
 10
96.250000
 20
-149.114990
 11
93.250000
 21
-149.114990
  0
LINE
  8
0
  6
PHANTOM
 10
110.501709
 20
-147.114990
 11
98.250000
 21
-147.114990
  0
LINE
  8
0
  6
PHANTOM
 10
105.998291
 20
-131.114990
 11
98.250000
 21
-131.114990
  0
LINE
  8
0
  6
PHANTOM
 10
-361.750000
 20
-131.114990
 11
-361.750000
 21
-147.114990
  0
LINE
  8
0
  6
PHANTOM
 10
-359.750000
 20
-129.114990
 11
-356.750000
 21
-129.114990
  0
LINE
  8
0
  6
PHANTOM
 10
-359.750000
 20
-149.114990
 11
-356.750000
 21
-149.114990
  0
LINE
  8
0
  6
PHANTOM
 10
-141.750000
 20
-131.114990
 11
-141.750000
 21
-147.114990
  0
LINE
  8
0
  6
PHANTOM
 10
-143.750000
 20
-129.114990
 11
-146.750000
 21
-129.114990
  0
LINE
  8
0
  6
PHANTOM
 10
-143.750000
 20
-149.114990
 11
-146.750000
 21
-149.114990
  0
LINE
  8
0
  6
PHANTOM
 10
-121.750000
 20
-131.114990
 11
-141.750000
 21
-131.114990
  0
LINE
  8
0
  6
PHANTOM
 10
-121.750000
 20
-147.114990
 11
-141.750000
 21
-147.114990
  0
LINE
  8
0
  6
CENTER
 10
276.249908
 20
-374.114960
 11
360.249908
 21
-374.114960
  0
LINE
  8
0
  6
PHANTOM
 10
298.249817
 20
-414.114960
 11
313.999817
 21
-414.114960
  0
LINE
  8
0
  6
PHANTOM
 10
311.499817
 20
-412.114960
 11
313.999817
 21
-412.114960
  0
LINE
  8
0
  6
PHANTOM
 10
313.999908
 20
-412.114960
 11
313.999908
 21
-414.114960
  0
LINE
  8
0
  6
PHANTOM
 10
322.499908
 20
-412.114960
 11
322.499908
 21
-414.114960
  0
LINE
  8
0
  6
PHANTOM
 10
311.499908
 20
-406.814972
 11
311.499908
 21
-412.114960
  0
LINE
  8
0
  6
PHANTOM
 10
324.999908
 20
-406.814972
 11
324.999908
 21
-412.114960
  0
LINE
  8
0
  6
PHANTOM
 10
322.499817
 20
-414.114960
 11
338.249817
 21
-414.114960
  0
LINE
  8
0
  6
PHANTOM
 10
322.499817
 20
-412.114960
 11
324.999817
 21
-412.114960
  0
LINE
  8
0
  6
PHANTOM
 10
338.249908
 20
-409.114960
 11
338.249908
 21
-414.114990
  0
LINE
  8
0
  6
PHANTOM
 10
298.249908
 20
-409.114960
 11
298.249908
 21
-414.114929
  0
LINE
  8
0
  6
PHANTOM
 10
353.249908
 20
-347.114960
 11
353.249908
 21
-401.114960
  0
LINE
  8
0
  6
PHANTOM
 10
283.249908
 20
-347.114960
 11
283.249908
 21
-401.114960
  0
LINE
  8
0
  6
PHANTOM
 10
304.250000
 20
-339.114960
 11
304.750031
 21
-339.114960
  0
LINE
  8
0
  6
PHANTOM
 10
291.249908
 20
-409.114960
 11
298.249908
 21
-409.114960
  0
LINE
  8
0
  6
PHANTOM
 10
338.249908
 20
-409.114960
 11
345.249908
 21
-409.114960
  0
LINE
  8
0
  6
PHANTOM
 10
331.750031
 20
-339.114960
 11
332.250000
 21
-339.114960
  0
LINE
  8
0
  6
PHANTOM
 10
311.499817
 20
-406.814972
 11
324.999908
 21
-406.814972
  0
LINE
  8
0
  6
PHANTOM
 10
-641.313477
 20
108.999939
 11
-628.750122
 21
108.999939
  0
LINE
  8
0
  6
PHANTOM
 10
-464.750122
 20
108.999939
 11
-448.750122
 21
108.999939
  0
LINE
  8
0
  6
PHANTOM
 10
-284.750122
 20
108.999939
 11
-271.313477
 21
108.999939
  0
LINE
  8
0
  6
PHANTOM
 10
-131.749939
 20
60.999893
 11
-124.749939
 21
60.999893
  0
LINE
  8
0
  6
PHANTOM
 10
-131.749939
 20
108.999893
 11
-126.249893
 21
108.999893
  0
LINE
  8
0
  6
PHANTOM
 10
-98.749939
 20
60.999893
 11
-91.749939
 21
60.999893
  0
LINE
  8
0
  6
PHANTOM
 10
-97.249893
 20
108.999893
 11
-91.749939
 21
108.999893
  0
LINE
  8
0
  6
PHANTOM
 10
72.342514
 20
75.999939
 11
522.342529
 21
75.999939
  0
LINE
  8
0
  6
PHANTOM
 10
624.000000
 20
132.999908
 11
631.999939
 21
132.999908
  0
LINE
  8
0
  6
PHANTOM
 10
624.000000
 20
75.999908
 11
630.000000
 21
75.999908
  0
LINE
  8
0
  6
PHANTOM
 10
660.000000
 20
75.999908
 11
666.000000
 21
75.999908
  0
LINE
  8
0
  6
PHANTOM
 10
657.999939
 20
132.999908
 11
666.000000
 21
132.999908
  0
LINE
  8
0
  6
PHANTOM
 10
291.249908
 20
-339.114960
 11
304.750031
 21
-339.114960
  0
LINE
  8
0
  6
PHANTOM
 10
331.750031
 20
-339.114960
 11
345.249908
 21
-339.114960
  0
LINE
  8
0
  6
PHANTOM
 10
70.000015
 20
132.999954
 11
88.000061
 21
132.999954
  0
LINE
  8
0
  6
PHANTOM
 10
282.000000
 20
132.999954
 11
308.000061
 21
132.999954
  0
LINE
  8
0
  6
PHANTOM
 10
502.000061
 20
132.999954
 11
520.000000
 21
132.999954
  0
LINE
  8
0
 10
-484.250000
 20
132.443329
 11
-484.250000
 21
129.556564
  0
LINE
  8
0
 10
-486.749939
 20
133.886688
 11
-484.249908
 21
132.443298
  0
LINE
  8
0
 10
-628.750000
 20
108.999939
 11
-464.750000
 21
108.999939
  0
LINE
  8
0
 10
-448.750000
 20
108.999939
 11
-284.750000
 21
108.999939
  0
LINE
  8
0
 10
-448.750000
 20
113.999939
 11
-284.750000
 21
113.999939
  0
LINE
  8
0
 10
-446.750000
 20
144.999939
 11
-286.750000
 21
144.999939
  0
LINE
  8
0
 10
-446.750000
 20
138.999939
 11
-371.250000
 21
138.999939
  0
LINE
  8
0
 10
-446.750000
 20
144.999939
 11
-446.750000
 21
113.999939
  0
LINE
  8
0
 10
-286.750000
 20
144.999939
 11
-286.750000
 21
113.999947
  0
LINE
  8
0
 10
-362.250000
 20
138.999939
 11
-286.750000
 21
138.999939
  0
LINE
  8
0
 10
-429.250092
 20
129.556534
 11
-426.750092
 21
128.113159
  0
LINE
  8
0
 10
-426.750092
 20
128.113449
 11
-424.250061
 21
129.556839
  0
LINE
  8
0
 10
-424.250000
 20
129.556549
 11
-424.250000
 21
132.443314
  0
LINE
  8
0
 10
-424.250092
 20
132.443253
 11
-426.750122
 21
133.886642
  0
LINE
  8
0
 10
-426.750305
 20
133.887085
 11
-429.250336
 21
132.443695
  0
LINE
  8
0
 10
-429.250000
 20
132.443329
 11
-429.250000
 21
129.556564
  0
LINE
  8
0
 10
-304.250031
 20
129.556671
 11
-306.750031
 21
128.113297
  0
LINE
  8
0
 10
-306.750061
 20
128.113190
 11
-309.250031
 21
129.556549
  0
LINE
  8
0
 10
-309.250031
 20
129.556549
 11
-309.250031
 21
132.443329
  0
LINE
  8
0
 10
-309.249786
 20
132.442947
 11
-306.749756
 21
133.886337
  0
LINE
  8
0
 10
-306.750061
 20
133.886749
 11
-304.250031
 21
132.443359
  0
LINE
  8
0
 10
-304.250031
 20
132.443329
 11
-304.250031
 21
129.556580
  0
LINE
  8
0
 10
-628.750000
 20
113.999939
 11
-464.750000
 21
113.999939
  0
LINE
  8
0
 10
-626.750000
 20
144.999939
 11
-466.750000
 21
144.999939
  0
LINE
  8
0
 10
-626.750000
 20
138.999939
 11
-551.250000
 21
138.999939
  0
LINE
  8
0
 10
-626.750000
 20
144.999939
 11
-626.750000
 21
113.999939
  0
LINE
  8
0
 10
-466.750000
 20
144.999939
 11
-466.750000
 21
113.999939
  0
LINE
  8
0
 10
-371.250000
 20
138.999939
 11
-371.250000
 21
129.999939
  0
LINE
  8
0
 10
-362.250000
 20
138.999939
 11
-362.250000
 21
129.999939
  0
LINE
  8
0
 10
-542.250000
 20
138.999939
 11
-466.750000
 21
138.999939
  0
LINE
  8
0
 10
-609.250122
 20
129.556519
 11
-606.750122
 21
128.113159
  0
LINE
  8
0
 10
-606.750061
 20
128.113510
 11
-604.250061
 21
129.556900
  0
LINE
  8
0
 10
-604.250000
 20
129.556549
 11
-604.250000
 21
132.443314
  0
LINE
  8
0
 10
-604.250000
 20
132.443161
 11
-606.749939
 21
133.886520
  0
LINE
  8
0
 10
-606.750244
 20
133.887177
 11
-609.250244
 21
132.443787
  0
LINE
  8
0
 10
-609.250000
 20
132.443329
 11
-609.250000
 21
129.556564
  0
LINE
  8
0
 10
-489.249634
 20
132.442917
 11
-486.749664
 21
133.886276
  0
LINE
  8
0
 10
-484.250092
 20
129.556656
 11
-486.750122
 21
128.113266
  0
LINE
  8
0
 10
-486.750061
 20
128.113144
 11
-489.250092
 21
129.556534
  0
LINE
  8
0
 10
-489.250000
 20
129.556549
 11
-489.250000
 21
132.443314
  0
LINE
  8
0
  6
CENTER
 10
-606.750000
 20
140.999939
 11
-606.750000
 21
120.999939
  0
LINE
  8
0
  6
CENTER
 10
-616.750000
 20
130.999939
 11
-596.750000
 21
130.999939
  0
LINE
  8
0
  6
CENTER
 10
-576.750000
 20
138.499939
 11
-576.750000
 21
123.499939
  0
LINE
  8
0
  6
CENTER
 10
-584.250000
 20
130.999939
 11
-569.250000
 21
130.999939
  0
LINE
  8
0
  6
CENTER
 10
-546.750000
 20
149.999939
 11
-546.750000
 21
49.999939
  0
LINE
  8
0
  6
CENTER
 10
-376.250000
 20
133.499939
 11
-357.250000
 21
133.499939
  0
LINE
  8
0
  6
CENTER
 10
-516.750000
 20
138.499939
 11
-516.750000
 21
123.499939
  0
LINE
  8
0
  6
CENTER
 10
-509.250000
 20
130.999939
 11
-524.250000
 21
130.999939
  0
LINE
  8
0
  6
CENTER
 10
-476.750000
 20
130.999939
 11
-496.750000
 21
130.999939
  0
LINE
  8
0
  6
CENTER
 10
-486.750000
 20
140.999939
 11
-486.750000
 21
120.999939
  0
LINE
  8
0
  6
CENTER
 10
-436.750000
 20
130.999939
 11
-416.750000
 21
130.999939
  0
LINE
  8
0
  6
CENTER
 10
-426.750000
 20
140.999939
 11
-426.750000
 21
120.999939
  0
LINE
  8
0
  6
CENTER
 10
-396.750000
 20
138.499939
 11
-396.750000
 21
123.499947
  0
LINE
  8
0
  6
CENTER
 10
-404.250000
 20
130.999939
 11
-389.250000
 21
130.999939
  0
LINE
  8
0
  6
CENTER
 10
-366.750000
 20
149.999939
 11
-366.750000
 21
49.999947
  0
LINE
  8
0
  6
CENTER
 10
-336.750000
 20
138.499939
 11
-336.750000
 21
123.499947
  0
LINE
  8
0
  6
CENTER
 10
-329.250000
 20
130.999939
 11
-344.250000
 21
130.999939
  0
LINE
  8
0
  6
CENTER
 10
-306.750000
 20
140.999939
 11
-306.750000
 21
120.999947
  0
LINE
  8
0
  6
CENTER
 10
-296.750000
 20
130.999939
 11
-316.750000
 21
130.999939
  0
LINE
  8
0
  6
CENTER
 10
-556.250000
 20
133.499939
 11
-537.250000
 21
133.499939
  0
LINE
  8
0
 10
-542.250000
 20
138.999939
 11
-542.250000
 21
129.999939
  0
LINE
  8
0
 10
-551.250000
 20
138.999939
 11
-551.250000
 21
129.999939
  0
LINE
  8
0
 10
-421.750000
 20
270.499939
 11
-421.750000
 21
276.499939
  0
LINE
  8
0
 10
-431.750000
 20
270.499939
 11
-431.750000
 21
276.499939
  0
LINE
  8
0
 10
-431.750000
 20
270.499939
 11
-421.750000
 21
270.499939
  0
LINE
  8
0
 10
-311.750000
 20
308.499908
 11
-311.750000
 21
303.499908
  0
LINE
  8
0
 10
-311.750000
 20
308.499939
 11
-301.750000
 21
308.499939
  0
LINE
  8
0
 10
-301.750000
 20
308.499908
 11
-301.750000
 21
303.499908
  0
LINE
  8
0
 10
-446.750000
 20
303.499939
 11
-446.750000
 21
276.499939
  0
LINE
  8
0
 10
-286.750000
 20
303.499908
 11
-286.750000
 21
276.499908
  0
LINE
  8
0
 10
-446.750000
 20
303.499939
 11
-286.750000
 21
303.499939
  0
LINE
  8
0
 10
-446.750000
 20
276.499939
 11
-286.750000
 21
276.499939
  0
LINE
  8
0
 10
-446.750000
 20
280.999939
 11
-286.750000
 21
280.999939
  0
LINE
  8
0
 10
-446.750000
 20
298.999939
 11
-286.750000
 21
298.999939
  0
LINE
  8
0
 10
-371.250000
 20
303.499908
 11
-371.250000
 21
298.999908
  0
LINE
  8
0
 10
-371.250000
 20
280.999908
 11
-371.250000
 21
276.499908
  0
LINE
  8
0
 10
-362.250000
 20
303.499908
 11
-362.250000
 21
298.999908
  0
LINE
  8
0
 10
-311.749969
 20
270.499908
 11
-311.749969
 21
276.499908
  0
LINE
  8
0
 10
-301.749969
 20
270.499908
 11
-301.749969
 21
276.499908
  0
LINE
  8
0
 10
-301.750000
 20
270.499939
 11
-311.750000
 21
270.499939
  0
LINE
  8
0
 10
-362.250000
 20
280.999908
 11
-362.250000
 21
276.499908
  0
LINE
  8
0
 10
-445.250000
 20
306.999939
 11
-431.750000
 21
306.999939
  0
LINE
  8
0
 10
-445.250000
 20
272.999939
 11
-431.750000
 21
272.999939
  0
LINE
  8
0
 10
-451.250000
 20
300.999939
 11
-451.250000
 21
278.999939
  0
LINE
  8
0
 10
-282.250000
 20
300.999908
 11
-282.250000
 21
278.999908
  0
LINE
  8
0
 10
-421.750000
 20
306.999939
 11
-311.750000
 21
306.999939
  0
LINE
  8
0
 10
-421.750000
 20
272.999939
 11
-311.749969
 21
272.999939
  0
LINE
  8
0
 10
-301.750000
 20
306.999939
 11
-288.250000
 21
306.999939
  0
LINE
  8
0
 10
-301.749969
 20
272.999939
 11
-288.250000
 21
272.999939
  0
LINE
  8
0
 10
-306.750000
 20
303.499908
 11
-306.750000
 21
308.499908
  0
LINE
  8
0
 10
-421.750000
 20
308.499939
 11
-421.750000
 21
303.499939
  0
LINE
  8
0
 10
-426.750000
 20
303.499939
 11
-426.750000
 21
308.499939
  0
LINE
  8
0
 10
-431.750000
 20
308.499939
 11
-431.750000
 21
303.499939
  0
LINE
  8
0
 10
-421.750000
 20
308.499939
 11
-431.750000
 21
308.499939
  0
LINE
  8
0
 10
-601.750000
 20
270.499939
 11
-601.750000
 21
276.499939
  0
LINE
  8
0
 10
-611.750000
 20
270.499939
 11
-611.750000
 21
276.499939
  0
LINE
  8
0
 10
-611.750000
 20
270.499939
 11
-601.750000
 21
270.499939
  0
LINE
  8
0
 10
-491.750000
 20
308.499939
 11
-491.750000
 21
303.499939
  0
LINE
  8
0
 10
-491.750000
 20
308.499939
 11
-481.750000
 21
308.499939
  0
LINE
  8
0
 10
-481.750000
 20
308.499939
 11
-481.750000
 21
303.499939
  0
LINE
  8
0
 10
-626.750000
 20
303.499939
 11
-626.750000
 21
276.499939
  0
LINE
  8
0
 10
-466.750000
 20
303.499939
 11
-466.750000
 21
276.499939
  0
LINE
  8
0
 10
-626.750000
 20
303.499939
 11
-466.750000
 21
303.499939
  0
LINE
  8
0
 10
-626.750000
 20
276.499939
 11
-466.750000
 21
276.499939
  0
LINE
  8
0
 10
-626.750000
 20
280.999939
 11
-466.750000
 21
280.999939
  0
LINE
  8
0
 10
-626.750000
 20
298.999939
 11
-466.750000
 21
298.999939
  0
LINE
  8
0
 10
-551.250000
 20
303.499939
 11
-551.250000
 21
298.999939
  0
LINE
  8
0
 10
-551.250000
 20
280.999939
 11
-551.250000
 21
276.499939
  0
LINE
  8
0
 10
-542.250000
 20
303.499939
 11
-542.250000
 21
298.999939
  0
LINE
  8
0
 10
-491.750000
 20
270.499939
 11
-491.750000
 21
276.499939
  0
LINE
  8
0
 10
-481.750000
 20
270.499939
 11
-481.750000
 21
276.499939
  0
LINE
  8
0
 10
-481.750000
 20
270.499939
 11
-491.750000
 21
270.499939
  0
LINE
  8
0
 10
-542.250000
 20
280.999939
 11
-542.250000
 21
276.499939
  0
LINE
  8
0
 10
-625.250000
 20
306.999939
 11
-611.750000
 21
306.999939
  0
LINE
  8
0
 10
-625.250000
 20
272.999939
 11
-611.750000
 21
272.999939
  0
LINE
  8
0
 10
-631.250000
 20
300.999939
 11
-631.250000
 21
278.999939
  0
LINE
  8
0
 10
-462.250000
 20
300.999939
 11
-462.250000
 21
278.999939
  0
LINE
  8
0
 10
-601.750000
 20
306.999939
 11
-491.750000
 21
306.999939
  0
LINE
  8
0
 10
-601.750000
 20
272.999939
 11
-491.750000
 21
272.999939
  0
LINE
  8
0
 10
-481.750000
 20
306.999939
 11
-468.250000
 21
306.999939
  0
LINE
  8
0
 10
-481.750000
 20
272.999939
 11
-468.250000
 21
272.999939
  0
LINE
  8
0
 10
-486.750000
 20
303.499939
 11
-486.750000
 21
308.499939
  0
LINE
  8
0
 10
-601.750000
 20
308.499939
 11
-601.750000
 21
303.499939
  0
LINE
  8
0
 10
-606.750000
 20
303.499939
 11
-606.750000
 21
308.499939
  0
LINE
  8
0
 10
-611.750000
 20
308.499939
 11
-611.750000
 21
303.499939
  0
LINE
  8
0
 10
-601.750000
 20
308.499939
 11
-611.750000
 21
308.499939
  0
LINE
  8
0
  6
CENTER
 10
-426.750000
 20
318.999939
 11
-426.750000
 21
260.999939
  0
LINE
  8
0
  6
CENTER
 10
-411.750000
 20
295.999939
 11
-411.750000
 21
283.999939
  0
LINE
  8
0
  6
CENTER
 10
-396.750000
 20
308.499908
 11
-396.750000
 21
271.499908
  0
LINE
  8
0
  6
CENTER
 10
-366.750000
 20
318.999908
 11
-366.750000
 21
260.999908
  0
LINE
  8
0
  6
CENTER
 10
-336.750000
 20
308.499908
 11
-336.750000
 21
271.499908
  0
LINE
  8
0
  6
CENTER
 10
-306.750000
 20
318.999908
 11
-306.750000
 21
260.999908
  0
LINE
  8
0
  6
CENTER
 10
-321.750000
 20
295.999908
 11
-321.750000
 21
283.999908
  0
LINE
  8
0
  6
CENTER
 10
-486.750000
 20
318.999939
 11
-486.750000
 21
260.999939
  0
LINE
  8
0
  6
CENTER
 10
-501.750000
 20
295.999939
 11
-501.750000
 21
283.999939
  0
LINE
  8
0
  6
CENTER
 10
-516.750000
 20
308.499939
 11
-516.750000
 21
271.499939
  0
LINE
  8
0
  6
CENTER
 10
-546.750000
 20
318.999939
 11
-546.750000
 21
260.999939
  0
LINE
  8
0
  6
CENTER
 10
-576.750000
 20
308.499939
 11
-576.750000
 21
271.499939
  0
LINE
  8
0
  6
CENTER
 10
-591.750000
 20
295.999939
 11
-591.750000
 21
283.999939
  0
LINE
  8
0
  6
CENTER
 10
-606.750000
 20
318.999939
 11
-606.750000
 21
260.999939
  0
LINE
  8
0
 10
-303.500000
 20
310.999939
 11
-310.000000
 21
310.999939
  0
LINE
  8
0
 10
-311.250000
 20
309.749908
 11
-311.250000
 21
308.499908
  0
LINE
  8
0
 10
-302.250000
 20
309.749908
 11
-302.250000
 21
308.499908
  0
LINE
  8
0
 10
-431.250000
 20
309.749939
 11
-431.250000
 21
308.499939
  0
LINE
  8
0
 10
-423.500000
 20
310.999939
 11
-430.000000
 21
310.999939
  0
LINE
  8
0
 10
-422.250000
 20
309.749939
 11
-422.250000
 21
308.499939
  0
LINE
  8
0
 10
-611.250000
 20
309.749939
 11
-611.250000
 21
308.499939
  0
LINE
  8
0
 10
-603.500000
 20
310.999939
 11
-610.000000
 21
310.999939
  0
LINE
  8
0
 10
-602.250000
 20
309.749939
 11
-602.250000
 21
308.499939
  0
LINE
  8
0
 10
-491.250000
 20
309.749939
 11
-491.250000
 21
308.499939
  0
LINE
  8
0
 10
-483.500000
 20
310.999939
 11
-490.000000
 21
310.999939
  0
LINE
  8
0
 10
-482.250000
 20
309.749939
 11
-482.250000
 21
308.499939
  0
LINE
  8
0
 10
-126.250031
 20
108.999939
 11
-97.249969
 21
108.999939
  0
LINE
  8
0
 10
-93.249969
 20
136.773437
 11
-93.249969
 21
125.226418
  0
LINE
  8
0
 10
-120.750092
 20
144.999893
 11
-102.750092
 21
144.999893
  0
LINE
  8
0
 10
-102.749939
 20
144.999908
 11
-102.749939
 21
113.999908
  0
LINE
  8
0
 10
-120.749939
 20
144.999878
 11
-120.749939
 21
113.999878
  0
LINE
  8
0
 10
-126.250031
 20
113.999893
 11
-97.250000
 21
113.999893
  0
LINE
  8
0
 10
-125.250076
 20
138.999893
 11
-120.750076
 21
138.999893
  0
LINE
  8
0
 10
-98.249939
 20
138.999939
 11
-98.249939
 21
113.999931
  0
LINE
  8
0
 10
-125.249939
 20
138.999847
 11
-125.249939
 21
113.999855
  0
LINE
  8
0
 10
-102.750076
 20
138.999893
 11
-98.250076
 21
138.999893
  0
LINE
  8
0
 10
-131.250046
 20
125.999893
 11
-125.250046
 21
125.999893
  0
LINE
  8
0
 10
-131.250076
 20
135.999893
 11
-125.250076
 21
135.999893
  0
LINE
  8
0
 10
-131.249939
 20
135.999847
 11
-131.249939
 21
125.999840
  0
LINE
  8
0
 10
-93.250107
 20
136.773407
 11
-98.250076
 21
136.773407
  0
LINE
  8
0
 10
-93.250107
 20
133.886658
 11
-98.250076
 21
133.886658
  0
LINE
  8
0
 10
-93.250092
 20
128.113159
 11
-98.250061
 21
128.113159
  0
LINE
  8
0
 10
-93.250076
 20
125.226379
 11
-98.250046
 21
125.226379
  0
LINE
  8
0
  6
CENTER
 10
-136.250061
 20
130.999893
 11
-85.250092
 21
130.999893
  0
LINE
  8
0
  6
CENTER
 10
-111.749939
 20
149.999893
 11
-111.749939
 21
49.999893
  0
LINE
  8
0
 10
-90.749969
 20
134.249908
 11
-90.749969
 21
127.749901
  0
LINE
  8
0
 10
-93.249985
 20
135.499893
 11
-91.999985
 21
135.499893
  0
LINE
  8
0
 10
-93.249985
 20
126.499893
 11
-91.999985
 21
126.499893
  0
LINE
  8
0
  6
PHANTOM
 10
87.500031
 20
132.999939
 11
88.000061
 21
132.999939
  0
LINE
  8
0
  6
PHANTOM
 10
282.000000
 20
132.999939
 11
282.500031
 21
132.999939
  0
LINE
  8
0
  6
CENTER
 10
405.000031
 20
170.999985
 11
405.000031
 21
64.999939
  0
LINE
  8
0
 10
308.000061
 20
138.999985
 11
502.000061
 21
138.999985
  0
LINE
  8
0
 10
316.000031
 20
165.999985
 11
494.000031
 21
165.999985
  0
LINE
  8
0
 10
310.000031
 20
161.999985
 11
400.000031
 21
161.999985
  0
LINE
  8
0
 10
310.000031
 20
161.999985
 11
310.000031
 21
138.999985
  0
LINE
  8
0
 10
500.000031
 20
161.999985
 11
500.000031
 21
138.999985
  0
LINE
  8
0
 10
316.000031
 20
165.999985
 11
316.000031
 21
161.999985
  0
LINE
  8
0
 10
494.000031
 20
165.999985
 11
494.000031
 21
161.999985
  0
LINE
  8
0
  6
CENTER
 10
370.000031
 20
153.999985
 11
385.000031
 21
153.999985
  0
LINE
  8
0
  6
CENTER
 10
377.500031
 20
161.499985
 11
377.500031
 21
146.499985
  0
LINE
  8
0
  6
CENTER
 10
341.000031
 20
153.999985
 11
359.000031
 21
153.999985
  0
LINE
  8
0
  6
CENTER
 10
350.000031
 20
162.999985
 11
350.000031
 21
144.999985
  0
LINE
  8
0
 10
347.500061
 20
152.556656
 11
350.000061
 21
151.113281
  0
LINE
  8
0
 10
350.000061
 20
151.113190
 11
352.500092
 21
152.556580
  0
LINE
  8
0
 10
352.500061
 20
152.556595
 11
352.500061
 21
155.443344
  0
LINE
  8
0
 10
352.500061
 20
155.443436
 11
350.000061
 21
156.886810
  0
LINE
  8
0
 10
350.000061
 20
156.886749
 11
347.500092
 21
155.443390
  0
LINE
  8
0
 10
347.500061
 20
155.443375
 11
347.500061
 21
152.556625
  0
LINE
  8
0
  6
CENTER
 10
440.000031
 20
153.999985
 11
425.000031
 21
153.999985
  0
LINE
  8
0
  6
CENTER
 10
432.500031
 20
161.499985
 11
432.500031
 21
146.499985
  0
LINE
  8
0
  6
CENTER
 10
469.000031
 20
153.999985
 11
451.000031
 21
153.999985
  0
LINE
  8
0
  6
CENTER
 10
460.000031
 20
162.999985
 11
460.000031
 21
144.999985
  0
LINE
  8
0
 10
462.499878
 20
152.556839
 11
459.999908
 21
151.113480
  0
LINE
  8
0
 10
459.999695
 20
151.112717
 11
457.499664
 21
152.556107
  0
LINE
  8
0
 10
457.500000
 20
152.556595
 11
457.500000
 21
155.443344
  0
LINE
  8
0
 10
457.499847
 20
155.443527
 11
459.999878
 21
156.886917
  0
LINE
  8
0
 10
459.999695
 20
156.886215
 11
462.499725
 21
155.442825
  0
LINE
  8
0
 10
462.500000
 20
155.443375
 11
462.500000
 21
152.556625
  0
LINE
  8
0
 10
400.000031
 20
161.999985
 11
400.000031
 21
153.999985
  0
LINE
  8
0
 10
410.000031
 20
161.999985
 11
410.000031
 21
153.999985
  0
LINE
  8
0
 10
410.000031
 20
161.999985
 11
500.000031
 21
161.999985
  0
LINE
  8
0
  6
CENTER
 10
396.000031
 20
155.999985
 11
414.000031
 21
155.999985
  0
LINE
  8
0
  6
CENTER
 10
185.000031
 20
170.999985
 11
185.000031
 21
64.999939
  0
LINE
  8
0
 10
88.000061
 20
138.999985
 11
282.000000
 21
138.999985
  0
LINE
  8
0
 10
96.000031
 20
165.999985
 11
274.000031
 21
165.999985
  0
LINE
  8
0
 10
90.000031
 20
161.999985
 11
180.000031
 21
161.999985
  0
LINE
  8
0
 10
90.000031
 20
161.999985
 11
90.000031
 21
138.999985
  0
LINE
  8
0
 10
280.000031
 20
161.999985
 11
280.000031
 21
138.999985
  0
LINE
  8
0
 10
96.000031
 20
165.999985
 11
96.000031
 21
161.999985
  0
LINE
  8
0
 10
274.000031
 20
165.999985
 11
274.000031
 21
161.999985
  0
LINE
  8
0
  6
CENTER
 10
150.000031
 20
153.999985
 11
165.000031
 21
153.999985
  0
LINE
  8
0
  6
CENTER
 10
157.500031
 20
161.499985
 11
157.500031
 21
146.499985
  0
LINE
  8
0
  6
CENTER
 10
121.000031
 20
153.999985
 11
139.000031
 21
153.999985
  0
LINE
  8
0
  6
CENTER
 10
130.000031
 20
162.999985
 11
130.000031
 21
144.999985
  0
LINE
  8
0
 10
127.500046
 20
152.556656
 11
130.000046
 21
151.113281
  0
LINE
  8
0
 10
129.999985
 20
151.113251
 11
132.499985
 21
152.556625
  0
LINE
  8
0
 10
132.500061
 20
152.556595
 11
132.500061
 21
155.443344
  0
LINE
  8
0
 10
132.500046
 20
155.443436
 11
130.000046
 21
156.886810
  0
LINE
  8
0
 10
129.999924
 20
156.886932
 11
127.499931
 21
155.443558
  0
LINE
  8
0
 10
127.500061
 20
155.443375
 11
127.500061
 21
152.556625
  0
LINE
  8
0
  6
CENTER
 10
220.000031
 20
153.999985
 11
205.000031
 21
153.999985
  0
LINE
  8
0
  6
CENTER
 10
212.500031
 20
161.499985
 11
212.500031
 21
146.499985
  0
LINE
  8
0
  6
CENTER
 10
249.000031
 20
153.999985
 11
231.000031
 21
153.999985
  0
LINE
  8
0
  6
CENTER
 10
240.000031
 20
162.999985
 11
240.000031
 21
144.999985
  0
LINE
  8
0
 10
242.500076
 20
152.556625
 11
240.000076
 21
151.113251
  0
LINE
  8
0
 10
239.999908
 20
151.112915
 11
237.499908
 21
152.556290
  0
LINE
  8
0
 10
237.500000
 20
152.556595
 11
237.500000
 21
155.443344
  0
LINE
  8
0
 10
237.499939
 20
155.443314
 11
239.999969
 21
156.886688
  0
LINE
  8
0
 10
239.999893
 20
156.886490
 11
242.499893
 21
155.443115
  0
LINE
  8
0
 10
242.500000
 20
155.443375
 11
242.500000
 21
152.556625
  0
LINE
  8
0
 10
180.000031
 20
161.999985
 11
180.000031
 21
153.999985
  0
LINE
  8
0
 10
190.000031
 20
161.999985
 11
190.000031
 21
153.999985
  0
LINE
  8
0
 10
190.000031
 20
161.999985
 11
280.000031
 21
161.999985
  0
LINE
  8
0
  6
CENTER
 10
176.000031
 20
155.999985
 11
194.000031
 21
155.999985
  0
LINE
  8
0
 10
88.000061
 20
132.999954
 11
282.000000
 21
132.999954
  0
LINE
  8
0
 10
308.000061
 20
132.999954
 11
502.000061
 21
132.999954
  0
LINE
  8
0
 10
354.999908
 20
289.999847
 11
354.999908
 21
295.999847
  0
LINE
  8
0
 10
344.999908
 20
289.999847
 11
344.999908
 21
295.999847
  0
LINE
  8
0
 10
344.999969
 20
289.999847
 11
354.999969
 21
289.999847
  0
LINE
  8
0
 10
344.999908
 20
328.999847
 11
354.999908
 21
328.999847
  0
LINE
  8
0
 10
309.999908
 20
323.999847
 11
309.999908
 21
295.999847
  0
LINE
  8
0
 10
499.999908
 20
323.999847
 11
499.999908
 21
295.999847
  0
LINE
  8
0
 10
309.999908
 20
323.999847
 11
499.999908
 21
323.999847
  0
LINE
  8
0
 10
309.999908
 20
318.999847
 11
499.999908
 21
318.999847
  0
LINE
  8
0
 10
309.999908
 20
300.999847
 11
499.999908
 21
300.999847
  0
LINE
  8
0
 10
309.999908
 20
295.999847
 11
499.999908
 21
295.999847
  0
LINE
  8
0
 10
493.999908
 20
318.999847
 11
493.999908
 21
300.999847
  0
LINE
  8
0
 10
315.999908
 20
318.999847
 11
315.999908
 21
300.999847
  0
LINE
  8
0
 10
304.999908
 20
320.999847
 11
304.999908
 21
298.999847
  0
LINE
  8
0
 10
504.999908
 20
320.999847
 11
504.999908
 21
298.999847
  0
LINE
  8
0
 10
309.999908
 20
325.999847
 11
344.999908
 21
325.999847
  0
LINE
  8
0
 10
309.999908
 20
293.999847
 11
344.999908
 21
293.999847
  0
LINE
  8
0
 10
409.999908
 20
323.999847
 11
409.999908
 21
318.999847
  0
LINE
  8
0
 10
399.999908
 20
323.999847
 11
399.999908
 21
318.999847
  0
LINE
  8
0
 10
399.999908
 20
300.999847
 11
399.999908
 21
295.999847
  0
LINE
  8
0
 10
409.999908
 20
300.999847
 11
409.999908
 21
295.999847
  0
LINE
  8
0
 10
354.999908
 20
293.999847
 11
454.999908
 21
293.999847
  0
LINE
  8
0
 10
354.999908
 20
325.999847
 11
454.999908
 21
325.999847
  0
LINE
  8
0
 10
349.999908
 20
328.999847
 11
349.999908
 21
323.999847
  0
LINE
  8
0
 10
354.999908
 20
328.999847
 11
354.999908
 21
323.999847
  0
LINE
  8
0
 10
344.999908
 20
328.999847
 11
344.999908
 21
323.999847
  0
LINE
  8
0
 10
454.999908
 20
289.999847
 11
454.999908
 21
295.999847
  0
LINE
  8
0
 10
464.999908
 20
289.999847
 11
464.999908
 21
295.999847
  0
LINE
  8
0
 10
464.999908
 20
328.999847
 11
454.999908
 21
328.999847
  0
LINE
  8
0
 10
454.999908
 20
328.999847
 11
454.999908
 21
323.999847
  0
LINE
  8
0
 10
464.999908
 20
328.999847
 11
464.999908
 21
323.999847
  0
LINE
  8
0
 10
464.999847
 20
289.999847
 11
454.999847
 21
289.999847
  0
LINE
  8
0
 10
459.999908
 20
328.999847
 11
459.999908
 21
323.999847
  0
LINE
  8
0
 10
464.999908
 20
293.999847
 11
499.999908
 21
293.999847
  0
LINE
  8
0
 10
464.999908
 20
325.999847
 11
499.999908
 21
325.999847
  0
LINE
  8
0
 10
244.999908
 20
325.999847
 11
279.999908
 21
325.999847
  0
LINE
  8
0
 10
244.999908
 20
293.999847
 11
279.999908
 21
293.999847
  0
LINE
  8
0
 10
134.999908
 20
289.999847
 11
134.999908
 21
295.999847
  0
LINE
  8
0
 10
124.999908
 20
289.999847
 11
124.999908
 21
295.999847
  0
LINE
  8
0
 10
124.999969
 20
289.999847
 11
134.999969
 21
289.999847
  0
LINE
  8
0
 10
124.999908
 20
328.999847
 11
134.999908
 21
328.999847
  0
LINE
  8
0
 10
89.999908
 20
323.999847
 11
89.999908
 21
295.999847
  0
LINE
  8
0
 10
279.999908
 20
323.999847
 11
279.999908
 21
295.999847
  0
LINE
  8
0
 10
89.999908
 20
323.999847
 11
279.999908
 21
323.999847
  0
LINE
  8
0
 10
89.999908
 20
318.999847
 11
279.999908
 21
318.999847
  0
LINE
  8
0
 10
89.999908
 20
300.999847
 11
279.999908
 21
300.999847
  0
LINE
  8
0
 10
89.999908
 20
295.999847
 11
279.999908
 21
295.999847
  0
LINE
  8
0
 10
273.999908
 20
318.999847
 11
273.999908
 21
300.999847
  0
LINE
  8
0
 10
95.999908
 20
318.999847
 11
95.999908
 21
300.999847
  0
LINE
  8
0
 10
84.999908
 20
320.999847
 11
84.999908
 21
298.999847
  0
LINE
  8
0
 10
284.999908
 20
320.999847
 11
284.999908
 21
298.999847
  0
LINE
  8
0
 10
89.999908
 20
325.999847
 11
124.999908
 21
325.999847
  0
LINE
  8
0
 10
89.999908
 20
293.999847
 11
124.999908
 21
293.999847
  0
LINE
  8
0
 10
189.999908
 20
323.999847
 11
189.999908
 21
318.999847
  0
LINE
  8
0
 10
179.999908
 20
323.999847
 11
179.999908
 21
318.999847
  0
LINE
  8
0
 10
179.999908
 20
300.999847
 11
179.999908
 21
295.999847
  0
LINE
  8
0
 10
189.999908
 20
300.999847
 11
189.999908
 21
295.999847
  0
LINE
  8
0
 10
134.999908
 20
293.999847
 11
234.999908
 21
293.999847
  0
LINE
  8
0
 10
134.999908
 20
325.999847
 11
234.999908
 21
325.999847
  0
LINE
  8
0
 10
129.999908
 20
328.999847
 11
129.999908
 21
323.999847
  0
LINE
  8
0
 10
134.999908
 20
328.999847
 11
134.999908
 21
323.999847
  0
LINE
  8
0
 10
124.999908
 20
328.999847
 11
124.999908
 21
323.999847
  0
LINE
  8
0
 10
234.999908
 20
289.999847
 11
234.999908
 21
295.999847
  0
LINE
  8
0
 10
244.999908
 20
289.999847
 11
244.999908
 21
295.999847
  0
LINE
  8
0
 10
244.999908
 20
328.999847
 11
234.999908
 21
328.999847
  0
LINE
  8
0
 10
234.999908
 20
328.999847
 11
234.999908
 21
323.999847
  0
LINE
  8
0
 10
244.999908
 20
328.999847
 11
244.999908
 21
323.999847
  0
LINE
  8
0
 10
244.999847
 20
289.999847
 11
234.999847
 21
289.999847
  0
LINE
  8
0
 10
239.999908
 20
328.999847
 11
239.999908
 21
323.999847
  0
LINE
  8
0
  6
CENTER
 10
129.999908
 20
284.999847
 11
129.999908
 21
336.999847
  0
LINE
  8
0
  6
CENTER
 10
139.999908
 20
315.999847
 11
139.999908
 21
303.999847
  0
LINE
  8
0
  6
CENTER
 10
157.499908
 20
328.999847
 11
157.499908
 21
290.999847
  0
LINE
  8
0
  6
CENTER
 10
184.999908
 20
343.999847
 11
184.999908
 21
269.999847
  0
LINE
  8
0
  6
CENTER
 10
229.999908
 20
315.999847
 11
229.999908
 21
303.999847
  0
LINE
  8
0
  6
CENTER
 10
239.999908
 20
284.999847
 11
239.999908
 21
336.999847
  0
LINE
  8
0
  6
CENTER
 10
349.999908
 20
284.999847
 11
349.999908
 21
336.999847
  0
LINE
  8
0
  6
CENTER
 10
359.999908
 20
315.999847
 11
359.999908
 21
303.999847
  0
LINE
  8
0
  6
CENTER
 10
377.499908
 20
328.999847
 11
377.499908
 21
290.999847
  0
LINE
  8
0
  6
CENTER
 10
404.999908
 20
343.999847
 11
404.999908
 21
269.999847
  0
LINE
  8
0
  6
CENTER
 10
432.499908
 20
328.999847
 11
432.499908
 21
290.999847
  0
LINE
  8
0
  6
CENTER
 10
449.999908
 20
315.999847
 11
449.999908
 21
303.999847
  0
LINE
  8
0
  6
CENTER
 10
459.999908
 20
284.999847
 11
459.999908
 21
336.999847
  0
LINE
  8
0
  6
CENTER
 10
212.499908
 20
328.999847
 11
212.499908
 21
290.999847
  0
LINE
  8
0
 10
456.749908
 20
331.499847
 11
463.249908
 21
331.499847
  0
LINE
  8
0
 10
464.499908
 20
328.999847
 11
464.499908
 21
330.249847
  0
LINE
  8
0
 10
455.499908
 20
328.999847
 11
455.499908
 21
330.249847
  0
LINE
  8
0
 10
125.499908
 20
328.999847
 11
125.499908
 21
330.249847
  0
LINE
  8
0
 10
126.749908
 20
331.499847
 11
133.249908
 21
331.499847
  0
LINE
  8
0
 10
134.499908
 20
328.999847
 11
134.499908
 21
330.249847
  0
LINE
  8
0
 10
235.499908
 20
328.999847
 11
235.499908
 21
330.249847
  0
LINE
  8
0
 10
236.749908
 20
331.499847
 11
243.249908
 21
331.499847
  0
LINE
  8
0
 10
244.499908
 20
328.999847
 11
244.499908
 21
330.249847
  0
LINE
  8
0
 10
345.499908
 20
328.999847
 11
345.499908
 21
330.249847
  0
LINE
  8
0
 10
346.749908
 20
331.499847
 11
353.249908
 21
331.499847
  0
LINE
  8
0
 10
354.499908
 20
328.999847
 11
354.499908
 21
330.249847
  0
LINE
  8
0
 10
630.999939
 20
138.999939
 11
658.999939
 21
138.999939
  0
LINE
  8
0
 10
658.999939
 20
161.999908
 11
658.999939
 21
138.999939
  0
LINE
  8
0
 10
630.999939
 20
161.999878
 11
630.999939
 21
138.999939
  0
LINE
  8
0
 10
653.999939
 20
165.999908
 11
653.999939
 21
138.999908
  0
LINE
  8
0
 10
663.999939
 20
149.499939
 11
665.249939
 21
149.499939
  0
LINE
  8
0
 10
663.999939
 20
158.499939
 11
665.249939
 21
158.499939
  0
LINE
  8
0
 10
666.499939
 20
157.249939
 11
666.499939
 21
150.749939
  0
LINE
  8
0
 10
635.999939
 20
165.999878
 11
635.999939
 21
138.999878
  0
LINE
  8
0
 10
630.999939
 20
161.999939
 11
658.999939
 21
161.999939
  0
LINE
  8
0
 10
631.999939
 20
132.999939
 11
657.999939
 21
132.999939
  0
LINE
  8
0
 10
663.999939
 20
148.226410
 11
658.999939
 21
148.226410
  0
LINE
  8
0
 10
663.999939
 20
151.113190
 11
658.999939
 21
151.113190
  0
LINE
  8
0
 10
663.999939
 20
156.886688
 11
658.999939
 21
156.886688
  0
LINE
  8
0
 10
663.999939
 20
159.773437
 11
658.999939
 21
159.773437
  0
LINE
  8
0
 10
635.999939
 20
165.999939
 11
653.999939
 21
165.999939
  0
LINE
  8
0
 10
624.999939
 20
148.999939
 11
630.999939
 21
148.999939
  0
LINE
  8
0
 10
663.999939
 20
159.773437
 11
663.999939
 21
148.226410
  0
LINE
  8
0
 10
624.999939
 20
158.999878
 11
624.999939
 21
148.999878
  0
LINE
  8
0
 10
624.999939
 20
158.999939
 11
630.999939
 21
158.999939
  0
LINE
  8
0
  6
CENTER
 10
644.999939
 20
170.999893
 11
644.999939
 21
64.999893
  0
LINE
  8
0
  6
CENTER
 10
619.999939
 20
153.999939
 11
671.999939
 21
153.999939
  0
LINE
  8
0
 10
-105.750000
 20
-305.114960
 11
82.250000
 21
-305.114960
  0
LINE
  8
0
 10
-111.750000
 20
-309.114960
 11
-16.750000
 21
-309.114960
  0
LINE
  8
0
 10
-114.250000
 20
-334.114960
 11
90.750000
 21
-334.114960
  0
LINE
  8
0
  6
CENTER
 10
-11.750000
 20
-300.114990
 11
-11.750000
 21
-419.114990
  0
LINE
  8
0
 10
-111.750000
 20
-309.114960
 11
-111.750000
 21
-334.114960
  0
LINE
  8
0
 10
-105.750000
 20
-305.114960
 11
-105.750000
 21
-309.114960
  0
LINE
  8
0
 10
82.250000
 20
-305.114990
 11
82.250000
 21
-309.114990
  0
LINE
  8
0
 10
88.250000
 20
-309.114990
 11
88.250000
 21
-334.114990
  0
LINE
  8
0
  6
CENTER
 10
-20.750000
 20
-315.114960
 11
-2.750000
 21
-315.114960
  0
LINE
  8
0
 10
-16.750000
 20
-309.114990
 11
-16.750000
 21
-318.114990
  0
LINE
  8
0
 10
-6.750000
 20
-309.114990
 11
-6.750000
 21
-318.114990
  0
LINE
  8
0
 10
-6.750000
 20
-309.114960
 11
88.250000
 21
-309.114960
  0
LINE
  8
0
  6
CENTER
 10
-59.250000
 20
-317.114960
 11
-44.250000
 21
-317.114960
  0
LINE
  8
0
  6
CENTER
 10
-51.750000
 20
-309.614990
 11
-51.750000
 21
-324.614990
  0
LINE
  8
0
  6
CENTER
 10
-91.750000
 20
-308.114960
 11
-91.750000
 21
-326.114960
  0
LINE
  8
0
  6
CENTER
 10
-100.750000
 20
-317.114960
 11
-82.750000
 21
-317.114960
  0
LINE
  8
0
 10
-94.249992
 20
-318.558502
 11
-91.749969
 21
-320.001892
  0
LINE
  8
0
 10
-91.749947
 20
-320.001862
 11
-89.249939
 21
-318.558472
  0
LINE
  8
0
 10
-89.249939
 20
-318.558380
 11
-89.249939
 21
-315.671600
  0
LINE
  8
0
 10
-89.249992
 20
-315.671661
 11
-91.750015
 21
-314.228271
  0
LINE
  8
0
 10
-91.749916
 20
-314.228363
 11
-94.249931
 21
-315.671753
  0
LINE
  8
0
 10
-94.249939
 20
-315.671600
 11
-94.249939
 21
-318.558380
  0
LINE
  8
0
  6
CENTER
 10
35.750000
 20
-317.114960
 11
20.750000
 21
-317.114960
  0
LINE
  8
0
  6
CENTER
 10
28.250000
 20
-309.614990
 11
28.250000
 21
-324.614990
  0
LINE
  8
0
  6
CENTER
 10
68.250000
 20
-308.114990
 11
68.250000
 21
-326.114990
  0
LINE
  8
0
  6
CENTER
 10
77.250000
 20
-317.114960
 11
59.250000
 21
-317.114960
  0
LINE
  8
0
 10
70.749992
 20
-318.558258
 11
68.249901
 21
-320.001648
  0
LINE
  8
0
 10
68.250076
 20
-320.001740
 11
65.750015
 21
-318.558350
  0
LINE
  8
0
 10
65.749939
 20
-318.558411
 11
65.749939
 21
-315.671631
  0
LINE
  8
0
 10
65.749901
 20
-315.671539
 11
68.249985
 21
-314.228149
  0
LINE
  8
0
 10
68.250160
 20
-314.228119
 11
70.750175
 21
-315.671509
  0
LINE
  8
0
 10
70.749939
 20
-315.671631
 11
70.749939
 21
-318.558411
  0
LINE
  8
0
 10
-345.750000
 20
-305.114960
 11
-157.750000
 21
-305.114960
  0
LINE
  8
0
 10
-351.750000
 20
-309.114960
 11
-256.750000
 21
-309.114960
  0
LINE
  8
0
 10
-354.250000
 20
-334.114960
 11
-149.250000
 21
-334.114960
  0
LINE
  8
0
  6
CENTER
 10
-251.750000
 20
-300.114960
 11
-251.750000
 21
-419.114960
  0
LINE
  8
0
 10
-351.750000
 20
-309.114960
 11
-351.750000
 21
-334.114960
  0
LINE
  8
0
 10
-345.750000
 20
-305.114960
 11
-345.750000
 21
-309.114960
  0
LINE
  8
0
 10
-157.750000
 20
-305.114960
 11
-157.750000
 21
-309.114960
  0
LINE
  8
0
 10
-151.750000
 20
-309.114960
 11
-151.750000
 21
-334.114960
  0
LINE
  8
0
  6
CENTER
 10
-260.750000
 20
-315.114960
 11
-242.750000
 21
-315.114960
  0
LINE
  8
0
 10
-256.750000
 20
-309.114960
 11
-256.750000
 21
-318.114960
  0
LINE
  8
0
 10
-246.750000
 20
-309.114960
 11
-246.750000
 21
-318.114960
  0
LINE
  8
0
 10
-246.750000
 20
-309.114960
 11
-151.750000
 21
-309.114960
  0
LINE
  8
0
  6
CENTER
 10
-299.250000
 20
-317.114960
 11
-284.250000
 21
-317.114960
  0
LINE
  8
0
  6
CENTER
 10
-291.750000
 20
-309.614960
 11
-291.750000
 21
-324.614960
  0
LINE
  8
0
  6
CENTER
 10
-331.750000
 20
-308.114960
 11
-331.750000
 21
-326.114960
  0
LINE
  8
0
  6
CENTER
 10
-340.750000
 20
-317.114960
 11
-322.750000
 21
-317.114960
  0
LINE
  8
0
 10
-334.250122
 20
-318.558472
 11
-331.750092
 21
-320.001862
  0
LINE
  8
0
 10
-331.750000
 20
-320.001740
 11
-329.249969
 21
-318.558350
  0
LINE
  8
0
 10
-329.249939
 20
-318.558380
 11
-329.249939
 21
-315.671600
  0
LINE
  8
0
 10
-329.250061
 20
-315.671692
 11
-331.750092
 21
-314.228302
  0
LINE
  8
0
 10
-331.749939
 20
-314.228180
 11
-334.249969
 21
-315.671570
  0
LINE
  8
0
 10
-334.249939
 20
-315.671600
 11
-334.249939
 21
-318.558380
  0
LINE
  8
0
  6
CENTER
 10
-204.250000
 20
-317.114960
 11
-219.250000
 21
-317.114960
  0
LINE
  8
0
  6
CENTER
 10
-211.750000
 20
-309.614960
 11
-211.750000
 21
-324.614960
  0
LINE
  8
0
  6
CENTER
 10
-171.750000
 20
-308.114960
 11
-171.750000
 21
-326.114960
  0
LINE
  8
0
  6
CENTER
 10
-162.750000
 20
-317.114960
 11
-180.750000
 21
-317.114960
  0
LINE
  8
0
 10
-169.250015
 20
-318.558228
 11
-171.750076
 21
-320.001617
  0
LINE
  8
0
 10
-171.749863
 20
-320.001648
 11
-174.249924
 21
-318.558258
  0
LINE
  8
0
 10
-174.250061
 20
-318.558380
 11
-174.250061
 21
-315.671600
  0
LINE
  8
0
 10
-174.250061
 20
-315.671631
 11
-171.749969
 21
-314.228210
  0
LINE
  8
0
 10
-171.749847
 20
-314.227966
 11
-169.249832
 21
-315.671387
  0
LINE
  8
0
 10
-169.250061
 20
-315.671600
 11
-169.250061
 21
-318.558380
  0
LINE
  8
0
 10
-354.250000
 20
-339.114960
 11
-149.250000
 21
-339.114960
  0
LINE
  8
0
 10
-114.250000
 20
-339.114960
 11
90.750000
 21
-339.114960
  0
LINE
  8
0
 10
-246.750000
 20
-125.115005
 11
-246.750000
 21
-130.114990
  0
LINE
  8
0
 10
-256.750000
 20
-125.115005
 11
-256.750000
 21
-130.114990
  0
LINE
  8
0
 10
88.250000
 20
-125.115005
 11
88.250000
 21
-153.115005
  0
LINE
  8
0
 10
-111.750000
 20
-125.115005
 11
-111.750000
 21
-153.115005
  0
LINE
  8
0
 10
-111.750000
 20
-125.115005
 11
88.250000
 21
-125.115005
  0
LINE
  8
0
 10
-111.750000
 20
-130.114990
 11
88.250000
 21
-130.114990
  0
LINE
  8
0
 10
-111.750000
 20
-148.115005
 11
88.250000
 21
-148.115005
  0
LINE
  8
0
 10
-111.750000
 20
-153.115005
 11
88.250000
 21
-153.115005
  0
LINE
  8
0
 10
-105.750000
 20
-130.114990
 11
-105.750000
 21
-148.115005
  0
LINE
  8
0
 10
82.250000
 20
-130.114990
 11
82.250000
 21
-148.115005
  0
LINE
  8
0
 10
-256.750000
 20
-148.115005
 11
-256.750000
 21
-153.115005
  0
LINE
  8
0
 10
-86.750000
 20
-153.115005
 11
-86.750000
 21
-159.115005
  0
LINE
  8
0
 10
-96.750000
 20
-153.115005
 11
-96.750000
 21
-159.115005
  0
LINE
  8
0
 10
-96.750000
 20
-159.115005
 11
-86.750000
 21
-159.115005
  0
LINE
  8
0
 10
-96.750000
 20
-120.115036
 11
-86.750000
 21
-120.115036
  0
LINE
  8
0
 10
-91.750000
 20
-120.115036
 11
-91.750000
 21
-125.115005
  0
LINE
  8
0
 10
-96.750000
 20
-120.115036
 11
-96.750000
 21
-125.115005
  0
LINE
  8
0
 10
-86.750000
 20
-120.115036
 11
-86.750000
 21
-125.115005
  0
LINE
  8
0
 10
-116.750000
 20
-128.114990
 11
-116.750000
 21
-150.114990
  0
LINE
  8
0
 10
93.250000
 20
-128.114990
 11
93.250000
 21
-150.114990
  0
LINE
  8
0
 10
-111.750000
 20
-155.114990
 11
-96.750000
 21
-155.114990
  0
LINE
  8
0
 10
-111.750000
 20
-123.114990
 11
-96.750000
 21
-123.114990
  0
LINE
  8
0
 10
-86.750000
 20
-155.114990
 11
63.250000
 21
-155.114990
  0
LINE
  8
0
 10
-86.750000
 20
-123.114990
 11
63.250000
 21
-123.114990
  0
LINE
  8
0
 10
63.250000
 20
-153.115005
 11
63.250000
 21
-159.115005
  0
LINE
  8
0
 10
73.250000
 20
-153.115005
 11
73.250000
 21
-159.115005
  0
LINE
  8
0
 10
73.250000
 20
-159.115005
 11
63.250000
 21
-159.115005
  0
LINE
  8
0
 10
73.250000
 20
-120.115036
 11
63.250000
 21
-120.115036
  0
LINE
  8
0
 10
68.250000
 20
-120.115036
 11
68.250000
 21
-125.115005
  0
LINE
  8
0
 10
73.250000
 20
-120.115036
 11
73.250000
 21
-125.115005
  0
LINE
  8
0
 10
63.250000
 20
-120.115036
 11
63.250000
 21
-125.115005
  0
LINE
  8
0
 10
-6.750000
 20
-125.115005
 11
-6.750000
 21
-130.114990
  0
LINE
  8
0
 10
-16.750000
 20
-125.115005
 11
-16.750000
 21
-130.114990
  0
LINE
  8
0
 10
-16.750000
 20
-148.115005
 11
-16.750000
 21
-153.115005
  0
LINE
  8
0
 10
-6.750000
 20
-148.115005
 11
-6.750000
 21
-153.115005
  0
LINE
  8
0
 10
-151.750000
 20
-125.115005
 11
-151.750000
 21
-153.115005
  0
LINE
  8
0
 10
-351.750000
 20
-125.115005
 11
-351.750000
 21
-153.115005
  0
LINE
  8
0
 10
-351.750000
 20
-125.115005
 11
-151.750000
 21
-125.115005
  0
LINE
  8
0
 10
-351.750000
 20
-130.114990
 11
-151.750000
 21
-130.114990
  0
LINE
  8
0
 10
-351.750000
 20
-148.115005
 11
-151.750000
 21
-148.115005
  0
LINE
  8
0
 10
-351.750000
 20
-153.115005
 11
-151.750000
 21
-153.115005
  0
LINE
  8
0
 10
-345.750000
 20
-130.114990
 11
-345.750000
 21
-148.115005
  0
LINE
  8
0
 10
-157.750000
 20
-130.114990
 11
-157.750000
 21
-148.115005
  0
LINE
  8
0
 10
-326.750000
 20
-153.115005
 11
-326.750000
 21
-159.115005
  0
LINE
  8
0
 10
-336.750000
 20
-153.115005
 11
-336.750000
 21
-159.115005
  0
LINE
  8
0
 10
-336.750000
 20
-159.115005
 11
-326.750000
 21
-159.115005
  0
LINE
  8
0
 10
-336.750000
 20
-120.115036
 11
-326.750000
 21
-120.115036
  0
LINE
  8
0
 10
-331.750000
 20
-120.115036
 11
-331.750000
 21
-125.115005
  0
LINE
  8
0
 10
-336.750000
 20
-120.115036
 11
-336.750000
 21
-125.115005
  0
LINE
  8
0
 10
-326.750000
 20
-120.115036
 11
-326.750000
 21
-125.115005
  0
LINE
  8
0
 10
-356.750000
 20
-128.114990
 11
-356.750000
 21
-150.114990
  0
LINE
  8
0
 10
-146.750000
 20
-128.114990
 11
-146.750000
 21
-150.114990
  0
LINE
  8
0
 10
-351.750000
 20
-155.114990
 11
-336.750000
 21
-155.114990
  0
LINE
  8
0
 10
-351.750000
 20
-123.114990
 11
-336.750000
 21
-123.114990
  0
LINE
  8
0
 10
-326.750000
 20
-155.114990
 11
-176.750000
 21
-155.114990
  0
LINE
  8
0
 10
-326.750000
 20
-123.114990
 11
-176.750000
 21
-123.114990
  0
LINE
  8
0
 10
-246.750000
 20
-148.115005
 11
-246.750000
 21
-153.115005
  0
LINE
  8
0
 10
-176.750000
 20
-153.115005
 11
-176.750000
 21
-159.115005
  0
LINE
  8
0
 10
-166.750000
 20
-153.115005
 11
-166.750000
 21
-159.115005
  0
LINE
  8
0
 10
-166.750000
 20
-159.115005
 11
-176.750000
 21
-159.115005
  0
LINE
  8
0
 10
-166.750000
 20
-120.115036
 11
-176.750000
 21
-120.115036
  0
LINE
  8
0
 10
-171.750000
 20
-120.115036
 11
-171.750000
 21
-125.115005
  0
LINE
  8
0
 10
-166.750000
 20
-120.115036
 11
-166.750000
 21
-125.115005
  0
LINE
  8
0
 10
-176.750000
 20
-120.115036
 11
-176.750000
 21
-125.115005
  0
LINE
  8
0
  6
CENTER
 10
-331.750000
 20
-112.115036
 11
-331.750000
 21
-164.115005
  0
LINE
  8
0
  6
CENTER
 10
-311.750000
 20
-133.114990
 11
-311.750000
 21
-145.114990
  0
LINE
  8
0
  6
CENTER
 10
-291.750000
 20
-118.114990
 11
-291.750000
 21
-160.114990
  0
LINE
  8
0
  6
CENTER
 10
-251.750000
 20
-99.114990
 11
-251.750000
 21
-179.114990
  0
LINE
  8
0
  6
CENTER
 10
-211.750000
 20
-118.114990
 11
-211.750000
 21
-160.114990
  0
LINE
  8
0
  6
CENTER
 10
-191.750000
 20
-133.114990
 11
-191.750000
 21
-145.114990
  0
LINE
  8
0
  6
CENTER
 10
-171.750000
 20
-112.115036
 11
-171.750000
 21
-164.115005
  0
LINE
  8
0
  6
CENTER
 10
-91.750000
 20
-112.115036
 11
-91.750000
 21
-164.115005
  0
LINE
  8
0
  6
CENTER
 10
-71.750000
 20
-133.114990
 11
-71.750000
 21
-145.114990
  0
LINE
  8
0
  6
CENTER
 10
-51.750000
 20
-118.114990
 11
-51.750000
 21
-160.114990
  0
LINE
  8
0
  6
CENTER
 10
-11.750000
 20
-99.114990
 11
-11.750000
 21
-179.114990
  0
LINE
  8
0
  6
CENTER
 10
28.250000
 20
-118.114990
 11
28.250000
 21
-160.114990
  0
LINE
  8
0
  6
CENTER
 10
48.250000
 20
-133.114990
 11
48.250000
 21
-145.114990
  0
LINE
  8
0
  6
CENTER
 10
68.250000
 20
-112.115036
 11
68.250000
 21
-164.115005
  0
LINE
  8
0
 10
-166.750000
 20
-123.114990
 11
-151.750000
 21
-123.114990
  0
LINE
  8
0
 10
-166.750000
 20
-155.114990
 11
-151.750000
 21
-155.114990
  0
LINE
  8
0
 10
73.250000
 20
-123.114990
 11
88.250000
 21
-123.114990
  0
LINE
  8
0
 10
73.250000
 20
-155.114990
 11
88.250000
 21
-155.114990
  0
LINE
  8
0
 10
65.000000
 20
-117.615036
 11
71.500000
 21
-117.615036
  0
LINE
  8
0
 10
63.750000
 20
-118.865036
 11
63.750000
 21
-120.115036
  0
LINE
  8
0
 10
72.750000
 20
-118.865036
 11
72.750000
 21
-120.115036
  0
LINE
  8
0
 10
-336.250000
 20
-118.865036
 11
-336.250000
 21
-120.115036
  0
LINE
  8
0
 10
-335.000000
 20
-117.615036
 11
-328.500000
 21
-117.615036
  0
LINE
  8
0
 10
-327.250000
 20
-118.865036
 11
-327.250000
 21
-120.115036
  0
LINE
  8
0
 10
-176.250000
 20
-118.865036
 11
-176.250000
 21
-120.115036
  0
LINE
  8
0
 10
-175.000000
 20
-117.615036
 11
-168.500000
 21
-117.615036
  0
LINE
  8
0
 10
-167.250000
 20
-118.865036
 11
-167.250000
 21
-120.115036
  0
LINE
  8
0
 10
-96.250000
 20
-118.865036
 11
-96.250000
 21
-120.115036
  0
LINE
  8
0
 10
-95.000000
 20
-117.615036
 11
-88.500000
 21
-117.615036
  0
LINE
  8
0
 10
-87.250000
 20
-118.865036
 11
-87.250000
 21
-120.115036
  0
LINE
  8
0
  6
CENTER
 10
318.249908
 20
-300.114960
 11
318.249908
 21
-419.114960
  0
LINE
  8
0
 10
309.250061
 20
-305.114960
 11
327.250061
 21
-305.114960
  0
LINE
  8
0
 10
304.250031
 20
-309.114960
 11
332.250031
 21
-309.114960
  0
LINE
  8
0
  6
CENTER
 10
293.250031
 20
-317.114960
 11
345.250031
 21
-317.114960
  0
LINE
  8
0
 10
309.249908
 20
-305.114929
 11
309.249908
 21
-334.114929
  0
LINE
  8
0
 10
327.249908
 20
-305.114990
 11
327.249908
 21
-334.114990
  0
LINE
  8
0
 10
332.249908
 20
-309.114990
 11
332.249908
 21
-334.114960
  0
LINE
  8
0
 10
304.249908
 20
-309.114929
 11
304.249908
 21
-334.114960
  0
LINE
  8
0
 10
304.249908
 20
-334.114960
 11
332.249908
 21
-334.114960
  0
LINE
  8
0
 10
298.249908
 20
-312.114929
 11
298.249908
 21
-322.114929
  0
LINE
  8
0
 10
298.250031
 20
-322.114960
 11
304.250031
 21
-322.114960
  0
LINE
  8
0
 10
298.250031
 20
-312.114960
 11
304.250031
 21
-312.114960
  0
LINE
  8
0
 10
337.249908
 20
-311.341492
 11
337.249908
 21
-322.888519
  0
LINE
  8
0
 10
337.250031
 20
-311.341461
 11
332.250031
 21
-311.341461
  0
LINE
  8
0
 10
337.250031
 20
-314.228210
 11
332.250031
 21
-314.228210
  0
LINE
  8
0
 10
337.250031
 20
-320.001709
 11
332.250031
 21
-320.001709
  0
LINE
  8
0
 10
337.250000
 20
-322.888489
 11
332.250000
 21
-322.888489
  0
LINE
  8
0
 10
337.250031
 20
-317.114960
 11
332.250031
 21
-317.114960
  0
LINE
  8
0
 10
304.749908
 20
-339.114960
 11
331.749908
 21
-339.114960
  0
LINE
  8
0
 10
337.249908
 20
-321.614960
 11
338.499908
 21
-321.614960
  0
LINE
  8
0
 10
337.249908
 20
-312.614960
 11
338.499908
 21
-312.614960
  0
LINE
  8
0
 10
339.749908
 20
-313.864960
 11
339.749908
 21
-320.364960
  0
ARC
  8
0
 62
     5
 10
655.008484
 20
-465.668823
 40
6.635708
 50
291.688293
 51
0.000000
  0
ARC
  8
0
 62
     5
 10
652.796448
 20
-464.168060
 40
2.211920
 50
291.688660
 51
0.000000
  0
ARC
  8
0
 62
     5
 10
546.072388
 20
-470.092651
 40
4.423828
 50
0.000000
 51
90.000000
  0
ARC
  8
0
 62
     5
 10
582.568787
 20
-493.870697
 40
4.423798
 50
270.000000
 51
0.000000
  0
ARC
  8
0
 62
     5
 10
580.356750
 20
-472.304474
 40
6.635681
 50
0.000000
 51
90.000000
  0
ARC
  8
0
 62
     5
 10
620.723999
 20
-470.092651
 40
4.423828
 50
0.000000
 51
90.000000
  0
ARC
  8
0
 62
     5
 10
620.723999
 20
-473.626892
 40
4.423808
 50
294.999786
 51
0.000000
  0
ARC
  8
0
  6
PHANTOM
 10
-451.250000
 20
281.499939
 40
2.500000
 50
180.000000
 51
270.000000
  0
ARC
  8
0
  6
PHANTOM
 10
-451.250000
 20
298.499939
 40
2.500000
 50
90.000000
 51
180.000000
  0
ARC
  8
0
  6
PHANTOM
 10
-282.250000
 20
298.499939
 40
2.500000
 50
0.000000
 51
90.000000
  0
ARC
  8
0
  6
PHANTOM
 10
-282.250000
 20
281.499939
 40
2.500000
 50
270.000000
 51
0.000000
  0
ARC
  8
0
  6
PHANTOM
 10
-631.250000
 20
281.499939
 40
2.500000
 50
180.000000
 51
270.000000
  0
ARC
  8
0
  6
PHANTOM
 10
-631.250000
 20
298.499939
 40
2.500000
 50
90.000000
 51
180.000000
  0
ARC
  8
0
  6
PHANTOM
 10
-462.250000
 20
298.499939
 40
2.500000
 50
0.000000
 51
90.000000
  0
ARC
  8
0
  6
PHANTOM
 10
-462.250000
 20
281.499939
 40
2.500000
 50
270.000000
 51
0.000000
  0
ARC
  8
0
  6
PHANTOM
 10
-614.254517
 20
301.999939
 40
30.000015
 50
156.421890
 51
203.578110
  0
ARC
  8
0
  6
PHANTOM
 10
-244.254547
 20
301.999939
 40
29.999998
 50
156.421814
 51
203.578125
  0
ARC
  8
0
  6
PHANTOM
 10
-299.245453
 20
277.999939
 40
29.999998
 50
336.421814
 51
23.578180
  0
ARC
  8
0
  6
PHANTOM
 10
-669.245483
 20
277.999939
 40
30.000027
 50
336.421844
 51
23.578156
  0
ARC
  8
0
  6
PHANTOM
 10
-614.041687
 20
96.499939
 40
30.000002
 50
155.375717
 51
202.540268
  0
ARC
  8
0
  6
PHANTOM
 10
-667.730774
 20
69.999939
 40
30.000006
 50
330.000031
 51
29.999975
  0
ARC
  8
0
  6
PHANTOM
 10
-244.041687
 20
96.499939
 40
30.000002
 50
155.375717
 51
202.540268
  0
ARC
  8
0
  6
PHANTOM
 10
-297.730774
 20
69.999939
 40
30.000006
 50
330.000031
 51
29.999975
  0
ARC
  8
0
  6
PHANTOM
 10
107.469994
 20
118.999924
 40
40.000000
 50
159.512680
 51
200.487259
  0
ARC
  8
0
  6
PHANTOM
 10
557.469971
 20
118.999924
 40
39.999985
 50
159.512680
 51
200.487244
  0
ARC
  8
0
  6
PHANTOM
 10
484.031281
 20
87.499924
 40
39.999992
 50
334.055481
 51
25.944510
  0
ARC
  8
0
  6
PHANTOM
 10
34.031281
 20
87.499924
 40
40.000000
 50
334.055481
 51
25.944506
  0
ARC
  8
0
  6
PHANTOM
 10
302.000000
 20
318.999939
 40
2.000000
 50
90.000000
 51
180.000000
  0
ARC
  8
0
  6
PHANTOM
 10
302.000000
 20
300.999939
 40
2.000000
 50
180.000000
 51
270.000000
  0
ARC
  8
0
  6
PHANTOM
 10
508.000000
 20
300.999939
 40
2.000000
 50
270.000000
 51
0.000000
  0
ARC
  8
0
  6
PHANTOM
 10
508.000000
 20
318.999939
 40
2.000000
 50
0.000000
 51
90.000000
  0
ARC
  8
0
  6
PHANTOM
 10
288.000000
 20
300.999939
 40
2.000000
 50
270.000000
 51
0.000000
  0
ARC
  8
0
  6
PHANTOM
 10
288.000000
 20
318.999939
 40
2.000000
 50
0.000000
 51
90.000000
  0
ARC
  8
0
  6
PHANTOM
 10
82.000000
 20
318.999939
 40
2.000000
 50
90.000000
 51
180.000000
  0
ARC
  8
0
  6
PHANTOM
 10
82.000000
 20
300.999939
 40
2.000000
 50
180.000000
 51
270.000000
  0
ARC
  8
0
  6
PHANTOM
 10
107.279350
 20
324.499939
 40
40.000008
 50
158.746201
 51
201.253769
  0
ARC
  8
0
  6
PHANTOM
 10
557.279297
 20
324.499939
 40
39.999996
 50
158.746231
 51
201.253769
  0
ARC
  8
0
  6
PHANTOM
 10
482.720642
 20
295.499939
 40
40.000008
 50
338.746185
 51
21.253805
  0
ARC
  8
0
  6
PHANTOM
 10
32.720642
 20
295.499939
 40
40.000000
 50
338.746185
 51
21.253809
  0
CIRCLE
  8
0
 10
314.999908
 20
619.999756
 40
3.000000
  0
CIRCLE
  8
0
 10
314.999908
 20
619.999756
 40
2.458500
  0
CIRCLE
  8
0
 10
224.999908
 20
619.999756
 40
2.458500
  0
CIRCLE
  8
0
 10
224.999908
 20
619.999756
 40
3.000000
  0
ARC
  8
0
 10
174.999908
 20
630.999756
 40
5.000000
 50
90.000000
 51
180.000000
  0
ARC
  8
0
 10
174.999908
 20
608.999756
 40
5.000000
 50
180.000000
 51
270.000000
  0
ARC
  8
0
 10
364.999908
 20
608.999756
 40
5.000000
 50
270.000000
 51
0.000000
  0
ARC
  8
0
 10
364.999908
 20
630.999756
 40
5.000000
 50
0.000000
 51
90.000000
  0
ARC
  8
0
 10
326.999908
 20
639.999756
 40
2.000000
 50
0.000000
 51
90.000000
  0
ARC
  8
0
 10
216.999908
 20
639.999756
 40
2.000000
 50
0.000000
 51
90.000000
  0
ARC
  8
0
 10
212.999908
 20
639.999756
 40
2.000000
 50
90.000000
 51
180.000000
  0
ARC
  8
0
 10
322.999908
 20
639.999756
 40
2.000000
 50
90.000000
 51
180.000000
  0
CIRCLE
  8
0
 10
534.999878
 20
619.999756
 40
3.000000
  0
CIRCLE
  8
0
 10
534.999878
 20
619.999756
 40
2.458500
  0
CIRCLE
  8
0
 10
444.999908
 20
619.999756
 40
2.458500
  0
CIRCLE
  8
0
 10
444.999908
 20
619.999756
 40
3.000000
  0
ARC
  8
0
 10
394.999908
 20
630.999756
 40
5.000000
 50
90.000000
 51
180.000000
  0
ARC
  8
0
 10
394.999908
 20
608.999756
 40
5.000000
 50
180.000000
 51
270.000000
  0
ARC
  8
0
 10
584.999878
 20
608.999756
 40
5.000000
 50
270.000000
 51
0.000000
  0
ARC
  8
0
 10
584.999878
 20
630.999756
 40
5.000000
 50
0.000000
 51
90.000000
  0
ARC
  8
0
 10
546.999878
 20
639.999756
 40
2.000000
 50
0.000000
 51
90.000000
  0
ARC
  8
0
 10
436.999908
 20
639.999756
 40
2.000000
 50
0.000000
 51
90.000000
  0
ARC
  8
0
 10
432.999908
 20
639.999756
 40
2.000000
 50
90.000000
 51
180.000000
  0
ARC
  8
0
 10
542.999878
 20
639.999756
 40
2.000000
 50
90.000000
 51
180.000000
  0
CIRCLE
  8
0
 10
366.261108
 20
631.685547
 40
3.000000
  0
CIRCLE
  8
0
 10
366.261108
 20
631.685547
 40
2.458500
  0
CIRCLE
  8
0
 10
276.261108
 20
631.685547
 40
2.458500
  0
CIRCLE
  8
0
 10
276.261108
 20
631.685547
 40
3.000000
  0
ARC
  8
0
 10
226.261108
 20
642.685547
 40
5.000000
 50
90.000000
 51
180.000000
  0
ARC
  8
0
 10
226.261108
 20
620.685547
 40
5.000000
 50
180.000000
 51
270.000000
  0
ARC
  8
0
 10
416.261108
 20
620.685547
 40
5.000000
 50
270.000000
 51
0.000000
  0
ARC
  8
0
 10
416.261108
 20
642.685547
 40
5.000000
 50
0.000000
 51
90.000000
  0
ARC
  8
0
 10
378.261108
 20
651.685547
 40
2.000000
 50
0.000000
 51
90.000000
  0
ARC
  8
0
 10
268.261108
 20
651.685547
 40
2.000000
 50
0.000000
 51
90.000000
  0
ARC
  8
0
 10
264.261108
 20
651.685547
 40
2.000000
 50
90.000000
 51
180.000000
  0
ARC
  8
0
 10
374.261108
 20
651.685547
 40
2.000000
 50
90.000000
 51
180.000000
  0
CIRCLE
  8
0
 10
586.261108
 20
631.685547
 40
3.000000
  0
CIRCLE
  8
0
 10
586.261108
 20
631.685547
 40
2.458500
  0
CIRCLE
  8
0
 10
496.261108
 20
631.685547
 40
2.458500
  0
CIRCLE
  8
0
 10
496.261108
 20
631.685547
 40
3.000000
  0
ARC
  8
0
 10
446.261108
 20
642.685547
 40
5.000000
 50
90.000000
 51
180.000000
  0
ARC
  8
0
 10
446.261108
 20
620.685547
 40
5.000000
 50
180.000000
 51
270.000000
  0
ARC
  8
0
 10
636.261108
 20
620.685547
 40
5.000000
 50
270.000000
 51
0.000000
  0
ARC
  8
0
 10
636.261108
 20
642.685547
 40
5.000000
 50
0.000000
 51
90.000000
  0
ARC
  8
0
 10
598.261108
 20
651.685547
 40
2.000000
 50
0.000000
 51
90.000000
  0
ARC
  8
0
 10
488.261108
 20
651.685547
 40
2.000000
 50
0.000000
 51
90.000000
  0
ARC
  8
0
 10
484.261108
 20
651.685547
 40
2.000000
 50
90.000000
 51
180.000000
  0
ARC
  8
0
 10
594.261108
 20
651.685547
 40
2.000000
 50
90.000000
 51
180.000000
  0
ARC
  8
0
  6
PHANTOM
 10
155.087463
 20
-356.614960
 40
49.999992
 50
159.512680
 51
200.487320
  0
ARC
  8
0
  6
PHANTOM
 10
-324.912537
 20
-356.614960
 40
50.000008
 50
159.512695
 51
200.487305
  0
ARC
  8
0
  6
PHANTOM
 10
62.403870
 20
-394.161652
 40
49.999996
 50
336.480225
 51
23.636534
  0
ARC
  8
0
  6
PHANTOM
 10
-417.575745
 20
-394.114960
 40
50.000004
 50
336.421875
 51
23.578138
  0
ARC
  8
0
  6
PHANTOM
 10
-119.750000
 20
-147.114990
 40
2.000000
 50
180.000000
 51
270.000000
  0
ARC
  8
0
  6
PHANTOM
 10
96.250000
 20
-147.114990
 40
2.000000
 50
270.000000
 51
0.000000
  0
ARC
  8
0
  6
PHANTOM
 10
-119.750000
 20
-131.114990
 40
2.000000
 50
90.000000
 51
180.000000
  0
ARC
  8
0
  6
PHANTOM
 10
96.250000
 20
-131.114990
 40
2.000000
 50
0.000000
 51
90.000000
  0
ARC
  8
0
  6
PHANTOM
 10
-359.750000
 20
-147.114990
 40
2.000000
 50
180.000000
 51
270.000000
  0
ARC
  8
0
  6
PHANTOM
 10
-143.750000
 20
-147.114990
 40
2.000000
 50
270.000000
 51
0.000000
  0
ARC
  8
0
  6
PHANTOM
 10
-359.750000
 20
-131.114990
 40
2.000000
 50
90.000000
 51
180.000000
  0
ARC
  8
0
  6
PHANTOM
 10
-143.750000
 20
-131.114990
 40
2.000000
 50
0.000000
 51
90.000000
  0
ARC
  8
0
  6
PHANTOM
 10
155.087463
 20
-121.614990
 40
50.000004
 50
159.512711
 51
200.487274
  0
ARC
  8
0
  6
PHANTOM
 10
-324.912506
 20
-121.614990
 40
50.000004
 50
159.512711
 51
200.487274
  0
ARC
  8
0
  6
PHANTOM
 10
61.412506
 20
-156.614990
 40
50.000000
 50
339.512695
 51
20.487314
  0
ARC
  8
0
  6
PHANTOM
 10
-418.587494
 20
-156.614990
 40
50.000008
 50
339.512695
 51
20.487312
  0
ARC
  8
0
  6
PHANTOM
 10
291.249908
 20
-347.114960
 40
8.000000
 50
90.000000
 51
180.000000
  0
ARC
  8
0
  6
PHANTOM
 10
345.249908
 20
-347.114960
 40
8.000000
 50
0.000000
 51
90.000000
  0
ARC
  8
0
  6
PHANTOM
 10
345.249908
 20
-401.114960
 40
8.000000
 50
270.000000
 51
0.000000
  0
ARC
  8
0
  6
PHANTOM
 10
291.249908
 20
-401.114960
 40
8.000000
 50
180.000000
 51
270.000000
  0
ARC
  8
0
  6
PHANTOM
 10
-91.749939
 20
104.999893
 40
4.000000
 50
0.000000
 51
90.000000
  0
ARC
  8
0
  6
PHANTOM
 10
-91.749939
 20
64.999893
 40
4.000000
 50
270.000000
 51
0.000000
  0
ARC
  8
0
  6
PHANTOM
 10
-131.749939
 20
64.999893
 40
4.000000
 50
180.000000
 51
270.000000
  0
ARC
  8
0
  6
PHANTOM
 10
-131.749939
 20
104.999893
 40
4.000000
 50
90.000000
 51
180.000000
  0
ARC
  8
0
  6
PHANTOM
 10
624.000000
 20
124.999908
 40
8.000000
 50
90.000000
 51
179.999939
  0
ARC
  8
0
  6
PHANTOM
 10
666.000000
 20
124.999908
 40
8.000000
 50
0.000000
 51
90.000000
  0
ARC
  8
0
  6
PHANTOM
 10
666.000000
 20
83.999908
 40
8.000000
 50
270.000000
 51
0.000000
  0
ARC
  8
0
  6
PHANTOM
 10
624.000000
 20
83.999908
 40
8.000000
 50
180.000000
 51
270.000000
  0
CIRCLE
  8
0
 10
-576.750000
 20
130.999939
 40
3.500000
  0
CIRCLE
  8
0
 10
-606.750000
 20
130.999939
 40
5.000000
  0
ARC
  8
0
 10
-366.750000
 20
129.999939
 40
4.500000
 50
180.000000
 51
0.000000
  0
CIRCLE
  8
0
 10
-516.750000
 20
130.999939
 40
3.500000
  0
CIRCLE
  8
0
 10
-486.750000
 20
130.999939
 40
5.000000
  0
CIRCLE
  8
0
 10
-336.750000
 20
130.999939
 40
3.500000
  0
CIRCLE
  8
0
 10
-306.750000
 20
130.999939
 40
5.000000
  0
CIRCLE
  8
0
 10
-396.750000
 20
130.999939
 40
3.500000
  0
CIRCLE
  8
0
 10
-426.750000
 20
130.999939
 40
5.000000
  0
ARC
  8
0
 10
-366.750000
 20
133.499939
 40
6.000000
 50
41.409630
 51
138.590378
  0
ARC
  8
0
 10
-366.750000
 20
133.499939
 40
8.000003
 50
43.432518
 51
136.567474
  0
ARC
  8
0
 10
-366.750000
 20
133.499939
 40
6.000001
 50
221.810303
 51
318.189697
  0
ARC
  8
0
 10
-546.750000
 20
133.499939
 40
7.999980
 50
43.432667
 51
136.567337
  0
ARC
  8
0
 10
-546.750000
 20
133.499939
 40
6.000000
 50
41.409630
 51
138.590378
  0
ARC
  8
0
 10
-546.750000
 20
133.499939
 40
5.999979
 50
221.810501
 51
318.189514
  0
ARC
  8
0
 10
-546.750000
 20
129.999939
 40
4.500000
 50
180.000000
 51
0.000000
  0
ARC
  8
0
 10
-628.750000
 20
111.499939
 40
2.500000
 50
90.000000
 51
270.000000
  0
ARC
  8
0
 10
-464.750000
 20
111.499939
 40
2.500000
 50
270.000000
 51
90.000000
  0
ARC
  8
0
 10
-448.750000
 20
111.499939
 40
2.500000
 50
90.000000
 51
270.000000
  0
ARC
  8
0
 10
-284.750000
 20
111.499947
 40
2.500000
 50
270.000000
 51
90.000000
  0
ARC
  8
0
 10
-468.250000
 20
278.999939
 40
6.000000
 50
270.000000
 51
0.000000
  0
ARC
  8
0
 10
-288.250000
 20
300.999908
 40
6.000000
 50
0.000000
 51
90.000000
  0
ARC
  8
0
 10
-468.250000
 20
300.999939
 40
6.000000
 50
0.000000
 51
90.000000
  0
ARC
  8
0
 10
-288.250000
 20
278.999908
 40
6.000000
 50
270.000000
 51
0.000000
  0
ARC
  8
0
 10
-625.250000
 20
300.999939
 40
6.000000
 50
90.000000
 51
180.000000
  0
CIRCLE
  8
0
 10
-591.750000
 20
289.999939
 40
2.458500
  0
CIRCLE
  8
0
 10
-501.750000
 20
289.999939
 40
2.458500
  0
CIRCLE
  8
0
 10
-501.750000
 20
289.999939
 40
3.000000
  0
CIRCLE
  8
0
 10
-591.750000
 20
289.999939
 40
3.000000
  0
ARC
  8
0
 10
-625.250000
 20
278.999939
 40
6.000000
 50
180.000000
 51
270.000000
  0
ARC
  8
0
 10
-445.250000
 20
300.999939
 40
6.000000
 50
90.000000
 51
180.000000
  0
ARC
  8
0
 10
-445.250000
 20
278.999939
 40
6.000000
 50
180.000000
 51
270.000000
  0
CIRCLE
  8
0
 10
-321.750000
 20
289.999908
 40
3.000000
  0
CIRCLE
  8
0
 10
-321.750000
 20
289.999908
 40
2.458500
  0
CIRCLE
  8
0
 10
-411.750000
 20
289.999939
 40
2.458500
  0
CIRCLE
  8
0
 10
-411.750000
 20
289.999939
 40
3.000000
  0
ARC
  8
0
 10
-310.000000
 20
309.749908
 40
1.250000
 50
90.000000
 51
180.000000
  0
ARC
  8
0
 10
-303.500000
 20
309.749908
 40
1.250000
 50
0.000000
 51
90.000000
  0
ARC
  8
0
 10
-430.000000
 20
309.749939
 40
1.250000
 50
90.000000
 51
180.000000
  0
ARC
  8
0
 10
-423.500000
 20
309.749939
 40
1.250000
 50
0.000000
 51
90.000000
  0
ARC
  8
0
 10
-610.000000
 20
309.749939
 40
1.250000
 50
90.000000
 51
180.000000
  0
ARC
  8
0
 10
-603.500000
 20
309.749939
 40
1.250000
 50
0.000000
 51
90.000000
  0
ARC
  8
0
 10
-490.000000
 20
309.749939
 40
1.250000
 50
90.000000
 51
180.000000
  0
ARC
  8
0
 10
-483.500000
 20
309.749939
 40
1.250000
 50
0.000000
 51
90.000000
  0
ARC
  8
0
 10
-91.999985
 20
134.249908
 40
1.250000
 50
0.000000
 51
90.000000
  0
ARC
  8
0
 10
-91.999985
 20
127.749901
 40
1.250000
 50
270.000000
 51
0.000000
  0
ARC
  8
0
 10
-126.250031
 20
111.499908
 40
2.499977
 50
90.000000
 51
270.000000
  0
ARC
  8
0
 10
-97.249985
 20
111.499924
 40
2.499977
 50
270.000000
 51
90.000000
  0
ARC
  8
0
 10
502.000061
 20
135.999969
 40
3.000015
 50
270.000000
 51
90.000000
  0
ARC
  8
0
 10
88.000061
 20
135.999969
 40
3.000015
 50
90.000000
 51
270.000000
  0
ARC
  8
0
 10
308.000061
 20
135.999969
 40
3.000015
 50
90.000000
 51
270.000000
  0
ARC
  8
0
 10
282.000000
 20
135.999969
 40
3.000015
 50
270.000000
 51
90.000000
  0
CIRCLE
  8
0
 10
157.500031
 20
153.999985
 40
3.500000
  0
CIRCLE
  8
0
 10
130.000031
 20
153.999985
 40
5.000000
  0
ARC
  8
0
 10
405.000031
 20
155.999985
 40
5.999998
 50
218.682205
 51
321.317810
  0
ARC
  8
0
 10
405.000031
 20
155.999985
 40
5.999997
 50
33.557270
 51
146.442734
  0
ARC
  8
0
 10
405.000031
 20
153.999985
 40
5.000000
 50
180.000000
 51
0.000000
  0
CIRCLE
  8
0
 10
460.000031
 20
153.999985
 40
5.000000
  0
ARC
  8
0
 10
405.000031
 20
155.999985
 40
8.000001
 50
48.590370
 51
131.409622
  0
CIRCLE
  8
0
 10
377.500031
 20
153.999985
 40
3.500000
  0
CIRCLE
  8
0
 10
350.000031
 20
153.999985
 40
5.000000
  0
CIRCLE
  8
0
 10
432.500031
 20
153.999985
 40
3.500000
  0
CIRCLE
  8
0
 10
212.500031
 20
153.999985
 40
3.500000
  0
ARC
  8
0
 10
185.000031
 20
155.999985
 40
5.999998
 50
218.682205
 51
321.317810
  0
ARC
  8
0
 10
185.000031
 20
155.999985
 40
5.999997
 50
33.557270
 51
146.442734
  0
ARC
  8
0
 10
185.000031
 20
153.999985
 40
5.000000
 50
180.000000
 51
0.000000
  0
CIRCLE
  8
0
 10
240.000031
 20
153.999985
 40
5.000000
  0
ARC
  8
0
 10
185.000031
 20
155.999985
 40
8.000001
 50
48.590370
 51
131.409622
  0
CIRCLE
  8
0
 10
229.999908
 20
309.999847
 40
3.000000
  0
CIRCLE
  8
0
 10
229.999908
 20
309.999847
 40
2.458500
  0
CIRCLE
  8
0
 10
139.999908
 20
309.999847
 40
2.458500
  0
CIRCLE
  8
0
 10
139.999908
 20
309.999847
 40
3.000000
  0
ARC
  8
0
 10
89.999908
 20
320.999847
 40
5.000000
 50
90.000000
 51
180.000000
  0
ARC
  8
0
 10
89.999908
 20
298.999847
 40
5.000000
 50
180.000000
 51
270.000000
  0
ARC
  8
0
 10
279.999908
 20
298.999847
 40
5.000000
 50
270.000000
 51
0.000000
  0
ARC
  8
0
 10
279.999908
 20
320.999847
 40
5.000000
 50
0.000000
 51
90.000000
  0
CIRCLE
  8
0
 10
449.999908
 20
309.999847
 40
3.000000
  0
CIRCLE
  8
0
 10
449.999908
 20
309.999847
 40
2.458500
  0
CIRCLE
  8
0
 10
359.999908
 20
309.999847
 40
2.458500
  0
CIRCLE
  8
0
 10
359.999908
 20
309.999847
 40
3.000000
  0
ARC
  8
0
 10
309.999908
 20
320.999847
 40
5.000000
 50
90.000000
 51
180.000000
  0
ARC
  8
0
 10
309.999908
 20
298.999847
 40
5.000000
 50
180.000000
 51
270.000000
  0
ARC
  8
0
 10
499.999908
 20
298.999847
 40
5.000000
 50
270.000000
 51
0.000000
  0
ARC
  8
0
 10
499.999908
 20
320.999847
 40
5.000000
 50
0.000000
 51
90.000000
  0
ARC
  8
0
 10
456.749908
 20
330.249847
 40
1.250000
 50
90.000000
 51
180.000000
  0
ARC
  8
0
 10
463.249908
 20
330.249847
 40
1.250000
 50
0.000000
 51
90.000000
  0
ARC
  8
0
 10
126.749908
 20
330.249847
 40
1.250000
 50
90.000000
 51
180.000000
  0
ARC
  8
0
 10
133.249908
 20
330.249847
 40
1.250000
 50
0.000000
 51
90.000000
  0
ARC
  8
0
 10
236.749908
 20
330.249847
 40
1.250000
 50
90.000000
 51
180.000000
  0
ARC
  8
0
 10
243.249908
 20
330.249847
 40
1.250000
 50
0.000000
 51
90.000000
  0
ARC
  8
0
 10
346.749908
 20
330.249847
 40
1.250000
 50
90.000000
 51
180.000000
  0
ARC
  8
0
 10
353.249908
 20
330.249847
 40
1.250000
 50
0.000000
 51
90.000000
  0
ARC
  8
0
 10
657.999939
 20
135.999939
 40
3.000000
 50
270.000000
 51
90.000000
  0
ARC
  8
0
 10
631.999939
 20
135.999939
 40
3.000000
 50
90.000000
 51
270.000000
  0
ARC
  8
0
 10
665.249939
 20
150.749939
 40
1.250000
 50
270.000000
 51
0.000000
  0
ARC
  8
0
 10
665.249939
 20
157.249939
 40
1.250000
 50
0.000000
 51
90.000000
  0
CIRCLE
  8
0
 10
-331.750000
 20
-317.114960
 40
5.000000
  0
ARC
  8
0
 10
-251.750000
 20
-315.114960
 40
8.000001
 50
48.590370
 51
131.409622
  0
CIRCLE
  8
0
 10
68.250000
 20
-317.114990
 40
5.000000
  0
CIRCLE
  8
0
 10
28.250000
 20
-317.114990
 40
3.500000
  0
ARC
  8
0
 10
-11.750000
 20
-315.114990
 40
5.999997
 50
33.557274
 51
146.442734
  0
CIRCLE
  8
0
 10
-51.750000
 20
-317.114990
 40
3.500000
  0
ARC
  8
0
 10
90.750000
 20
-336.614990
 40
2.500000
 50
270.000000
 51
90.000000
  0
ARC
  8
0
 10
-114.250000
 20
-336.614960
 40
2.500000
 50
90.000000
 51
270.000000
  0
ARC
  8
0
 10
-11.750000
 20
-318.114990
 40
5.000000
 50
180.000000
 51
0.000000
  0
CIRCLE
  8
0
 10
-91.750000
 20
-317.114990
 40
5.000000
  0
ARC
  8
0
 10
-11.750000
 20
-315.114990
 40
8.000001
 50
48.590374
 51
131.409622
  0
ARC
  8
0
 10
-11.750000
 20
-315.114990
 40
5.999997
 50
213.557266
 51
326.442719
  0
ARC
  8
0
 10
-251.750000
 20
-315.114960
 40
5.999997
 50
213.557266
 51
326.442719
  0
CIRCLE
  8
0
 10
-171.750000
 20
-317.114960
 40
5.000000
  0
CIRCLE
  8
0
 10
-211.750000
 20
-317.114960
 40
3.500000
  0
ARC
  8
0
 10
-251.750000
 20
-315.114960
 40
5.999997
 50
33.557270
 51
146.442734
  0
CIRCLE
  8
0
 10
-291.750000
 20
-317.114960
 40
3.500000
  0
ARC
  8
0
 10
-149.250000
 20
-336.614960
 40
2.500000
 50
270.000000
 51
90.000000
  0
ARC
  8
0
 10
-354.250000
 20
-336.614960
 40
2.500000
 50
90.000000
 51
270.000000
  0
ARC
  8
0
 10
-251.750000
 20
-318.114960
 40
5.000000
 50
180.000000
 51
0.000000
  0
CIRCLE
  8
0
 10
-311.750000
 20
-139.114990
 40
3.000000
  0
CIRCLE
  8
0
 10
-311.750000
 20
-139.114990
 40
2.098500
  0
ARC
  8
0
 10
-351.750000
 20
-128.114990
 40
5.000000
 50
90.000000
 51
180.000000
  0
ARC
  8
0
 10
-151.750000
 20
-128.114990
 40
5.000000
 50
0.000000
 51
90.000000
  0
ARC
  8
0
 10
-151.750000
 20
-150.114990
 40
5.000000
 50
270.000000
 51
0.000000
  0
CIRCLE
  8
0
 10
-191.750000
 20
-139.114990
 40
3.000000
  0
CIRCLE
  8
0
 10
-191.750000
 20
-139.114990
 40
2.098500
  0
CIRCLE
  8
0
 10
48.250000
 20
-139.114990
 40
2.098500
  0
CIRCLE
  8
0
 10
48.250000
 20
-139.114990
 40
3.000000
  0
ARC
  8
0
 10
88.250000
 20
-150.114990
 40
5.000000
 50
270.000000
 51
0.000000
  0
ARC
  8
0
 10
88.250000
 20
-128.114990
 40
5.000000
 50
0.000000
 51
90.000000
  0
ARC
  8
0
 10
-111.750000
 20
-150.114990
 40
5.000000
 50
180.000000
 51
270.000000
  0
ARC
  8
0
 10
-111.750000
 20
-128.114990
 40
5.000000
 50
90.000000
 51
180.000000
  0
CIRCLE
  8
0
 10
-71.750000
 20
-139.114990
 40
2.098500
  0
CIRCLE
  8
0
 10
-71.750000
 20
-139.114990
 40
3.000000
  0
ARC
  8
0
 10
-351.750000
 20
-150.114990
 40
5.000000
 50
180.000000
 51
270.000000
  0
ARC
  8
0
 10
65.000000
 20
-118.865036
 40
1.250000
 50
90.000000
 51
180.000000
  0
ARC
  8
0
 10
71.500000
 20
-118.865036
 40
1.250000
 50
0.000000
 51
90.000000
  0
ARC
  8
0
 10
-335.000000
 20
-118.865036
 40
1.250000
 50
90.000000
 51
180.000000
  0
ARC
  8
0
 10
-328.500000
 20
-118.865036
 40
1.250000
 50
0.000000
 51
90.000000
  0
ARC
  8
0
 10
-175.000000
 20
-118.865036
 40
1.250000
 50
90.000000
 51
180.000000
  0
ARC
  8
0
 10
-168.500000
 20
-118.865036
 40
1.250000
 50
0.000000
 51
90.000000
  0
ARC
  8
0
 10
-95.000000
 20
-118.865036
 40
1.250000
 50
90.000000
 51
180.000000
  0
ARC
  8
0
 10
-88.500000
 20
-118.865036
 40
1.250000
 50
0.000000
 51
90.000000
  0
ARC
  8
0
 10
338.499908
 20
-313.864960
 40
1.250000
 50
0.000000
 51
90.000000
  0
ARC
  8
0
 10
338.499908
 20
-320.364960
 40
1.250000
 50
270.000000
 51
0.000000
  0
ARC
  8
0
 10
331.749908
 20
-336.614960
 40
2.500000
 50
270.000000
 51
90.000000
  0
ARC
  8
0
 10
304.749908
 20
-336.614960
 40
2.500000
 50
90.000000
 51
270.000000
  0
TEXT
  8
0
 10
452.676331
 20
466.216309
 40
17.000000
  1
DATE : MAY ,1991
 50
0.000000
 41
1.052631
 51
0.000000
  7
STANDARD
  0
TEXT
  8
0
 10
-692.223755
 20
463.516205
 40
20.000000
  1
ORCA DUAL PISTON
 50
0.000000
 41
1.052632
 51
0.000000
  7
STANDARD
  0
TEXT
  8
0
 10
37.392860
 20
414.914032
 40
20.000000
  1
BORE : 40
 50
0.000000
 41
1.052632
 51
0.000000
  7
STANDARD
  0
TEXT
  8
0
 10
-704.357117
 20
394.914032
 40
20.000000
  1
BORE : 32
 50
0.000000
 41
1.052632
 51
0.000000
  7
STANDARD
  0
TEXT
  8
0
 10
-704.357117
 20
-67.000061
 40
20.000000
  1
BORE : 50
 50
0.000000
 41
1.052632
 51
0.000000
  7
STANDARD
  0
ENDSEC
  0
EOF
