  0
SECTION
  2
HEADER
  0
ENDSEC
  0
SECTION
  2
TABLES
  0
TABLE
  2
LTYPE
 70
     4
  0
LTYPE
  2
CONTINUOUS
 70
    64
  3
Solid line
 72
    65
 73
     0
 40
0.000000
  0
LTYPE
  2
DASHED
 70
    64
  3
__ __ __ __ __ __ __ __ __ __ __ __ __ __ __
 72
    65
 73
     2
 40
3.500000
 49
2.000000
 49
-1.500000
  0
LTYPE
  2
CENTER
 70
    64
  3
____ _ ____ _ ____ _ ____ _ ____ _ ____ _ ____
 72
    65
 73
     4
 40
17.500000
 49
13.000000
 49
-1.500000
 49
1.500000
 49
-1.500000
  0
LTYPE
  2
PHANTOM
 70
    64
  3
_____ _ _ _____ _ _ _____ _ _ _____ _ _ ____  
 72
    65
 73
     6
 40
15.500000
 49
8.000000
 49
-1.500000
 49
1.500000
 49
-1.500000
 49
1.500000
 49
-1.500000
  0
LTYPE
  2
DASHED1
 70
    64
  3
__ __ __ __ __ __ __ __ __ __ __ __ __ __ __
 72
    65
 73
     2
 40
1.500000
 49
1.000000
 49
-0.500000
  0
LTYPE
  2
DASHED2
 70
    64
  3
__ __ __ __ __ __ __ __ __ __ __ __ __ __ __
 72
    65
 73
     2
 40
3.500000
 49
2.500000
 49
-1.000000
  0
LTYPE
  2
DASHED3
 70
    64
  3
__ __ __ __ __ __ __ __ __ __ __ __ __ __ __
 72
    65
 73
     2
 40
6.000000
 49
4.000000
 49
-2.000000
  0
LTYPE
  2
DASHED4
 70
    64
  3
__ __ __ __ __ __ __ __ __ __ __ __ __ __ __
 72
    65
 73
     2
 40
12.000000
 49
10.000000
 49
-2.000000
  0
LTYPE
  2
DASHED5
 70
    64
  3
__ __ __ __ __ __ __ __ __ __ __ __ __ __ __
 72
    65
 73
     2
 40
17.000000
 49
15.000000
 49
-2.000000
  0
LTYPE
  2
DASHED6
 70
    64
  3
__ __ __ __ __ __ __ __ __ __ __ __ __ __ __
 72
    65
 73
     2
 40
29.000000
 49
27.000000
 49
-2.000000
  0
LTYPE
  2
PHANTOM1
 70
    64
  3
_____ _ _ _____ _ _ _____ _ _ _____ _ _ ____  
 72
    65
 73
     6
 40
31.000000
 49
25.000000
 49
-1.500000
 49
1.000000
 49
-1.000000
 49
1.000000
 49
-1.500000
  0
LTYPE
  2
PHANTOM2
 70
    64
  3
_____ _ _ _____ _ _ _____ _ _ _____ _ _ ____  
 72
    65
 73
     6
 40
36.000000
 49
27.000000
 49
-1.500000
 49
2.500000
 49
-1.000000
 49
2.500000
 49
-1.500000
  0
LTYPE
  2
PHANTOM3
 70
    64
  3
_____ _ _ _____ _ _ _____ _ _ _____ _ _ ____  
 72
    65
 73
     6
 40
78.000000
 49
64.000000
 49
-2.000000
 49
4.000000
 49
-2.000000
 49
4.000000
 49
-2.000000
  0
LTYPE
  2
CENTER1
 70
    64
  3
____ _ ____ _ ____ _ ____ _ ____ _ ____ _ ____
 72
    65
 73
     4
 40
19.000000
 49
14.000000
 49
-1.000000
 49
3.000000
 49
-1.000000
  0
LTYPE
  2
CENTER2
 70
    64
  3
____ _ ____ _ ____ _ ____ _ ____ _ ____ _ ____
 72
    65
 73
     4
 40
28.500000
 49
25.000000
 49
-1.000000
 49
1.500000
 49
-1.000000
  0
LTYPE
  2
CENTER3
 70
    64
  3
____ _ ____ _ ____ _ ____ _ ____ _ ____ _ ____
 72
    65
 73
     4
 40
31.500000
 49
27.000000
 49
-1.000000
 49
2.500000
 49
-1.000000
  0
LTYPE
  2
CENTER4
 70
    64
  3
____ _ ____ _ ____ _ ____ _ ____ _ ____ _ ____
 72
    65
 73
     4
 40
50.000000
 49
45.000000
 49
-1.000000
 49
3.000000
 49
-1.000000
  0
LTYPE
  2
CENTER5
 70
    64
  3
____ _ ____ _ ____ _ ____ _ ____ _ ____ _ ____
 72
    65
 73
     4
 40
100.000000
 49
92.000000
 49
-2.000000
 49
4.000000
 49
-2.000000
  0
LTYPE
  2
SBK1
 70
    64
  3
______ _ _ _ ______ _ _ _ ______ _ _ _ _____  
 72
    65
 73
     8
 40
60.500000
 49
45.000000
 49
-2.000000
 49
2.500000
 49
-2.000000
 49
2.500000
 49
-2.000000
 49
2.500000
 49
-2.000000
  0
LTYPE
  2
SBK2
 70
    64
  3
______ _ _ _ ______ _ _ _ ______ _ _ _ _____  
 72
    65
 73
     8
 40
84.000000
 49
64.000000
 49
-2.000000
 49
4.000000
 49
-2.000000
 49
4.000000
 49
-2.000000
 49
4.000000
 49
-2.000000
  0
LTYPE
  2
STCH
 70
    64
  3
__ __ __ __ __ __ __ __ __ __ __ __ __ __ __
 72
    65
 73
     2
 40
3.000000
 49
1.000000
 49
-2.000000
  0
LTYPE
  2
MTCH
 70
    64
  3
_____ _ _ _____ _ _ _____ _ _ _____ _ _ ____  
 72
    65
 73
     6
 40
80.000000
 49
66.000000
 49
-2.000000
 49
4.000000
 49
-2.000000
 49
4.000000
 49
-2.000000
  0
ENDTAB
  0
TABLE
  2
LAYER
 70
     1
  0
LAYER
  2
0
 70
     0
 62
     7
  6
CONTINUOUS
  0
ENDTAB
  0
TABLE
  2
STYLE
 70
     1
  0
STYLE
  2
STANDARD
 70
     0
 40
0.000000
 41
1.000000
 50
0.000000
 71
     0
 42
0.200000
  3
txt
  4
BIGFONT
  0
ENDTAB
  0
TABLE
  2
VIEW
 70
     0
  0
ENDTAB
  0
ENDSEC
  0
SECTION
  2
BLOCKS
  0
ENDSEC
  0
SECTION
  2
ENTITIES
  0
POINT
  8
0
 10
-252.373566
 20
54.999977
  0
POINT
  8
0
 10
-130.873566
 20
154.999969
  0
POINT
  8
0
 10
-80.873566
 20
154.999969
  0
POINT
  8
0
 10
-130.873566
 20
54.999977
  0
POINT
  8
0
 10
-80.873558
 20
54.999977
  0
POINT
  8
0
 10
112.000000
 20
59.999977
  0
POINT
  8
0
 10
235.000000
 20
59.999977
  0
POINT
  8
0
 10
295.000000
 20
59.999977
  0
POINT
  8
0
 10
235.000000
 20
164.999969
  0
POINT
  8
0
 10
295.000000
 20
164.999969
  0
POINT
  8
0
 10
-110.873566
 20
-184.558487
  0
POINT
  8
0
 10
44.126434
 20
-74.558495
  0
POINT
  8
0
 10
119.126450
 20
-74.558495
  0
POINT
  8
0
 10
44.126434
 20
-184.558487
  0
POINT
  8
0
 10
119.126457
 20
-184.558487
  0
POINT
  8
0
 10
-265.873566
 20
54.999977
  0
POINT
  8
0
 10
95.000000
 20
59.999977
  0
POINT
  8
0
 10
-130.873566
 20
-184.558487
  0
LINE
  8
0
 62
     3
 10
218.329163
 20
-225.956436
 11
370.873566
 21
-225.956436
  0
LINE
  8
0
 62
     3
 10
-218.329163
 20
225.956390
 11
-218.329163
 21
254.558487
  0
LINE
  8
0
 62
     3
 10
-370.873566
 20
225.956390
 11
-218.329163
 21
225.956390
  0
LINE
  8
0
 62
     3
 10
-370.873566
 20
254.558487
 11
370.873566
 21
254.558487
  0
LINE
  8
0
 62
     3
 10
-370.873566
 20
-254.558487
 11
370.873566
 21
-254.558487
  0
LINE
  8
0
 62
     3
 10
370.873566
 20
254.558487
 11
370.873566
 21
-254.558487
  0
LINE
  8
0
 62
     3
 10
-370.873566
 20
-254.558487
 11
-370.873566
 21
254.558487
  0
LINE
  8
0
 62
     3
 10
218.329163
 20
-225.956436
 11
218.329163
 21
-254.558487
  0
LINE
  8
0
 62
     3
 10
218.329163
 20
254.558487
 11
218.329163
 21
225.956390
  0
LINE
  8
0
 62
     3
 10
218.329163
 20
225.956390
 11
370.873566
 21
225.956390
  0
LINE
  8
0
 62
     5
 10
258.381622
 20
-232.833740
 11
258.381622
 21
-236.151566
  0
LINE
  8
0
 62
     5
 10
258.381622
 20
-236.151566
 11
270.823547
 21
-236.151566
  0
LINE
  8
0
 62
     5
 10
258.381622
 20
-249.146469
 11
275.247345
 21
-249.146469
  0
LINE
  8
0
 62
     5
 10
258.381622
 20
-245.828644
 11
270.823547
 21
-245.828644
  0
LINE
  8
0
 62
     5
 10
258.381622
 20
-232.833740
 11
273.035400
 21
-232.833740
  0
LINE
  8
0
 62
     5
 10
270.823547
 20
-236.151566
 11
270.823547
 21
-245.828644
  0
LINE
  8
0
 62
     5
 10
275.247345
 20
-235.045654
 11
275.247345
 21
-249.146469
  0
LINE
  8
0
 62
     5
 10
258.381622
 20
-245.828644
 11
258.381622
 21
-249.146469
  0
LINE
  8
0
 62
     5
 10
293.495392
 20
-236.151566
 11
293.495392
 21
-246.934647
  0
LINE
  8
0
 62
     5
 10
277.735657
 20
-232.833740
 11
277.735657
 21
-236.151566
  0
LINE
  8
0
 62
     5
 10
293.937836
 20
-232.584961
 11
295.513824
 21
-232.584961
  0
LINE
  8
0
 62
     5
 10
293.937836
 20
-230.373016
 11
295.513824
 21
-230.373016
  0
LINE
  8
0
 62
     5
 10
295.513824
 20
-230.373016
 11
295.513824
 21
-232.584961
  0
LINE
  8
0
 62
     5
 10
293.937836
 20
-230.373016
 11
293.937836
 21
-232.584961
  0
LINE
  8
0
 62
     5
 10
293.108276
 20
-230.373016
 11
293.108276
 21
-232.584961
  0
LINE
  8
0
 62
     5
 10
282.766052
 20
-230.373016
 11
286.200897
 21
-230.373016
  0
LINE
  8
0
 62
     5
 10
285.541260
 20
-232.833466
 11
286.200562
 21
-230.372711
  0
LINE
  8
0
 62
     5
 10
282.106689
 20
-232.833710
 11
282.766022
 21
-230.372986
  0
LINE
  8
0
 62
     5
 10
285.541565
 20
-232.833740
 11
290.177551
 21
-232.833740
  0
LINE
  8
0
 62
     5
 10
284.652557
 20
-236.151566
 11
289.071625
 21
-236.151566
  0
LINE
  8
0
 62
     5
 10
286.642853
 20
-249.146469
 11
291.283569
 21
-249.146469
  0
LINE
  8
0
 62
     5
 10
285.753693
 20
-245.828583
 11
286.642731
 21
-249.146347
  0
LINE
  8
0
 62
     5
 10
285.753754
 20
-245.828644
 11
289.071625
 21
-245.828644
  0
LINE
  8
0
 62
     5
 10
281.170746
 20
-249.146637
 11
284.652679
 21
-236.151733
  0
LINE
  8
0
 62
     5
 10
277.735657
 20
-236.151566
 11
281.217682
 21
-236.151566
  0
LINE
  8
0
 62
     5
 10
277.735413
 20
-249.146210
 11
281.217468
 21
-236.151337
  0
LINE
  8
0
 62
     5
 10
277.735657
 20
-249.146469
 11
281.170593
 21
-249.146469
  0
LINE
  8
0
 62
     5
 10
277.735657
 20
-232.833740
 11
282.106689
 21
-232.833740
  0
LINE
  8
0
 62
     5
 10
289.071625
 20
-236.151566
 11
289.071625
 21
-245.828644
  0
LINE
  8
0
 62
     5
 10
291.532288
 20
-230.373016
 11
293.108276
 21
-230.373016
  0
LINE
  8
0
 62
     5
 10
291.532288
 20
-232.584961
 11
293.108276
 21
-232.584961
  0
LINE
  8
0
 62
     5
 10
291.532288
 20
-230.373016
 11
291.532288
 21
-232.584961
  0
LINE
  8
0
 62
     5
 10
301.513550
 20
-230.373016
 11
305.937286
 21
-230.373016
  0
LINE
  8
0
 62
     5
 10
308.342316
 20
-240.195053
 11
311.296204
 21
-238.817642
  0
LINE
  8
0
 62
     5
 10
305.937286
 20
-242.734406
 11
305.937286
 21
-249.146469
  0
LINE
  8
0
 62
     5
 10
301.513550
 20
-243.379044
 11
301.513550
 21
-249.146469
  0
LINE
  8
0
 62
     5
 10
305.937286
 20
-232.833740
 11
310.361115
 21
-232.833740
  0
LINE
  8
0
 62
     5
 10
305.937286
 20
-230.373016
 11
305.937286
 21
-232.833740
  0
LINE
  8
0
 62
     5
 10
301.513550
 20
-230.373016
 11
301.513550
 21
-232.833740
  0
LINE
  8
0
 62
     5
 10
312.572998
 20
-235.045654
 11
312.572998
 21
-236.812775
  0
LINE
  8
0
 62
     5
 10
308.342377
 20
-240.195038
 11
312.573395
 21
-242.168030
  0
LINE
  8
0
 62
     5
 10
305.937256
 20
-242.734329
 11
312.573059
 21
-245.828613
  0
LINE
  8
0
 62
     5
 10
296.260284
 20
-242.167801
 11
296.260284
 21
-245.828644
  0
LINE
  8
0
 62
     5
 10
296.260742
 20
-242.168167
 11
309.162567
 21
-236.151932
  0
LINE
  8
0
 62
     5
 10
296.260254
 20
-245.828598
 11
301.513580
 21
-243.378937
  0
LINE
  8
0
 62
     5
 10
312.572998
 20
-242.167801
 11
312.572998
 21
-245.828644
  0
LINE
  8
0
 62
     5
 10
296.260284
 20
-232.833740
 11
296.260284
 21
-236.151566
  0
LINE
  8
0
 62
     5
 10
301.513550
 20
-249.146469
 11
305.937286
 21
-249.146469
  0
LINE
  8
0
 62
     5
 10
296.260284
 20
-236.151566
 11
309.162079
 21
-236.151566
  0
LINE
  8
0
 62
     5
 10
296.260284
 20
-232.833740
 11
301.513550
 21
-232.833740
  0
LINE
  8
0
 62
     5
 10
327.503998
 20
-236.404739
 11
328.730042
 21
-235.917068
  0
LINE
  8
0
 62
     5
 10
327.503357
 20
-236.404404
 11
327.503357
 21
-249.146469
  0
LINE
  8
0
 62
     5
 10
323.079498
 20
-249.146469
 11
327.503357
 21
-249.146469
  0
LINE
  8
0
 62
     5
 10
313.955292
 20
-241.792511
 11
323.079376
 21
-238.163742
  0
LINE
  8
0
 62
     5
 10
313.955536
 20
-238.221954
 11
326.806152
 21
-233.111084
  0
LINE
  8
0
 62
     5
 10
323.079498
 20
-238.163773
 11
323.079498
 21
-249.146469
  0
LINE
  8
0
 62
     5
 10
327.503357
 20
-231.368408
 11
327.503357
 21
-232.083389
  0
LINE
  8
0
 62
     5
 10
330.821106
 20
-231.368408
 11
330.821106
 21
-232.833755
  0
LINE
  8
0
 62
     5
 10
313.955444
 20
-238.221893
 11
313.955444
 21
-241.792496
  0
LINE
  8
0
 62
     5
 10
327.503357
 20
-231.368408
 11
330.821106
 21
-231.368408
  0
LINE
  8
0
 10
0.000000
 20
-0.000023
 11
0.000000
 21
254.558487
  0
LINE
  8
0
 10
-370.873566
 20
-0.000023
 11
370.873566
 21
-0.000023
  0
LINE
  8
0
  6
CENTER
 10
-75.873566
 20
154.999969
 11
-185.873566
 21
154.999969
  0
LINE
  8
0
  6
CENTER
 10
-265.873566
 20
84.999969
 11
-265.873566
 21
24.999996
  0
LINE
  8
0
  6
CENTER
 10
-245.873566
 20
54.999977
 11
-282.873566
 21
54.999977
  0
LINE
  8
0
  6
PHANTOM
 10
-259.873566
 20
69.999985
 11
-259.873566
 21
68.999985
  0
LINE
  8
0
  6
PHANTOM
 10
-271.873566
 20
70.000000
 11
-271.873566
 21
69.000000
  0
LINE
  8
0
  6
PHANTOM
 10
-264.173584
 20
70.000000
 11
-264.173584
 21
69.000000
  0
LINE
  8
0
  6
PHANTOM
 10
-267.573578
 20
70.000000
 11
-267.573578
 21
69.000000
  0
LINE
  8
0
  6
PHANTOM
 10
-274.873566
 20
42.999996
 11
-274.873566
 21
39.999977
  0
LINE
  8
0
  6
PHANTOM
 10
-256.873566
 20
42.999989
 11
-256.873566
 21
36.175400
  0
LINE
  8
0
  6
CENTER
 10
-251.873566
 20
32.999977
 11
-282.873566
 21
32.999977
  0
LINE
  8
0
  6
PHANTOM
 10
-92.873566
 20
29.999975
 11
-114.569672
 21
29.999975
  0
LINE
  8
0
  6
CENTER
 10
-130.873566
 20
84.999969
 11
-130.873566
 21
24.999966
  0
LINE
  8
0
  6
PHANTOM
 10
-168.873566
 20
41.999981
 11
-168.873566
 21
29.999981
  0
LINE
  8
0
  6
PHANTOM
 10
-92.873566
 20
41.999966
 11
-92.873566
 21
29.999966
  0
LINE
  8
0
  6
CENTER
 10
-75.873566
 20
54.999977
 11
-185.873566
 21
54.999977
  0
LINE
  8
0
  6
CENTER
 10
-130.873566
 20
190.999969
 11
-130.873566
 21
134.999969
  0
LINE
  8
0
  6
PHANTOM
 10
-277.873566
 20
63.999996
 11
-277.873566
 21
45.999996
  0
LINE
  8
0
  6
PHANTOM
 10
-256.873566
 20
42.999977
 11
-274.873566
 21
42.999977
  0
LINE
  8
0
  6
PHANTOM
 10
-256.873566
 20
66.999977
 11
-257.873566
 21
66.999977
  0
LINE
  8
0
  6
PHANTOM
 10
-273.873566
 20
66.999977
 11
-274.873566
 21
66.999977
  0
LINE
  8
0
  6
PHANTOM
 10
-256.873566
 20
41.999977
 11
-274.873566
 21
41.999977
  0
LINE
  8
0
  6
PHANTOM
 10
-80.250854
 20
153.299988
 11
-98.373566
 21
153.299988
  0
LINE
  8
0
  6
PHANTOM
 10
-81.496292
 20
156.699982
 11
-98.373566
 21
156.699982
  0
LINE
  8
0
  6
PHANTOM
 10
-82.125839
 20
160.999969
 11
-98.373566
 21
160.999969
  0
LINE
  8
0
  6
PHANTOM
 10
-79.621307
 20
148.999969
 11
-98.373566
 21
148.999969
  0
LINE
  8
0
  6
PHANTOM
 10
-163.373566
 20
153.299988
 11
-180.250854
 21
153.299988
  0
LINE
  8
0
  6
PHANTOM
 10
-163.373566
 20
156.699982
 11
-181.496307
 21
156.699982
  0
LINE
  8
0
  6
PHANTOM
 10
-163.373566
 20
160.999969
 11
-182.125839
 21
160.999969
  0
LINE
  8
0
  6
PHANTOM
 10
-256.873566
 20
29.999975
 11
-274.873566
 21
29.999975
  0
LINE
  8
0
  6
PHANTOM
 10
-132.873566
 20
29.999975
 11
-146.569672
 21
29.999975
  0
LINE
  8
0
  6
PHANTOM
 10
-163.373566
 20
148.999969
 11
-179.621307
 21
148.999969
  0
LINE
  8
0
  6
PHANTOM
 10
-80.873566
 20
143.000000
 11
-115.873566
 21
143.000000
  0
LINE
  8
0
  6
PHANTOM
 10
-270.873566
 20
69.999977
 11
-271.873566
 21
69.999977
  0
LINE
  8
0
  6
PHANTOM
 10
-92.873566
 20
41.999977
 11
-169.373566
 21
41.999977
  0
LINE
  8
0
  6
PHANTOM
 10
-79.554855
 20
42.999977
 11
-180.873566
 21
42.999977
  0
LINE
  8
0
  6
PHANTOM
 10
-80.873550
 20
66.999977
 11
-115.873566
 21
66.999977
  0
LINE
  8
0
  6
PHANTOM
 10
-79.125809
 20
69.999977
 11
-115.873566
 21
69.999977
  0
LINE
  8
0
  6
PHANTOM
 10
-80.873566
 20
166.999969
 11
-98.373566
 21
166.999969
  0
LINE
  8
0
  6
PHANTOM
 10
-128.873566
 20
29.999977
 11
-128.873566
 21
32.499977
  0
LINE
  8
0
  6
PHANTOM
 10
-132.873566
 20
29.999977
 11
-132.873566
 21
32.499977
  0
LINE
  8
0
  6
PHANTOM
 10
-132.373566
 20
32.999977
 11
-129.373566
 21
32.999977
  0
LINE
  8
0
  6
PHANTOM
 10
-147.177460
 20
29.999975
 11
-168.873566
 21
29.999975
  0
LINE
  8
0
  6
PHANTOM
 10
-115.177490
 20
29.999975
 11
-128.873566
 21
29.999975
  0
LINE
  8
0
  6
PHANTOM
 10
-163.373566
 20
166.999969
 11
-180.873566
 21
166.999969
  0
LINE
  8
0
  6
PHANTOM
 10
-253.873566
 20
48.999977
 11
-253.873566
 21
45.999989
  0
LINE
  8
0
  6
PHANTOM
 10
-145.873566
 20
69.999977
 11
-180.873550
 21
69.999977
  0
LINE
  8
0
  6
PHANTOM
 10
-145.873566
 20
66.999977
 11
-182.192261
 21
66.999977
  0
LINE
  8
0
  6
PHANTOM
 10
-145.873566
 20
143.000000
 11
-180.873566
 21
143.000000
  0
LINE
  8
0
  6
CENTER
 10
300.000000
 20
59.999977
 11
170.000015
 21
59.999977
  0
LINE
  8
0
  6
CENTER
 10
300.000000
 20
164.999969
 11
170.000000
 21
164.999969
  0
LINE
  8
0
  6
CENTER
 10
119.000000
 20
59.999977
 11
74.500000
 21
59.999977
  0
LINE
  8
0
  6
CENTER
 10
95.000000
 20
96.999985
 11
95.000000
 21
22.999985
  0
LINE
  8
0
  6
PHANTOM
 10
108.000015
 20
27.999985
 11
82.000015
 21
27.999985
  0
LINE
  8
0
  6
PHANTOM
 10
92.800003
 20
78.999985
 11
92.800003
 21
77.999985
  0
LINE
  8
0
  6
PHANTOM
 10
97.199997
 20
78.999985
 11
97.199997
 21
77.999985
  0
LINE
  8
0
  6
PHANTOM
 10
103.000000
 20
78.999985
 11
103.000000
 21
77.499985
  0
LINE
  8
0
  6
PHANTOM
 10
87.000000
 20
78.999985
 11
87.000000
 21
77.499985
  0
LINE
  8
0
  6
PHANTOM
 10
82.000000
 20
44.499985
 11
82.000000
 21
41.499985
  0
LINE
  8
0
  6
PHANTOM
 10
108.000000
 20
44.499985
 11
108.000000
 21
36.041439
  0
LINE
  8
0
  6
CENTER
 10
113.800003
 20
31.999985
 11
71.000000
 21
31.999985
  0
LINE
  8
0
  6
PHANTOM
 10
295.000000
 20
78.999985
 11
255.000000
 21
78.999985
  0
LINE
  8
0
  6
PHANTOM
 10
293.520935
 20
75.499977
 11
255.000000
 21
75.499977
  0
LINE
  8
0
  6
CENTER
 10
235.000000
 20
96.999985
 11
235.000000
 21
22.999969
  0
LINE
  8
0
  6
PHANTOM
 10
283.000000
 20
42.499954
 11
283.000000
 21
27.999954
  0
LINE
  8
0
  6
PHANTOM
 10
187.000000
 20
42.499985
 11
187.000000
 21
27.999985
  0
LINE
  8
0
  6
PHANTOM
 10
283.000000
 20
42.499985
 11
187.000000
 21
42.499985
  0
LINE
  8
0
  6
PHANTOM
 10
295.000000
 20
149.499969
 11
255.000000
 21
149.499969
  0
LINE
  8
0
  6
CENTER
 10
235.000000
 20
140.999969
 11
235.000000
 21
206.499969
  0
LINE
  8
0
  6
PHANTOM
 10
295.000000
 20
44.499977
 11
175.000015
 21
44.499977
  0
LINE
  8
0
  6
PHANTOM
 10
79.500000
 20
72.499985
 11
79.500000
 21
47.499985
  0
LINE
  8
0
  6
PHANTOM
 10
110.500000
 20
72.499985
 11
110.500000
 21
47.499985
  0
LINE
  8
0
  6
PHANTOM
 10
108.000015
 20
44.499977
 11
82.000015
 21
44.499977
  0
LINE
  8
0
  6
PHANTOM
 10
107.500015
 20
75.499977
 11
105.000015
 21
75.499977
  0
LINE
  8
0
  6
PHANTOM
 10
85.000015
 20
75.499977
 11
82.500015
 21
75.499977
  0
LINE
  8
0
  6
PHANTOM
 10
108.000015
 20
42.499985
 11
82.000015
 21
42.499985
  0
LINE
  8
0
  6
PHANTOM
 10
294.222900
 20
167.199966
 11
275.000000
 21
167.199966
  0
LINE
  8
0
  6
PHANTOM
 10
295.777100
 20
162.799957
 11
275.000000
 21
162.799957
  0
LINE
  8
0
  6
PHANTOM
 10
296.561035
 20
156.999969
 11
275.000000
 21
156.999969
  0
LINE
  8
0
  6
PHANTOM
 10
293.438965
 20
172.999969
 11
275.000000
 21
172.999969
  0
LINE
  8
0
  6
PHANTOM
 10
195.000000
 20
156.999969
 11
176.561035
 21
156.999969
  0
LINE
  8
0
  6
PHANTOM
 10
195.000000
 20
162.799957
 11
175.777130
 21
162.799957
  0
LINE
  8
0
  6
PHANTOM
 10
195.000000
 20
167.199966
 11
174.222900
 21
167.199966
  0
LINE
  8
0
  6
PHANTOM
 10
283.000000
 20
27.999985
 11
255.071838
 21
27.999985
  0
LINE
  8
0
  6
PHANTOM
 10
232.500000
 20
27.999985
 11
215.071838
 21
27.999985
  0
LINE
  8
0
  6
PHANTOM
 10
195.000000
 20
172.999969
 11
173.438980
 21
172.999969
  0
LINE
  8
0
  6
PHANTOM
 10
295.000031
 20
180.499985
 11
175.000031
 21
180.499985
  0
LINE
  8
0
  6
PHANTOM
 10
237.500000
 20
27.999969
 11
237.500000
 21
31.299969
  0
LINE
  8
0
  6
PHANTOM
 10
233.000000
 20
31.799969
 11
237.000000
 21
31.799969
  0
LINE
  8
0
  6
PHANTOM
 10
232.500000
 20
27.999969
 11
232.500000
 21
31.299969
  0
LINE
  8
0
  6
PHANTOM
 10
214.928162
 20
27.999985
 11
187.000000
 21
27.999985
  0
LINE
  8
0
  6
PHANTOM
 10
254.928146
 20
27.999985
 11
237.500000
 21
27.999985
  0
LINE
  8
0
  6
PHANTOM
 10
215.000000
 20
78.999985
 11
175.000000
 21
78.999985
  0
LINE
  8
0
  6
PHANTOM
 10
215.000000
 20
75.499977
 11
173.520935
 21
75.499977
  0
LINE
  8
0
  6
PHANTOM
 10
215.000000
 20
149.499969
 11
175.000000
 21
149.499969
  0
LINE
  8
0
  6
CENTER
 10
124.126434
 20
-74.558495
 11
-35.873566
 21
-74.558495
  0
LINE
  8
0
  6
CENTER
 10
124.126434
 20
-184.558487
 11
-35.873550
 21
-184.558487
  0
LINE
  8
0
  6
CENTER
 10
-130.873566
 20
-227.558472
 11
-130.873566
 21
-141.558502
  0
LINE
  8
0
  6
CENTER
 10
-103.873566
 20
-184.558487
 11
-153.873566
 21
-184.558487
  0
LINE
  8
0
  6
PHANTOM
 10
-117.873550
 20
-222.558502
 11
-143.873566
 21
-222.558502
  0
LINE
  8
0
  6
PHANTOM
 10
-117.873550
 20
-204.558487
 11
-143.873550
 21
-204.558487
  0
LINE
  8
0
  6
PHANTOM
 10
-117.873566
 20
-222.558472
 11
-117.873566
 21
-222.177307
  0
LINE
  8
0
  6
CENTER
 10
-111.373566
 20
-217.558502
 11
-153.873566
 21
-217.558502
  0
LINE
  8
0
  6
PHANTOM
 10
-133.073563
 20
-163.558472
 11
-133.073563
 21
-162.558472
  0
LINE
  8
0
  6
PHANTOM
 10
-128.673569
 20
-163.558472
 11
-128.673569
 21
-162.558472
  0
LINE
  8
0
  6
PHANTOM
 10
-139.873566
 20
-163.558472
 11
-139.873566
 21
-162.558472
  0
LINE
  8
0
  6
PHANTOM
 10
-121.873566
 20
-163.558472
 11
-121.873566
 21
-162.558472
  0
LINE
  8
0
  6
PHANTOM
 10
117.576401
 20
-166.558487
 11
69.126434
 21
-166.558487
  0
LINE
  8
0
  6
CENTER
 10
44.126434
 20
-227.558502
 11
44.126434
 21
-141.558502
  0
LINE
  8
0
  6
PHANTOM
 10
104.126450
 20
-222.558502
 11
47.126434
 21
-222.558502
  0
LINE
  8
0
  6
PHANTOM
 10
-15.873566
 20
-222.558502
 11
-15.873566
 21
-204.558487
  0
LINE
  8
0
  6
PHANTOM
 10
104.126419
 20
-222.558502
 11
104.126419
 21
-204.558502
  0
LINE
  8
0
  6
PHANTOM
 10
104.126450
 20
-204.558487
 11
69.126434
 21
-204.558487
  0
LINE
  8
0
  6
PHANTOM
 10
41.126434
 20
-222.558502
 11
-15.873550
 21
-222.558502
  0
LINE
  8
0
  6
PHANTOM
 10
119.126450
 20
-56.558495
 11
94.126434
 21
-56.558495
  0
LINE
  8
0
  6
CENTER
 10
44.126434
 20
-101.558495
 11
44.126434
 21
-29.558487
  0
LINE
  8
0
  6
PHANTOM
 10
-117.873550
 20
-202.558487
 11
-143.873550
 21
-202.558487
  0
LINE
  8
0
  6
PHANTOM
 10
-118.873550
 20
-166.558487
 11
-118.873550
 21
-166.558487
  0
LINE
  8
0
  6
PHANTOM
 10
-148.873566
 20
-196.558472
 11
-148.873566
 21
-172.558472
  0
LINE
  8
0
  6
PHANTOM
 10
-142.873550
 20
-166.558487
 11
-142.873550
 21
-166.558487
  0
LINE
  8
0
  6
PHANTOM
 10
119.126450
 20
-202.558487
 11
69.126434
 21
-202.558487
  0
LINE
  8
0
  6
PHANTOM
 10
119.126450
 20
-162.558487
 11
69.126434
 21
-162.558487
  0
LINE
  8
0
  6
PHANTOM
 10
19.126434
 20
-166.558487
 11
-32.423599
 21
-166.558487
  0
LINE
  8
0
  6
PHANTOM
 10
119.126434
 20
-92.558495
 11
69.126434
 21
-92.558495
  0
LINE
  8
0
  6
PHANTOM
 10
-117.873566
 20
-212.939697
 11
-117.873566
 21
-202.558472
  0
LINE
  8
0
  6
PHANTOM
 10
-143.873566
 20
-206.558502
 11
-143.873566
 21
-202.558472
  0
LINE
  8
0
  6
PHANTOM
 10
119.860062
 20
-76.758499
 11
94.126434
 21
-76.758499
  0
LINE
  8
0
  6
PHANTOM
 10
118.392822
 20
-72.358490
 11
94.126434
 21
-72.358490
  0
LINE
  8
0
  6
PHANTOM
 10
120.802628
 20
-83.558495
 11
94.126434
 21
-83.558495
  0
LINE
  8
0
  6
PHANTOM
 10
117.450256
 20
-65.558495
 11
94.126434
 21
-65.558495
  0
LINE
  8
0
  6
PHANTOM
 10
-5.873566
 20
-65.558495
 11
-32.549744
 21
-65.558495
  0
LINE
  8
0
  6
PHANTOM
 10
-5.873566
 20
-72.358490
 11
-31.607178
 21
-72.358490
  0
LINE
  8
0
  6
PHANTOM
 10
-5.873566
 20
-76.758499
 11
-30.139938
 21
-76.758499
  0
LINE
  8
0
  6
PHANTOM
 10
-5.873566
 20
-83.558495
 11
-29.197372
 21
-83.558495
  0
LINE
  8
0
  6
PHANTOM
 10
41.126434
 20
-218.558472
 11
41.126434
 21
-222.558472
  0
LINE
  8
0
  6
PHANTOM
 10
42.126434
 20
-217.558472
 11
46.126434
 21
-217.558472
  0
LINE
  8
0
  6
PHANTOM
 10
47.126434
 20
-218.558472
 11
47.126434
 21
-222.558472
  0
LINE
  8
0
  6
PHANTOM
 10
-5.873566
 20
-56.558495
 11
-30.873550
 21
-56.558495
  0
LINE
  8
0
  6
PHANTOM
 10
-137.873566
 20
-162.558487
 11
-139.873550
 21
-162.558487
  0
LINE
  8
0
  6
PHANTOM
 10
19.126434
 20
-202.558487
 11
-30.873550
 21
-202.558487
  0
LINE
  8
0
  6
PHANTOM
 10
19.126434
 20
-162.558487
 11
-30.873550
 21
-162.558487
  0
LINE
  8
0
  6
PHANTOM
 10
19.126434
 20
-204.558487
 11
-15.873566
 21
-204.558487
  0
LINE
  8
0
  6
PHANTOM
 10
19.126434
 20
-92.558495
 11
-30.873566
 21
-92.558495
  0
LINE
  8
0
 10
-163.373520
 20
73.999954
 11
-98.373520
 21
73.999954
  0
LINE
  8
0
 10
-163.373520
 20
79.999954
 11
-163.373520
 21
69.999954
  0
LINE
  8
0
 10
-114.873558
 20
36.175404
 11
-117.623566
 21
34.587688
  0
LINE
  8
0
 10
-112.123550
 20
34.587685
 11
-114.873535
 21
36.175396
  0
LINE
  8
0
 10
-132.873520
 20
29.999956
 11
-128.873520
 21
29.999956
  0
LINE
  8
0
 10
-117.623535
 20
34.587666
 11
-117.623535
 21
31.412243
  0
LINE
  8
0
 10
-128.873520
 20
79.999954
 11
-98.373520
 21
79.999954
  0
LINE
  8
0
 10
-163.373520
 20
79.999954
 11
-132.873520
 21
79.999954
  0
LINE
  8
0
 10
-128.873520
 20
79.999954
 11
-128.873520
 21
77.499954
  0
LINE
  8
0
 10
-132.873520
 20
79.999954
 11
-132.873520
 21
77.499954
  0
LINE
  8
0
 10
-132.373520
 20
76.999954
 11
-129.373520
 21
76.999954
  0
LINE
  8
0
 10
-112.123505
 20
31.412239
 11
-112.123505
 21
34.587662
  0
LINE
  8
0
 10
-114.873528
 20
29.824512
 11
-112.123535
 21
31.412222
  0
LINE
  8
0
 10
-145.873520
 20
71.999954
 11
-145.873520
 21
46.999958
  0
LINE
  8
0
 10
-144.123550
 20
31.412241
 11
-146.873550
 21
29.824528
  0
LINE
  8
0
 10
-144.123520
 20
34.587666
 11
-144.123520
 21
31.412243
  0
LINE
  8
0
 10
-146.873520
 20
36.175385
 11
-144.123535
 21
34.587677
  0
LINE
  8
0
 10
-149.623566
 20
34.587723
 11
-146.873566
 21
36.175438
  0
LINE
  8
0
 10
-149.623550
 20
31.412239
 11
-149.623550
 21
34.587662
  0
LINE
  8
0
 10
-146.873550
 20
29.824511
 11
-149.623535
 21
31.412218
  0
LINE
  8
0
 10
-115.873520
 20
71.999954
 11
-115.873520
 21
46.999958
  0
LINE
  8
0
 10
-145.873520
 20
46.999958
 11
-115.873520
 21
46.999958
  0
LINE
  8
0
 10
-145.873520
 20
71.999954
 11
-115.873520
 21
71.999954
  0
LINE
  8
0
 10
-117.623566
 20
31.412216
 11
-114.873581
 21
29.824507
  0
LINE
  8
0
  6
CENTER
 10
-149.873520
 20
76.999954
 11
-143.873520
 21
76.999954
  0
LINE
  8
0
  6
CENTER
 10
-146.873520
 20
79.999954
 11
-146.873520
 21
73.999954
  0
LINE
  8
0
  6
CENTER
 10
-111.873520
 20
76.999954
 11
-117.873520
 21
76.999954
  0
LINE
  8
0
  6
CENTER
 10
-114.873520
 20
79.999954
 11
-114.873520
 21
73.999954
  0
LINE
  8
0
 10
-98.373520
 20
79.999954
 11
-98.373520
 21
69.999954
  0
LINE
  8
0
  6
CENTER
 10
-140.873520
 20
64.499954
 11
-140.873520
 21
57.499958
  0
LINE
  8
0
  6
CENTER
 10
-144.373520
 20
60.999958
 11
-137.373520
 21
60.999958
  0
LINE
  8
0
  6
CENTER
 10
-144.373520
 20
52.999958
 11
-137.373520
 21
52.999958
  0
LINE
  8
0
  6
CENTER
 10
-140.873520
 20
56.499958
 11
-140.873520
 21
49.499958
  0
LINE
  8
0
  6
CENTER
 10
-117.373520
 20
52.999958
 11
-124.373520
 21
52.999958
  0
LINE
  8
0
  6
CENTER
 10
-120.873520
 20
56.499958
 11
-120.873520
 21
49.499958
  0
LINE
  8
0
  6
CENTER
 10
-117.373520
 20
60.999958
 11
-124.373520
 21
60.999958
  0
LINE
  8
0
  6
CENTER
 10
-120.873520
 20
64.499954
 11
-120.873520
 21
57.499958
  0
LINE
  8
0
  6
CENTER
 10
-146.873520
 20
37.999958
 11
-146.873520
 21
27.999956
  0
LINE
  8
0
  6
CENTER
 10
-151.873520
 20
32.999958
 11
-141.873520
 21
32.999958
  0
LINE
  8
0
  6
CENTER
 10
-114.873520
 20
37.999958
 11
-114.873520
 21
27.999956
  0
LINE
  8
0
  6
CENTER
 10
-109.873520
 20
32.999958
 11
-119.873520
 21
32.999958
  0
LINE
  8
0
 10
-132.873566
 20
163.999969
 11
-132.873566
 21
159.999969
  0
LINE
  8
0
 10
-127.373566
 20
159.999969
 11
-127.373566
 21
149.999969
  0
LINE
  8
0
 10
-115.873566
 20
139.999969
 11
-145.873566
 21
139.999969
  0
LINE
  8
0
 10
-115.873566
 20
145.999969
 11
-115.873566
 21
139.999969
  0
LINE
  8
0
 10
-145.873566
 20
145.999969
 11
-145.873566
 21
139.999969
  0
LINE
  8
0
 10
-134.373566
 20
159.999969
 11
-134.373566
 21
149.999969
  0
LINE
  8
0
 10
-163.373566
 20
145.999969
 11
-163.373566
 21
185.999969
  0
LINE
  8
0
 10
-98.373566
 20
145.999969
 11
-98.373566
 21
185.999969
  0
LINE
  8
0
 10
-99.373566
 20
165.999969
 11
-162.373566
 21
165.999969
  0
LINE
  8
0
 10
-128.873566
 20
149.999969
 11
-128.873566
 21
145.999969
  0
LINE
  8
0
 10
-98.373566
 20
145.999969
 11
-163.373566
 21
145.999969
  0
LINE
  8
0
 10
-98.373566
 20
163.999969
 11
-163.373566
 21
163.999969
  0
LINE
  8
0
 10
-132.873566
 20
149.999969
 11
-132.873566
 21
145.999969
  0
LINE
  8
0
 10
-98.373566
 20
185.999969
 11
-163.373566
 21
185.999969
  0
LINE
  8
0
 10
-127.373566
 20
159.999969
 11
-134.373566
 21
159.999969
  0
LINE
  8
0
 10
-127.373566
 20
149.999969
 11
-134.373566
 21
149.999969
  0
LINE
  8
0
 10
-128.873566
 20
163.999969
 11
-128.873566
 21
159.999969
  0
LINE
  8
0
  6
CENTER
 10
-156.873566
 20
157.999969
 11
-156.873566
 21
151.999969
  0
LINE
  8
0
  6
CENTER
 10
-104.873566
 20
157.999969
 11
-104.873566
 21
151.999969
  0
LINE
  8
0
 10
-263.873535
 20
66.499985
 11
-267.873535
 21
66.499985
  0
LINE
  8
0
 10
-262.873535
 20
68.999985
 11
-262.873535
 21
67.499985
  0
LINE
  8
0
 10
-268.873535
 20
69.000000
 11
-268.873535
 21
67.500000
  0
LINE
  8
0
 10
-262.873474
 20
67.499931
 11
-263.873474
 21
66.499931
  0
LINE
  8
0
 10
-267.873474
 20
66.500031
 11
-268.873474
 21
67.500031
  0
LINE
  8
0
 10
-250.873535
 20
46.999981
 11
-251.873535
 21
46.999981
  0
LINE
  8
0
 10
-253.873535
 20
64.999985
 11
-253.873535
 21
48.999981
  0
LINE
  8
0
 10
-258.873535
 20
69.999985
 11
-258.873535
 21
68.999985
  0
LINE
  8
0
 10
-267.373535
 20
69.999985
 11
-267.373535
 21
68.999985
  0
LINE
  8
0
 10
-264.373535
 20
69.999985
 11
-264.373535
 21
68.999985
  0
LINE
  8
0
 10
-264.644043
 20
69.999985
 11
-264.644043
 21
68.999985
  0
LINE
  8
0
 10
-279.873535
 20
36.643864
 11
-279.873535
 21
30.000000
  0
LINE
  8
0
 10
-274.873535
 20
29.999979
 11
-279.873535
 21
29.999979
  0
LINE
  8
0
 10
-274.873535
 20
39.999981
 11
-274.873535
 21
30.000000
  0
LINE
  8
0
 10
-256.873535
 20
79.999969
 11
-274.873535
 21
79.999969
  0
LINE
  8
0
 10
-256.873535
 20
79.999969
 11
-256.873535
 21
73.999969
  0
LINE
  8
0
 10
-256.873535
 20
73.999969
 11
-269.873535
 21
73.999969
  0
LINE
  8
0
 10
-274.873535
 20
79.999969
 11
-274.873535
 21
73.999969
  0
LINE
  8
0
 10
-274.873535
 20
73.999969
 11
-276.873535
 21
73.999969
  0
LINE
  8
0
 10
-296.873535
 20
59.577267
 11
-296.873535
 21
50.941795
  0
LINE
  8
0
 10
-276.873535
 20
73.999947
 11
-292.254456
 21
66.827705
  0
LINE
  8
0
 10
-274.873505
 20
39.999977
 11
-290.563965
 21
47.316559
  0
LINE
  8
0
 10
-281.028290
 20
38.456520
 11
-292.254486
 21
43.691372
  0
LINE
  8
0
 10
-292.873535
 20
59.577267
 11
-292.873535
 21
50.941795
  0
LINE
  8
0
 10
-272.666321
 20
71.548279
 11
-290.563965
 21
63.202473
  0
LINE
  8
0
 10
-269.873627
 20
74.000046
 11
-271.528503
 21
72.345184
  0
LINE
  8
0
 10
-256.873535
 20
36.175404
 11
-256.873535
 21
29.824553
  0
LINE
  8
0
 10
-267.103027
 20
69.999985
 11
-267.103027
 21
68.999985
  0
LINE
  8
0
 10
-258.873535
 20
69.999985
 11
-270.873535
 21
69.999985
  0
LINE
  8
0
 10
-256.873535
 20
36.175404
 11
-255.119171
 21
36.175404
  0
LINE
  8
0
 10
-256.873535
 20
34.587692
 11
-255.119171
 21
34.587692
  0
LINE
  8
0
 10
-256.873535
 20
31.412266
 11
-255.119171
 21
31.412266
  0
LINE
  8
0
 10
-256.873535
 20
29.824553
 11
-255.119171
 21
29.824553
  0
LINE
  8
0
 10
-254.873535
 20
35.749981
 11
-254.873535
 21
30.249979
  0
LINE
  8
0
 10
-254.873550
 20
35.749996
 11
-255.119171
 21
36.175426
  0
LINE
  8
0
 10
-254.873520
 20
30.249979
 11
-255.119141
 21
29.824551
  0
LINE
  8
0
 10
-262.873535
 20
68.999985
 11
-268.873535
 21
68.999985
  0
LINE
  8
0
 10
-269.373352
 20
71.999847
 11
-270.873352
 21
70.499847
  0
LINE
  8
0
 10
-250.873535
 20
71.999985
 11
-250.873535
 21
46.999981
  0
LINE
  8
0
 10
-250.873535
 20
71.999985
 11
-269.373535
 21
71.999985
  0
LINE
  8
0
 10
-270.873535
 20
70.499985
 11
-270.873535
 21
69.999985
  0
LINE
  8
0
 10
-257.873535
 20
68.999985
 11
-258.873535
 21
68.999985
  0
LINE
  8
0
  6
CENTER
 10
-247.873535
 20
60.999981
 11
-256.873535
 21
60.999981
  0
LINE
  8
0
  6
CENTER
 10
-247.873535
 20
52.999981
 11
-256.873535
 21
52.999981
  0
LINE
  8
0
 10
214.999985
 20
51.499973
 11
254.999985
 21
51.499973
  0
LINE
  8
0
 10
254.999985
 20
81.499969
 11
254.999985
 21
51.499973
  0
LINE
  8
0
 10
237.499985
 20
27.999973
 11
232.499985
 21
27.999973
  0
LINE
  8
0
 10
194.999985
 20
91.999969
 11
232.499985
 21
91.999969
  0
LINE
  8
0
 10
275.000000
 20
91.999969
 11
275.000000
 21
78.999969
  0
LINE
  8
0
 10
194.999985
 20
91.999969
 11
194.999985
 21
78.999969
  0
LINE
  8
0
 10
237.499985
 20
91.999969
 11
237.499985
 21
88.699966
  0
LINE
  8
0
 10
232.499985
 20
91.999969
 11
232.499985
 21
88.699966
  0
LINE
  8
0
 10
232.999985
 20
88.199966
 11
236.999985
 21
88.199966
  0
LINE
  8
0
 10
237.499985
 20
91.999969
 11
275.000000
 21
91.999969
  0
LINE
  8
0
 10
255.000031
 20
27.958464
 11
258.500031
 21
29.979185
  0
LINE
  8
0
 10
195.999985
 20
83.499969
 11
274.000000
 21
83.499969
  0
LINE
  8
0
 10
218.500046
 20
29.979195
 11
215.000046
 21
27.958473
  0
LINE
  8
0
 10
218.500015
 20
34.020687
 11
218.500015
 21
29.979256
  0
LINE
  8
0
 10
215.000000
 20
36.041458
 11
218.499969
 21
34.020752
  0
LINE
  8
0
 10
211.500015
 20
34.020664
 11
214.999985
 21
36.041378
  0
LINE
  8
0
 10
211.499954
 20
29.979252
 11
211.499954
 21
34.020687
  0
LINE
  8
0
 10
214.999985
 20
27.958511
 11
211.500000
 21
29.979233
  0
LINE
  8
0
 10
214.999985
 20
81.499969
 11
214.999985
 21
51.499973
  0
LINE
  8
0
 10
214.999985
 20
81.499969
 11
254.999985
 21
81.499969
  0
LINE
  8
0
 10
251.500046
 20
29.979280
 11
255.000031
 21
27.958559
  0
LINE
  8
0
 10
251.499954
 20
34.020687
 11
251.499954
 21
29.979256
  0
LINE
  8
0
 10
255.000031
 20
36.041397
 11
251.500031
 21
34.020676
  0
LINE
  8
0
 10
258.500000
 20
34.020775
 11
255.000046
 21
36.041481
  0
LINE
  8
0
 10
258.500000
 20
29.979252
 11
258.500000
 21
34.020687
  0
LINE
  8
0
  6
CENTER
 10
214.999985
 20
37.999973
 11
214.999985
 21
25.999973
  0
LINE
  8
0
  6
CENTER
 10
208.999985
 20
31.999973
 11
220.999985
 21
31.999973
  0
LINE
  8
0
  6
CENTER
 10
261.000000
 20
31.999973
 11
248.999985
 21
31.999973
  0
LINE
  8
0
  6
CENTER
 10
254.999985
 20
37.999973
 11
254.999985
 21
25.999973
  0
LINE
  8
0
  6
CENTER
 10
217.999985
 20
70.499969
 11
226.999985
 21
70.499969
  0
LINE
  8
0
  6
CENTER
 10
222.499985
 20
74.999969
 11
222.499985
 21
65.999969
  0
LINE
  8
0
  6
CENTER
 10
217.999985
 20
58.499973
 11
226.999985
 21
58.499973
  0
LINE
  8
0
  6
CENTER
 10
222.499985
 20
62.999973
 11
222.499985
 21
53.999973
  0
LINE
  8
0
  6
CENTER
 10
251.999985
 20
58.499973
 11
242.999985
 21
58.499973
  0
LINE
  8
0
  6
CENTER
 10
247.499985
 20
62.999973
 11
247.499985
 21
53.999973
  0
LINE
  8
0
  6
CENTER
 10
251.999985
 20
70.499969
 11
242.999985
 21
70.499969
  0
LINE
  8
0
  6
CENTER
 10
247.499985
 20
74.999969
 11
247.499985
 21
65.999969
  0
LINE
  8
0
  6
CENTER
 10
259.500000
 20
87.999969
 11
250.499985
 21
87.999969
  0
LINE
  8
0
  6
CENTER
 10
254.999985
 20
92.499969
 11
254.999985
 21
83.499969
  0
LINE
  8
0
  6
CENTER
 10
210.499985
 20
87.999969
 11
219.499985
 21
87.999969
  0
LINE
  8
0
  6
CENTER
 10
214.999985
 20
92.499969
 11
214.999985
 21
83.499969
  0
LINE
  8
0
 10
232.500137
 20
152.000046
 11
232.500137
 21
157.500046
  0
LINE
  8
0
 10
232.500137
 20
172.500046
 11
232.500137
 21
178.000046
  0
LINE
  8
0
 10
237.500137
 20
172.500046
 11
237.500137
 21
178.000046
  0
LINE
  8
0
 10
239.300140
 20
157.500046
 11
239.300140
 21
172.500046
  0
LINE
  8
0
 10
255.000137
 20
146.000046
 11
215.000137
 21
146.000046
  0
LINE
  8
0
 10
255.000137
 20
152.000046
 11
255.000137
 21
146.000046
  0
LINE
  8
0
 10
215.000137
 20
152.000046
 11
215.000137
 21
146.000046
  0
LINE
  8
0
 10
275.000122
 20
152.000046
 11
195.000137
 21
152.000046
  0
LINE
  8
0
 10
195.000137
 20
201.500046
 11
195.000137
 21
152.000046
  0
LINE
  8
0
 10
275.000122
 20
201.500046
 11
275.000122
 21
152.000046
  0
LINE
  8
0
 10
275.000122
 20
201.500046
 11
195.000137
 21
201.500046
  0
LINE
  8
0
 10
230.700134
 20
157.500046
 11
230.700134
 21
172.500046
  0
LINE
  8
0
 10
275.000122
 20
178.000046
 11
195.000137
 21
178.000046
  0
LINE
  8
0
 10
239.300140
 20
157.500046
 11
230.700134
 21
157.500046
  0
LINE
  8
0
 10
239.300140
 20
172.500046
 11
230.700134
 21
172.500046
  0
LINE
  8
0
 10
237.500137
 20
152.000046
 11
237.500137
 21
157.500046
  0
LINE
  8
0
  6
CENTER
 10
202.500137
 20
168.500046
 11
202.500137
 21
161.500046
  0
LINE
  8
0
  6
CENTER
 10
267.500122
 20
168.500046
 11
267.500122
 21
161.500046
  0
LINE
  8
0
 10
103.500008
 20
78.999985
 11
87.000008
 21
78.999985
  0
LINE
  8
0
 10
91.250008
 20
77.999985
 11
91.250008
 21
76.499985
  0
LINE
  8
0
 10
98.750008
 20
77.999985
 11
98.750008
 21
76.499985
  0
LINE
  8
0
 10
98.750008
 20
77.999985
 11
91.250008
 21
77.999985
  0
LINE
  8
0
 10
96.750023
 20
74.499977
 11
93.250023
 21
74.499977
  0
LINE
  8
0
 10
97.000008
 20
78.999985
 11
97.000008
 21
77.999985
  0
LINE
  8
0
 10
96.621010
 20
78.999985
 11
96.621010
 21
77.999985
  0
LINE
  8
0
 10
93.379005
 20
78.999985
 11
93.379005
 21
77.999985
  0
LINE
  8
0
 10
88.999985
 20
81.499962
 11
86.999985
 21
79.499962
  0
LINE
  8
0
 10
93.000008
 20
78.999985
 11
93.000008
 21
77.999985
  0
LINE
  8
0
 10
108.000008
 20
36.041439
 11
110.487389
 21
36.041439
  0
LINE
  8
0
 10
110.800011
 20
35.499985
 11
110.800011
 21
28.499985
  0
LINE
  8
0
 10
108.000008
 20
34.020702
 11
110.487404
 21
34.020702
  0
LINE
  8
0
 10
108.000008
 20
29.979244
 11
110.487404
 21
29.979244
  0
LINE
  8
0
 10
110.800079
 20
35.500015
 11
110.487465
 21
36.041477
  0
LINE
  8
0
 10
110.800064
 20
28.499950
 11
110.487457
 21
27.958500
  0
LINE
  8
0
 10
108.000008
 20
27.958530
 11
110.487389
 21
27.958530
  0
LINE
  8
0
 10
108.000008
 20
36.041439
 11
108.000008
 21
27.958530
  0
LINE
  8
0
 10
108.000023
 20
91.999985
 11
82.000023
 21
91.999985
  0
LINE
  8
0
 10
76.000008
 20
37.506802
 11
76.000008
 21
27.999985
  0
LINE
  8
0
 10
82.000008
 20
27.999985
 11
76.000008
 21
27.999985
  0
LINE
  8
0
 10
108.000008
 20
91.999985
 11
108.000008
 21
83.999985
  0
LINE
  8
0
 10
58.500008
 20
66.171051
 11
58.500008
 21
53.312027
  0
LINE
  8
0
 10
108.000023
 20
83.999985
 11
88.000008
 21
83.999985
  0
LINE
  8
0
 10
82.000008
 20
91.999985
 11
82.000008
 21
84.137054
  0
LINE
  8
0
 10
83.002106
 20
79.002060
 11
88.000038
 21
83.999992
  0
LINE
  8
0
 10
64.273834
 20
75.234146
 11
81.422630
 21
83.230759
  0
LINE
  8
0
 10
66.386894
 20
71.254280
 11
83.002075
 21
79.002068
  0
LINE
  8
0
 10
63.500008
 20
66.722740
 11
63.500008
 21
53.312027
  0
LINE
  8
0
 10
66.386932
 20
48.780506
 11
82.000023
 21
41.500004
  0
LINE
  8
0
 10
82.000008
 20
41.499985
 11
82.000008
 21
27.999985
  0
LINE
  8
0
 10
64.273811
 20
44.248970
 11
74.845238
 21
39.319435
  0
LINE
  8
0
 10
114.000008
 20
81.499985
 11
114.000008
 21
51.499985
  0
LINE
  8
0
 10
114.000008
 20
81.499985
 11
89.000008
 21
81.499985
  0
LINE
  8
0
 10
114.000008
 20
51.499985
 11
113.000008
 21
51.499985
  0
LINE
  8
0
 10
111.000008
 20
74.499985
 11
111.000008
 21
53.499985
  0
LINE
  8
0
 10
87.000008
 20
79.499985
 11
87.000008
 21
78.999985
  0
LINE
  8
0
 10
107.000008
 20
78.499985
 11
103.500008
 21
78.499985
  0
LINE
  8
0
 10
103.500008
 20
78.999985
 11
103.500008
 21
78.499985
  0
LINE
  8
0
  6
CENTER
 10
117.000008
 20
70.499985
 11
108.000008
 21
70.499985
  0
LINE
  8
0
  6
CENTER
 10
117.000008
 20
58.499985
 11
108.000008
 21
58.499985
  0
LINE
  8
0
 10
73.126411
 20
-219.867859
 11
69.126404
 21
-222.177261
  0
LINE
  8
0
 10
69.126442
 20
-222.177246
 11
65.126442
 21
-219.867844
  0
LINE
  8
0
 10
47.126446
 20
-222.558487
 11
41.126446
 21
-222.558487
  0
LINE
  8
0
 10
-5.873554
 20
-146.558487
 11
41.126446
 21
-146.558487
  0
LINE
  8
0
 10
-5.873554
 20
-156.558487
 11
94.126450
 21
-156.558487
  0
LINE
  8
0
 10
94.126450
 20
-162.558472
 11
94.126450
 21
-146.558487
  0
LINE
  8
0
 10
-5.873554
 20
-162.558472
 11
-5.873554
 21
-146.558487
  0
LINE
  8
0
 10
19.126446
 20
-204.558472
 11
19.126446
 21
-159.558472
  0
LINE
  8
0
 10
65.126450
 20
-219.867874
 11
65.126450
 21
-215.249084
  0
LINE
  8
0
 10
41.126446
 20
-150.558487
 11
41.126446
 21
-146.558487
  0
LINE
  8
0
 10
47.126446
 20
-150.558487
 11
47.126446
 21
-146.558487
  0
LINE
  8
0
 10
42.126446
 20
-151.558487
 11
46.126446
 21
-151.558487
  0
LINE
  8
0
 10
47.126446
 20
-146.558487
 11
94.126450
 21
-146.558487
  0
LINE
  8
0
 10
65.126442
 20
-215.249084
 11
69.126442
 21
-212.939667
  0
LINE
  8
0
 10
69.126450
 20
-212.939682
 11
73.126450
 21
-215.249084
  0
LINE
  8
0
 10
73.126450
 20
-215.249084
 11
73.126450
 21
-219.867874
  0
LINE
  8
0
 10
19.126446
 20
-159.558472
 11
69.126450
 21
-159.558472
  0
LINE
  8
0
 10
19.126446
 20
-204.558472
 11
69.126450
 21
-204.558472
  0
LINE
  8
0
 10
15.126420
 20
-219.867905
 11
19.126429
 21
-222.177322
  0
LINE
  8
0
 10
19.126455
 20
-222.177338
 11
23.126457
 21
-219.867935
  0
LINE
  8
0
 10
23.126446
 20
-219.867874
 11
23.126446
 21
-215.249084
  0
LINE
  8
0
 10
23.126432
 20
-215.249084
 11
19.126436
 21
-212.939682
  0
LINE
  8
0
 10
19.126465
 20
-212.939774
 11
15.126461
 21
-215.249176
  0
LINE
  8
0
 10
15.126453
 20
-215.249084
 11
15.126453
 21
-219.867874
  0
LINE
  8
0
  6
CENTER
 10
61.626446
 20
-169.558472
 11
61.626446
 21
-179.558472
  0
LINE
  8
0
  6
CENTER
 10
14.126446
 20
-151.558487
 11
24.126446
 21
-151.558487
  0
LINE
  8
0
  6
CENTER
 10
19.126446
 20
-146.558487
 11
19.126446
 21
-156.558487
  0
LINE
  8
0
  6
CENTER
 10
74.126450
 20
-151.558487
 11
64.126450
 21
-151.558487
  0
LINE
  8
0
  6
CENTER
 10
69.126450
 20
-146.558487
 11
69.126450
 21
-156.558487
  0
LINE
  8
0
 10
69.126450
 20
-204.558472
 11
69.126450
 21
-159.558472
  0
LINE
  8
0
  6
CENTER
 10
66.626450
 20
-174.558472
 11
56.626446
 21
-174.558472
  0
LINE
  8
0
  6
CENTER
 10
61.626446
 20
-189.558472
 11
61.626446
 21
-199.558472
  0
LINE
  8
0
  6
CENTER
 10
66.626450
 20
-194.558472
 11
56.626446
 21
-194.558472
  0
LINE
  8
0
  6
CENTER
 10
26.626446
 20
-189.558472
 11
26.626446
 21
-199.558472
  0
LINE
  8
0
  6
CENTER
 10
21.626446
 20
-194.558472
 11
31.626446
 21
-194.558472
  0
LINE
  8
0
  6
CENTER
 10
26.626446
 20
-169.558472
 11
26.626446
 21
-179.558472
  0
LINE
  8
0
  6
CENTER
 10
21.626446
 20
-174.558472
 11
31.626446
 21
-174.558472
  0
LINE
  8
0
  6
CENTER
 10
19.126446
 20
-210.558487
 11
19.126446
 21
-224.558487
  0
LINE
  8
0
  6
CENTER
 10
12.126446
 20
-217.558487
 11
26.126446
 21
-217.558487
  0
LINE
  8
0
  6
CENTER
 10
69.126450
 20
-210.558487
 11
69.126450
 21
-224.558487
  0
LINE
  8
0
  6
CENTER
 10
76.126450
 20
-217.558487
 11
62.126446
 21
-217.558487
  0
LINE
  8
0
 10
94.126434
 20
-55.558472
 11
-5.873566
 21
-55.558472
  0
LINE
  8
0
 10
94.126434
 20
-34.558472
 11
-5.873566
 21
-34.558472
  0
LINE
  8
0
 10
69.126434
 20
-96.558479
 11
19.126434
 21
-96.558479
  0
LINE
  8
0
 10
-5.873566
 20
-34.558472
 11
-5.873566
 21
-87.558479
  0
LINE
  8
0
 10
94.126434
 20
-34.558472
 11
94.126434
 21
-87.558479
  0
LINE
  8
0
 10
47.126434
 20
-61.558479
 11
47.126434
 21
-67.058479
  0
LINE
  8
0
 10
41.126434
 20
-61.558479
 11
41.126434
 21
-67.058479
  0
LINE
  8
0
 10
94.126434
 20
-87.558479
 11
-5.873566
 21
-87.558479
  0
LINE
  8
0
 10
94.126434
 20
-61.558479
 11
-5.873566
 21
-61.558479
  0
LINE
  8
0
 10
49.426437
 20
-82.058479
 11
38.826431
 21
-82.058479
  0
LINE
  8
0
 10
49.426437
 20
-67.058479
 11
38.826431
 21
-67.058479
  0
LINE
  8
0
 10
38.826431
 20
-82.058479
 11
38.826431
 21
-67.058479
  0
LINE
  8
0
 10
49.426437
 20
-82.058479
 11
49.426437
 21
-67.058479
  0
LINE
  8
0
 10
41.126434
 20
-82.058479
 11
41.126434
 21
-87.558479
  0
LINE
  8
0
 10
47.126434
 20
-82.058479
 11
47.126434
 21
-87.558479
  0
LINE
  8
0
 10
69.126434
 20
-87.558479
 11
69.126434
 21
-96.558479
  0
LINE
  8
0
 10
19.126434
 20
-87.558479
 11
19.126434
 21
-96.558479
  0
LINE
  8
0
  6
CENTER
 10
4.126434
 20
-79.058479
 11
4.126434
 21
-70.058479
  0
LINE
  8
0
  6
CENTER
 10
84.126419
 20
-79.058495
 11
84.126419
 21
-70.058495
  0
LINE
  8
0
 10
-120.873566
 20
-162.558487
 11
-137.873566
 21
-162.558487
  0
LINE
  8
0
 10
-143.873566
 20
-222.558472
 11
-143.873566
 21
-206.558502
  0
LINE
  8
0
 10
-127.123566
 20
-163.558487
 11
-134.623566
 21
-163.558487
  0
LINE
  8
0
 10
-127.123566
 20
-165.058472
 11
-127.123566
 21
-163.558472
  0
LINE
  8
0
 10
-134.623566
 20
-165.058472
 11
-134.623566
 21
-163.558472
  0
LINE
  8
0
 10
-129.123550
 20
-167.058487
 11
-132.623550
 21
-167.058487
  0
LINE
  8
0
 10
-129.252563
 20
-163.558487
 11
-129.252563
 21
-162.558487
  0
LINE
  8
0
 10
-132.494568
 20
-163.558487
 11
-132.494568
 21
-162.558487
  0
LINE
  8
0
 10
-112.873566
 20
-201.558487
 11
-112.873566
 21
-170.058487
  0
LINE
  8
0
 10
-117.873550
 20
-146.558502
 11
-143.873550
 21
-146.558502
  0
LINE
  8
0
 10
-117.873566
 20
-146.558502
 11
-117.873566
 21
-156.558502
  0
LINE
  8
0
 10
-117.873550
 20
-156.558502
 11
-134.558273
 21
-156.558502
  0
LINE
  8
0
 10
-170.873566
 20
-175.611053
 11
-170.873566
 21
-194.083282
  0
LINE
  8
0
 10
-143.873566
 20
-222.558502
 11
-150.873566
 21
-222.558502
  0
LINE
  8
0
 10
-150.873566
 20
-222.558472
 11
-150.873566
 21
-213.135849
  0
LINE
  8
0
 10
-143.873566
 20
-146.558502
 11
-143.873566
 21
-156.558502
  0
LINE
  8
0
 10
-135.131836
 20
-156.739380
 11
-144.612335
 21
-163.377701
  0
LINE
  8
0
 10
-145.185898
 20
-163.558502
 11
-149.997910
 21
-163.558502
  0
LINE
  8
0
 10
-143.873566
 20
-156.558502
 11
-148.265869
 21
-156.558502
  0
LINE
  8
0
 10
-151.265884
 20
-157.362396
 11
-164.873581
 21
-165.218796
  0
LINE
  8
0
 10
-149.997910
 20
-163.558533
 11
-161.873550
 21
-170.414932
  0
LINE
  8
0
 10
-164.873566
 20
-175.611053
 11
-164.873566
 21
-194.083282
  0
LINE
  8
0
 10
-143.873566
 20
-206.558502
 11
-149.265869
 21
-206.558502
  0
LINE
  8
0
 10
-151.373459
 20
-212.269684
 11
-164.873444
 21
-204.475464
  0
LINE
  8
0
 10
-149.265762
 20
-206.558365
 11
-161.873444
 21
-199.279327
  0
LINE
  8
0
 10
-117.873566
 20
-212.939697
 11
-114.730835
 21
-212.939697
  0
LINE
  8
0
 10
-117.873566
 20
-215.249100
 11
-114.730835
 21
-215.249100
  0
LINE
  8
0
 10
-117.873566
 20
-219.867889
 11
-114.730835
 21
-219.867889
  0
LINE
  8
0
 10
-114.373566
 20
-221.558502
 11
-114.373566
 21
-213.558502
  0
LINE
  8
0
 10
-114.373573
 20
-213.558487
 11
-114.730835
 21
-212.939697
  0
LINE
  8
0
 10
-114.373581
 20
-221.558533
 11
-114.730820
 21
-222.177277
  0
LINE
  8
0
 10
-117.873566
 20
-222.177307
 11
-114.730835
 21
-222.177307
  0
LINE
  8
0
 10
-117.873566
 20
-222.177307
 11
-117.873566
 21
-212.939697
  0
LINE
  8
0
 10
-132.873566
 20
-163.558487
 11
-132.873566
 21
-162.558487
  0
LINE
  8
0
  6
CENTER
 10
-105.873566
 20
-174.558487
 11
-115.873566
 21
-174.558487
  0
LINE
  8
0
 10
-137.873566
 20
-162.558487
 11
-137.873566
 21
-161.558487
  0
LINE
  8
0
 10
-108.873566
 20
-159.558487
 11
-135.873566
 21
-159.558487
  0
LINE
  8
0
 10
-108.873566
 20
-204.558487
 11
-109.873566
 21
-204.558487
  0
LINE
  8
0
 10
-135.873535
 20
-159.558487
 11
-137.873550
 21
-161.558487
  0
LINE
  8
0
 10
-128.873566
 20
-163.558487
 11
-128.873566
 21
-162.558487
  0
LINE
  8
0
 10
-120.873566
 20
-163.558487
 11
-120.873566
 21
-162.558487
  0
LINE
  8
0
 10
-119.373566
 20
-163.558487
 11
-120.873566
 21
-163.558487
  0
LINE
  8
0
 10
-108.873566
 20
-204.558487
 11
-108.873566
 21
-159.558487
  0
LINE
  8
0
  6
CENTER
 10
-105.873566
 20
-194.558487
 11
-115.873566
 21
-194.558487
  0
ARC
  8
0
 62
     5
 10
273.035400
 20
-235.045654
 40
2.211884
 50
0.000000
 51
90.000000
  0
ARC
  8
0
 62
     5
 10
291.283569
 20
-246.934647
 40
2.211899
 50
270.000000
 51
0.000000
  0
ARC
  8
0
 62
     5
 10
290.177551
 20
-236.151566
 40
3.317841
 50
0.000000
 51
90.000000
  0
ARC
  8
0
 62
     5
 10
310.361115
 20
-236.812775
 40
2.211890
 50
294.999969
 51
0.000000
  0
ARC
  8
0
 62
     5
 10
310.361115
 20
-235.045654
 40
2.211884
 50
0.000000
 51
90.000000
  0
ARC
  8
0
 62
     5
 10
327.503357
 20
-232.833755
 40
3.317840
 50
291.688385
 51
0.000000
  0
ARC
  8
0
 62
     5
 10
326.397308
 20
-232.083389
 40
1.105946
 50
291.688965
 51
0.000000
  0
ARC
  8
0
  6
PHANTOM
 10
-92.373566
 20
42.499966
 40
0.500000
 50
270.000000
 51
90.000000
  0
ARC
  8
0
  6
PHANTOM
 10
-169.373566
 20
42.499977
 40
0.500000
 50
90.000000
 51
270.000000
  0
ARC
  8
0
  6
PHANTOM
 10
-194.621277
 20
48.999981
 40
14.999996
 50
336.421844
 51
23.578167
  0
ARC
  8
0
  6
PHANTOM
 10
-167.883179
 20
62.499977
 40
15.000001
 50
150.000031
 51
209.999969
  0
ARC
  8
0
  6
PHANTOM
 10
-194.621307
 20
148.999969
 40
14.999993
 50
336.421875
 51
23.578180
  0
ARC
  8
0
  6
PHANTOM
 10
-167.125839
 20
160.999969
 40
14.999999
 50
156.421814
 51
203.578186
  0
ARC
  8
0
  6
PHANTOM
 10
-256.873566
 20
45.999989
 40
3.000000
 50
270.000000
 51
0.000000
  0
ARC
  8
0
  6
PHANTOM
 10
-256.873566
 20
63.999989
 40
3.000000
 50
0.000000
 51
90.000000
  0
ARC
  8
0
  6
PHANTOM
 10
-274.873566
 20
63.999992
 40
3.000000
 50
90.000000
 51
180.000000
  0
ARC
  8
0
  6
PHANTOM
 10
-274.873566
 20
45.999992
 40
3.000000
 50
180.000000
 51
270.000000
  0
ARC
  8
0
  6
PHANTOM
 10
-257.873566
 20
68.999985
 40
2.000000
 50
180.000000
 51
270.000000
  0
ARC
  8
0
  6
PHANTOM
 10
-273.873566
 20
68.999992
 40
2.000000
 50
270.000000
 51
0.000000
  0
ARC
  8
0
  6
PHANTOM
 10
-67.125839
 20
160.999969
 40
14.999998
 50
156.421753
 51
203.578064
  0
ARC
  8
0
  6
PHANTOM
 10
-94.621307
 20
148.999969
 40
14.999998
 50
336.421753
 51
23.578114
  0
ARC
  8
0
  6
PHANTOM
 10
-67.125824
 20
60.999962
 40
15.000000
 50
143.130096
 51
203.578094
  0
ARC
  8
0
  6
PHANTOM
 10
-93.863953
 20
47.499966
 40
15.000000
 50
342.542419
 51
29.999939
  0
ARC
  8
0
  6
PHANTOM
 10
-129.373566
 20
32.499977
 40
0.500000
 50
0.000000
 51
90.000000
  0
ARC
  8
0
  6
PHANTOM
 10
-132.373566
 20
32.499977
 40
0.500000
 50
90.000000
 51
180.000000
  0
ARC
  8
0
  6
PHANTOM
 10
187.000015
 20
43.499977
 40
1.000000
 50
90.000000
 51
270.000000
  0
ARC
  8
0
  6
PHANTOM
 10
283.000000
 20
43.499962
 40
1.000000
 50
270.000000
 51
90.000000
  0
ARC
  8
0
  6
PHANTOM
 10
276.562622
 20
52.249977
 40
20.000010
 50
337.201019
 51
22.798996
  0
ARC
  8
0
  6
PHANTOM
 10
312.599731
 20
69.499977
 40
20.000013
 50
151.640671
 51
208.359375
  0
ARC
  8
0
  6
PHANTOM
 10
276.562622
 20
157.249969
 40
20.000013
 50
337.200989
 51
22.799015
  0
ARC
  8
0
  6
PHANTOM
 10
313.437439
 20
172.749969
 40
20.000013
 50
157.200989
 51
202.799042
  0
ARC
  8
0
  6
PHANTOM
 10
107.500015
 20
47.499985
 40
3.000000
 50
270.000000
 51
0.000000
  0
ARC
  8
0
  6
PHANTOM
 10
107.500015
 20
72.499985
 40
3.000000
 50
0.000000
 51
90.000000
  0
ARC
  8
0
  6
PHANTOM
 10
82.500015
 20
72.499985
 40
3.000000
 50
90.000000
 51
180.000000
  0
ARC
  8
0
  6
PHANTOM
 10
82.500015
 20
47.499985
 40
3.000000
 50
180.000000
 51
270.000000
  0
ARC
  8
0
  6
PHANTOM
 10
105.000015
 20
77.499985
 40
2.000000
 50
180.000000
 51
270.000000
  0
ARC
  8
0
  6
PHANTOM
 10
85.000015
 20
77.499985
 40
2.000000
 50
270.000000
 51
0.000000
  0
ARC
  8
0
  6
PHANTOM
 10
192.599716
 20
69.499977
 40
20.000000
 50
151.640656
 51
208.359360
  0
ARC
  8
0
  6
PHANTOM
 10
156.562622
 20
52.249977
 40
19.999996
 50
337.200989
 51
22.799011
  0
ARC
  8
0
  6
PHANTOM
 10
156.562607
 20
157.249969
 40
20.000000
 50
337.200958
 51
22.799032
  0
ARC
  8
0
  6
PHANTOM
 10
193.437408
 20
172.749969
 40
20.000000
 50
157.200974
 51
202.799026
  0
ARC
  8
0
  6
PHANTOM
 10
233.000000
 20
31.299969
 40
0.500000
 50
90.000000
 51
180.000000
  0
ARC
  8
0
  6
PHANTOM
 10
237.000000
 20
31.299969
 40
0.500000
 50
0.000000
 51
90.000000
  0
ARC
  8
0
  6
PHANTOM
 10
104.126450
 20
-203.558502
 40
1.000000
 50
270.000000
 51
90.000000
  0
ARC
  8
0
  6
PHANTOM
 10
-15.873550
 20
-203.558487
 40
1.000000
 50
90.000000
 51
270.000000
  0
ARC
  8
0
  6
PHANTOM
 10
95.802643
 20
-193.558472
 40
25.000000
 50
338.899841
 51
21.100197
  0
ARC
  8
0
  6
PHANTOM
 10
141.576401
 20
-173.558487
 40
25.000000
 50
153.896118
 51
206.103882
  0
ARC
  8
0
  6
PHANTOM
 10
95.802628
 20
-83.558495
 40
24.999998
 50
338.899872
 51
21.100197
  0
ARC
  8
0
  6
PHANTOM
 10
142.450256
 20
-65.558495
 40
24.999998
 50
158.899811
 51
201.100189
  0
ARC
  8
0
  6
PHANTOM
 10
-118.873550
 20
-196.558472
 40
6.000000
 50
270.000000
 51
0.000000
  0
ARC
  8
0
  6
PHANTOM
 10
-118.873550
 20
-172.558472
 40
6.000000
 50
0.000000
 51
90.000000
  0
ARC
  8
0
  6
PHANTOM
 10
-142.873550
 20
-172.558472
 40
6.000000
 50
90.000000
 51
180.000000
  0
ARC
  8
0
  6
PHANTOM
 10
-142.873550
 20
-196.558472
 40
6.000000
 50
180.000000
 51
270.000000
  0
ARC
  8
0
  6
PHANTOM
 10
-142.873550
 20
-163.558472
 40
3.000000
 50
270.000000
 51
0.000000
  0
ARC
  8
0
  6
PHANTOM
 10
-118.873550
 20
-163.558472
 40
3.000000
 50
180.000000
 51
270.000000
  0
ARC
  8
0
  6
PHANTOM
 10
-8.423599
 20
-173.558487
 40
25.000002
 50
153.896118
 51
206.103882
  0
ARC
  8
0
  6
PHANTOM
 10
-54.197357
 20
-193.558472
 40
25.000000
 50
338.899841
 51
21.100197
  0
ARC
  8
0
  6
PHANTOM
 10
-7.549744
 20
-65.558495
 40
25.000002
 50
158.899811
 51
201.100189
  0
ARC
  8
0
  6
PHANTOM
 10
-54.197372
 20
-83.558495
 40
24.999998
 50
338.899872
 51
21.100197
  0
ARC
  8
0
  6
PHANTOM
 10
42.126434
 20
-218.558472
 40
1.000000
 50
90.000000
 51
180.000000
  0
ARC
  8
0
  6
PHANTOM
 10
46.126434
 20
-218.558472
 40
1.000000
 50
0.000000
 51
90.000000
  0
CIRCLE
  8
0
 10
-120.873520
 20
52.999958
 40
1.750000
  0
CIRCLE
  8
0
 10
-120.873520
 20
60.999958
 40
1.750000
  0
CIRCLE
  8
0
 10
-140.873520
 20
52.999958
 40
1.750000
  0
CIRCLE
  8
0
 10
-140.873520
 20
60.999958
 40
1.750000
  0
CIRCLE
  8
0
 10
-114.873520
 20
32.999958
 40
2.750008
  0
CIRCLE
  8
0
 10
-146.873520
 20
32.999958
 40
2.750008
  0
ARC
  8
0
 10
-129.373520
 20
77.499954
 40
0.500000
 50
270.000000
 51
0.000000
  0
ARC
  8
0
 10
-132.373520
 20
77.499954
 40
0.500000
 50
180.000000
 51
270.000000
  0
CIRCLE
  8
0
 10
-114.873520
 20
76.999954
 40
1.700000
  0
CIRCLE
  8
0
 10
-146.873520
 20
76.999954
 40
1.700000
  0
CIRCLE
  8
0
 10
-104.873566
 20
154.999969
 40
1.229500
  0
CIRCLE
  8
0
 10
-104.873566
 20
154.999969
 40
1.500000
  0
CIRCLE
  8
0
 10
-156.873566
 20
154.999969
 40
1.229500
  0
CIRCLE
  8
0
 10
-156.873566
 20
154.999969
 40
1.500000
  0
ARC
  8
0
 10
-251.873535
 20
48.999981
 40
2.000000
 50
180.000000
 51
270.000000
  0
ARC
  8
0
 10
-257.873535
 20
64.999985
 40
4.000000
 50
0.000000
 51
90.000000
  0
ARC
  8
0
 10
-256.279236
 20
30.618408
 40
1.405701
 50
0.000000
 51
34.384335
  0
ARC
  8
0
 10
-260.127930
 20
32.999981
 40
5.254393
 50
342.412079
 51
17.587889
  0
ARC
  8
0
 10
-256.279236
 20
35.381550
 40
1.405701
 50
325.615662
 51
0.000000
  0
ARC
  8
0
 10
-274.356842
 20
75.173538
 40
3.999993
 50
294.999847
 51
315.000000
  0
ARC
  8
0
 10
-281.873535
 20
36.643864
 40
2.000000
 50
0.000000
 51
64.999756
  0
ARC
  8
0
 10
-288.873535
 20
50.941795
 40
8.000000
 50
179.999969
 51
244.999969
  0
ARC
  8
0
 10
-288.873535
 20
59.577267
 40
8.000001
 50
115.000031
 51
179.999969
  0
ARC
  8
0
 10
-288.873535
 20
59.577267
 40
3.999996
 50
114.999825
 51
179.999939
  0
ARC
  8
0
 10
-288.873535
 20
50.941795
 40
4.000000
 50
180.000000
 51
245.000183
  0
CIRCLE
  8
0
 10
247.499985
 20
70.499969
 40
2.250000
  0
CIRCLE
  8
0
 10
247.499985
 20
58.499973
 40
2.250000
  0
CIRCLE
  8
0
 10
222.499985
 20
58.499973
 40
2.250000
  0
CIRCLE
  8
0
 10
222.499985
 20
70.499969
 40
2.250000
  0
CIRCLE
  8
0
 10
254.999985
 20
31.999973
 40
3.500000
  0
CIRCLE
  8
0
 10
214.999985
 20
31.999973
 40
3.500000
  0
ARC
  8
0
 10
236.999985
 20
88.699966
 40
0.500000
 50
270.000000
 51
0.000000
  0
ARC
  8
0
 10
232.999985
 20
88.699966
 40
0.500000
 50
180.000000
 51
270.000000
  0
CIRCLE
  8
0
 10
254.999985
 20
87.999969
 40
2.250000
  0
CIRCLE
  8
0
 10
214.999985
 20
87.999969
 40
2.250000
  0
CIRCLE
  8
0
 10
267.500122
 20
165.000046
 40
1.621000
  0
CIRCLE
  8
0
 10
267.500122
 20
165.000046
 40
2.000000
  0
CIRCLE
  8
0
 10
202.500137
 20
165.000046
 40
1.621000
  0
CIRCLE
  8
0
 10
202.500137
 20
165.000046
 40
2.000000
  0
ARC
  8
0
 10
107.000008
 20
74.499985
 40
4.000000
 50
0.000000
 51
90.000000
  0
ARC
  8
0
 10
113.000008
 20
53.499985
 40
2.000000
 50
180.000000
 51
270.000000
  0
ARC
  8
0
 10
81.000008
 20
84.137054
 40
1.000002
 50
294.999756
 51
0.000000
  0
ARC
  8
0
 10
68.500008
 20
53.312027
 40
10.000000
 50
179.999985
 51
245.000000
  0
ARC
  8
0
 10
68.500008
 20
66.171051
 40
10.000001
 50
114.999985
 51
179.999954
  0
ARC
  8
0
 10
68.500008
 20
66.722740
 40
5.000000
 50
114.999985
 51
180.000000
  0
ARC
  8
0
 10
68.500008
 20
53.312027
 40
5.000000
 50
180.000000
 51
245.000015
  0
ARC
  8
0
 10
74.000008
 20
37.506802
 40
2.000000
 50
0.000000
 51
64.999954
  0
ARC
  8
0
 10
109.010918
 20
28.968899
 40
1.789093
 50
0.000000
 51
34.384209
  0
ARC
  8
0
 10
109.010918
 20
35.031071
 40
1.789087
 50
325.615784
 51
0.000000
  0
ARC
  8
0
 10
104.112617
 20
31.999973
 40
6.687395
 50
342.412018
 51
17.587976
  0
ARC
  8
0
 10
96.750023
 20
76.499985
 40
2.000000
 50
270.000000
 51
0.000000
  0
ARC
  8
0
 10
93.250023
 20
76.499985
 40
2.000000
 50
180.000000
 51
270.000000
  0
CIRCLE
  8
0
 10
61.626446
 20
-194.558472
 40
2.800000
  0
CIRCLE
  8
0
 10
61.626446
 20
-174.558472
 40
2.800000
  0
CIRCLE
  8
0
 10
26.626446
 20
-194.558472
 40
2.800000
  0
CIRCLE
  8
0
 10
26.626446
 20
-174.558472
 40
2.800000
  0
CIRCLE
  8
0
 10
69.126450
 20
-217.558487
 40
4.000000
  0
CIRCLE
  8
0
 10
19.126446
 20
-217.558487
 40
4.000000
  0
ARC
  8
0
 10
46.126446
 20
-150.558487
 40
1.000000
 50
270.000000
 51
0.000000
  0
ARC
  8
0
 10
42.126446
 20
-150.558487
 40
1.000000
 50
180.000000
 51
270.000000
  0
CIRCLE
  8
0
 10
69.126450
 20
-151.558487
 40
2.750000
  0
CIRCLE
  8
0
 10
19.126446
 20
-151.558487
 40
2.750000
  0
CIRCLE
  8
0
 10
4.126434
 20
-74.558479
 40
2.067000
  0
CIRCLE
  8
0
 10
4.126434
 20
-74.558479
 40
2.500000
  0
CIRCLE
  8
0
 10
84.126419
 20
-74.558495
 40
2.067000
  0
CIRCLE
  8
0
 10
84.126419
 20
-74.558495
 40
2.500000
  0
ARC
  8
0
 10
-119.373566
 20
-170.058487
 40
6.500000
 50
0.000000
 51
90.000000
  0
ARC
  8
0
 10
-109.873566
 20
-201.558487
 40
3.000000
 50
180.000000
 51
270.000000
  0
ARC
  8
0
 10
-116.418228
 20
-221.022583
 40
2.044670
 50
0.000000
 51
34.384312
  0
ARC
  8
0
 10
-122.016190
 20
-217.558502
 40
7.642619
 50
342.411774
 51
17.588131
  0
ARC
  8
0
 10
-116.418228
 20
-214.094391
 40
2.044670
 50
325.615692
 51
0.000000
  0
ARC
  8
0
 10
-151.873566
 20
-213.135849
 40
1.000000
 50
0.000000
 51
60.000069
  0
ARC
  8
0
 10
-148.265869
 20
-162.558502
 40
6.000000
 50
90.000000
 51
120.000000
  0
ARC
  8
0
 10
-158.873566
 20
-194.083282
 40
12.000000
 50
180.000000
 51
240.000000
  0
ARC
  8
0
 10
-158.873566
 20
-175.611053
 40
11.999999
 50
120.000000
 51
180.000000
  0
ARC
  8
0
 10
-158.873566
 20
-175.611053
 40
6.000000
 50
120.000000
 51
180.000000
  0
ARC
  8
0
 10
-158.873566
 20
-194.083282
 40
6.000000
 50
180.000000
 51
240.000000
  0
ARC
  8
0
 10
-145.185898
 20
-162.558502
 40
1.000000
 50
270.000000
 51
305.000031
  0
ARC
  8
0
 10
-134.558273
 20
-157.558502
 40
1.000000
 50
90.000000
 51
125.000038
  0
ARC
  8
0
 10
-132.623550
 20
-165.058472
 40
2.000000
 50
180.000000
 51
270.000000
  0
ARC
  8
0
 10
-129.123550
 20
-165.058472
 40
2.000000
 50
270.000000
 51
0.000000
  0
TEXT
  8
0
 10
226.462494
 20
233.607468
 40
8.500000
  1
DATE : OCT ,1991
 50
0.000000
 41
1.052631
 51
0.000000
  7
STANDARD
  0
TEXT
  8
0
 10
13.821430
 20
222.956390
 40
10.000000
  1
BORE : 20
 50
0.000000
 41
1.052632
 51
0.000000
  7
STANDARD
  0
TEXT
  8
0
 10
-207.052139
 20
222.956390
 40
10.000000
  1
BORE : 16
 50
0.000000
 41
1.052632
 51
0.000000
  7
STANDARD
  0
TEXT
  8
0
 10
-357.052124
 20
-36.602112
 40
10.000000
  1
BORE : 25
 50
0.000000
 41
1.052632
 51
0.000000
  7
STANDARD
  0
TEXT
  8
0
 10
-365.779938
 20
232.257462
 40
10.000000
  1
ORCA G SUPPORT
 50
0.000000
 41
1.052632
 51
0.000000
  7
STANDARD
  0
ENDSEC
  0
EOF
