  0
SECTION
  2
HEADER
  0
ENDSEC
  0
SECTION
  2
TABLES
  0
TABLE
  2
LTYPE
 70
     4
  0
LTYPE
  2
CONTINUOUS
 70
    64
  3
Solid line
 72
    65
 73
     0
 40
0.000000
  0
LTYPE
  2
DASHED
 70
    64
  3
__ __ __ __ __ __ __ __ __ __ __ __ __ __ __
 72
    65
 73
     2
 40
3.500000
 49
2.000000
 49
-1.500000
  0
LTYPE
  2
CENTER
 70
    64
  3
____ _ ____ _ ____ _ ____ _ ____ _ ____ _ ____
 72
    65
 73
     4
 40
17.500000
 49
13.000000
 49
-1.500000
 49
1.500000
 49
-1.500000
  0
LTYPE
  2
PHANTOM
 70
    64
  3
_____ _ _ _____ _ _ _____ _ _ _____ _ _ ____  
 72
    65
 73
     6
 40
15.500000
 49
8.000000
 49
-1.500000
 49
1.500000
 49
-1.500000
 49
1.500000
 49
-1.500000
  0
LTYPE
  2
DASHED1
 70
    64
  3
__ __ __ __ __ __ __ __ __ __ __ __ __ __ __
 72
    65
 73
     2
 40
1.500000
 49
1.000000
 49
-0.500000
  0
LTYPE
  2
DASHED2
 70
    64
  3
__ __ __ __ __ __ __ __ __ __ __ __ __ __ __
 72
    65
 73
     2
 40
3.500000
 49
2.500000
 49
-1.000000
  0
LTYPE
  2
DASHED3
 70
    64
  3
__ __ __ __ __ __ __ __ __ __ __ __ __ __ __
 72
    65
 73
     2
 40
6.000000
 49
4.000000
 49
-2.000000
  0
LTYPE
  2
DASHED4
 70
    64
  3
__ __ __ __ __ __ __ __ __ __ __ __ __ __ __
 72
    65
 73
     2
 40
12.000000
 49
10.000000
 49
-2.000000
  0
LTYPE
  2
DASHED5
 70
    64
  3
__ __ __ __ __ __ __ __ __ __ __ __ __ __ __
 72
    65
 73
     2
 40
17.000000
 49
15.000000
 49
-2.000000
  0
LTYPE
  2
DASHED6
 70
    64
  3
__ __ __ __ __ __ __ __ __ __ __ __ __ __ __
 72
    65
 73
     2
 40
29.000000
 49
27.000000
 49
-2.000000
  0
LTYPE
  2
PHANTOM1
 70
    64
  3
_____ _ _ _____ _ _ _____ _ _ _____ _ _ ____  
 72
    65
 73
     6
 40
31.000000
 49
25.000000
 49
-1.500000
 49
1.000000
 49
-1.000000
 49
1.000000
 49
-1.500000
  0
LTYPE
  2
PHANTOM2
 70
    64
  3
_____ _ _ _____ _ _ _____ _ _ _____ _ _ ____  
 72
    65
 73
     6
 40
36.000000
 49
27.000000
 49
-1.500000
 49
2.500000
 49
-1.000000
 49
2.500000
 49
-1.500000
  0
LTYPE
  2
PHANTOM3
 70
    64
  3
_____ _ _ _____ _ _ _____ _ _ _____ _ _ ____  
 72
    65
 73
     6
 40
78.000000
 49
64.000000
 49
-2.000000
 49
4.000000
 49
-2.000000
 49
4.000000
 49
-2.000000
  0
LTYPE
  2
CENTER1
 70
    64
  3
____ _ ____ _ ____ _ ____ _ ____ _ ____ _ ____
 72
    65
 73
     4
 40
19.000000
 49
14.000000
 49
-1.000000
 49
3.000000
 49
-1.000000
  0
LTYPE
  2
CENTER2
 70
    64
  3
____ _ ____ _ ____ _ ____ _ ____ _ ____ _ ____
 72
    65
 73
     4
 40
28.500000
 49
25.000000
 49
-1.000000
 49
1.500000
 49
-1.000000
  0
LTYPE
  2
CENTER3
 70
    64
  3
____ _ ____ _ ____ _ ____ _ ____ _ ____ _ ____
 72
    65
 73
     4
 40
31.500000
 49
27.000000
 49
-1.000000
 49
2.500000
 49
-1.000000
  0
LTYPE
  2
CENTER4
 70
    64
  3
____ _ ____ _ ____ _ ____ _ ____ _ ____ _ ____
 72
    65
 73
     4
 40
50.000000
 49
45.000000
 49
-1.000000
 49
3.000000
 49
-1.000000
  0
LTYPE
  2
CENTER5
 70
    64
  3
____ _ ____ _ ____ _ ____ _ ____ _ ____ _ ____
 72
    65
 73
     4
 40
100.000000
 49
92.000000
 49
-2.000000
 49
4.000000
 49
-2.000000
  0
LTYPE
  2
SBK1
 70
    64
  3
______ _ _ _ ______ _ _ _ ______ _ _ _ _____  
 72
    65
 73
     8
 40
60.500000
 49
45.000000
 49
-2.000000
 49
2.500000
 49
-2.000000
 49
2.500000
 49
-2.000000
 49
2.500000
 49
-2.000000
  0
LTYPE
  2
SBK2
 70
    64
  3
______ _ _ _ ______ _ _ _ ______ _ _ _ _____  
 72
    65
 73
     8
 40
84.000000
 49
64.000000
 49
-2.000000
 49
4.000000
 49
-2.000000
 49
4.000000
 49
-2.000000
 49
4.000000
 49
-2.000000
  0
LTYPE
  2
STCH
 70
    64
  3
__ __ __ __ __ __ __ __ __ __ __ __ __ __ __
 72
    65
 73
     2
 40
3.000000
 49
1.000000
 49
-2.000000
  0
LTYPE
  2
MTCH
 70
    64
  3
_____ _ _ _____ _ _ _____ _ _ _____ _ _ ____  
 72
    65
 73
     6
 40
80.000000
 49
66.000000
 49
-2.000000
 49
4.000000
 49
-2.000000
 49
4.000000
 49
-2.000000
  0
ENDTAB
  0
TABLE
  2
LAYER
 70
     1
  0
LAYER
  2
0
 70
     0
 62
     7
  6
CONTINUOUS
  0
ENDTAB
  0
TABLE
  2
STYLE
 70
     1
  0
STYLE
  2
STANDARD
 70
     0
 40
0.000000
 41
1.000000
 50
0.000000
 71
     0
 42
0.200000
  3
txt
  4
BIGFONT
  0
ENDTAB
  0
TABLE
  2
VIEW
 70
     0
  0
ENDTAB
  0
ENDSEC
  0
SECTION
  2
BLOCKS
  0
ENDSEC
  0
SECTION
  2
ENTITIES
  0
POINT
  8
0
 10
-510.749939
 20
119.999893
  0
POINT
  8
0
 10
-256.750000
 20
319.999939
  0
POINT
  8
0
 10
-161.750000
 20
319.999939
  0
POINT
  8
0
 10
-256.750000
 20
119.999939
  0
POINT
  8
0
 10
-166.750000
 20
119.999939
  0
POINT
  8
0
 10
210.000000
 20
119.999908
  0
POINT
  8
0
 10
480.000000
 20
119.999939
  0
POINT
  8
0
 10
595.000000
 20
119.999939
  0
POINT
  8
0
 10
480.000000
 20
319.999939
  0
POINT
  8
0
 10
595.000000
 20
319.999939
  0
POINT
  8
0
 10
108.250000
 20
-139.114990
  0
POINT
  8
0
 10
228.250000
 20
-139.114990
  0
POINT
  8
0
 10
108.250000
 20
-379.114990
  0
POINT
  8
0
 10
228.250000
 20
-379.114990
  0
POINT
  8
0
 10
-174.750092
 20
-379.114960
  0
POINT
  8
0
 10
-536.749939
 20
119.999893
  0
POINT
  8
0
 10
180.000000
 20
119.999908
  0
POINT
  8
0
 10
-211.750092
 20
-379.114960
  0
LINE
  8
0
 62
     3
 10
-741.750000
 20
-509.114990
 11
741.750000
 21
-509.114990
  0
LINE
  8
0
 62
     3
 10
-741.750000
 20
509.114990
 11
741.750000
 21
509.114990
  0
LINE
  8
0
 62
     3
 10
741.750000
 20
509.114990
 11
741.750000
 21
-509.114990
  0
LINE
  8
0
 62
     3
 10
-741.750000
 20
509.114990
 11
-741.750000
 21
-509.114990
  0
LINE
  8
0
 62
     5
 10
516.764709
 20
-465.668823
 11
546.072388
 21
-465.668823
  0
LINE
  8
0
 62
     5
 10
516.764709
 20
-491.658691
 11
541.648621
 21
-491.658691
  0
LINE
  8
0
 62
     5
 10
516.764709
 20
-498.294342
 11
550.496216
 21
-498.294342
  0
LINE
  8
0
 62
     5
 10
516.764709
 20
-472.304474
 11
541.648621
 21
-472.304474
  0
LINE
  8
0
 62
     5
 10
516.764709
 20
-465.668823
 11
516.764709
 21
-472.304474
  0
LINE
  8
0
 62
     5
 10
550.496216
 20
-470.092651
 11
550.496216
 21
-498.294342
  0
LINE
  8
0
 62
     5
 10
541.648621
 20
-472.304474
 11
541.648621
 21
-491.658691
  0
LINE
  8
0
 62
     5
 10
555.472900
 20
-465.668823
 11
555.472900
 21
-472.304474
  0
LINE
  8
0
 62
     5
 10
586.992432
 20
-472.304474
 11
586.992432
 21
-493.870697
  0
LINE
  8
0
 62
     5
 10
578.144897
 20
-472.304474
 11
578.144897
 21
-491.658691
  0
LINE
  8
0
 62
     5
 10
516.764709
 20
-491.658691
 11
516.764709
 21
-498.294342
  0
LINE
  8
0
 62
     5
 10
555.472900
 20
-465.668823
 11
564.214966
 21
-465.668823
  0
LINE
  8
0
 62
     5
 10
555.472900
 20
-498.294342
 11
562.342773
 21
-498.294342
  0
LINE
  8
0
 62
     5
 10
555.472717
 20
-498.294098
 11
562.436890
 21
-472.304413
  0
LINE
  8
0
 62
     5
 10
555.472900
 20
-472.304474
 11
562.436951
 21
-472.304474
  0
LINE
  8
0
 62
     5
 10
562.343140
 20
-498.294647
 11
569.307007
 21
-472.304871
  0
LINE
  8
0
 62
     5
 10
571.509094
 20
-491.658691
 11
578.144897
 21
-491.658691
  0
LINE
  8
0
 62
     5
 10
571.508972
 20
-491.658600
 11
573.286804
 21
-498.294128
  0
LINE
  8
0
 62
     5
 10
573.287354
 20
-498.294342
 11
582.568787
 21
-498.294342
  0
LINE
  8
0
 62
     5
 10
569.306763
 20
-472.304474
 11
578.144897
 21
-472.304474
  0
LINE
  8
0
 62
     5
 10
571.084717
 20
-465.668823
 11
580.356750
 21
-465.668823
  0
LINE
  8
0
 62
     5
 10
564.215088
 20
-465.668854
 11
565.533630
 21
-460.747498
  0
LINE
  8
0
 62
     5
 10
571.084290
 20
-465.668488
 11
572.402893
 21
-460.746979
  0
LINE
  8
0
 62
     5
 10
592.522278
 20
-465.668823
 11
603.028809
 21
-465.668823
  0
LINE
  8
0
 62
     5
 10
592.522278
 20
-472.304474
 11
618.325867
 21
-472.304474
  0
LINE
  8
0
 62
     5
 10
603.028809
 20
-498.294342
 11
611.876221
 21
-498.294342
  0
LINE
  8
0
 62
     5
 10
592.522278
 20
-465.668823
 11
592.522278
 21
-472.304474
  0
LINE
  8
0
 62
     5
 10
625.147827
 20
-484.336975
 11
625.147827
 21
-491.658691
  0
LINE
  8
0
 62
     5
 10
592.521790
 20
-491.658447
 11
603.028564
 21
-486.759003
  0
LINE
  8
0
 62
     5
 10
592.522827
 20
-484.337433
 11
618.326355
 21
-472.304932
  0
LINE
  8
0
 62
     5
 10
592.522278
 20
-484.336975
 11
592.522278
 21
-491.658691
  0
LINE
  8
0
 62
     5
 10
611.876038
 20
-485.469879
 11
625.147766
 21
-491.658478
  0
LINE
  8
0
 62
     5
 10
616.686646
 20
-480.391724
 11
625.148682
 21
-484.337585
  0
LINE
  8
0
 62
     5
 10
625.147827
 20
-470.092651
 11
625.147827
 21
-473.626892
  0
LINE
  8
0
 62
     5
 10
603.028809
 20
-460.747406
 11
603.028809
 21
-465.668823
  0
LINE
  8
0
 62
     5
 10
611.876221
 20
-460.747406
 11
611.876221
 21
-465.668823
  0
LINE
  8
0
 62
     5
 10
611.876221
 20
-465.668823
 11
620.723999
 21
-465.668823
  0
LINE
  8
0
 62
     5
 10
603.028809
 20
-486.759460
 11
603.028809
 21
-498.294342
  0
LINE
  8
0
 62
     5
 10
611.876221
 20
-485.470184
 11
611.876221
 21
-498.294342
  0
LINE
  8
0
 62
     5
 10
616.686707
 20
-480.391937
 11
622.594543
 21
-477.637115
  0
LINE
  8
0
 62
     5
 10
655.008484
 20
-462.738159
 11
661.644043
 21
-462.738159
  0
LINE
  8
0
 62
     5
 10
627.912720
 20
-476.445160
 11
627.912720
 21
-483.586365
  0
LINE
  8
0
 62
     5
 10
661.644043
 20
-462.738159
 11
661.644043
 21
-465.668823
  0
LINE
  8
0
 62
     5
 10
655.008484
 20
-462.738159
 11
655.008484
 21
-464.168060
  0
LINE
  8
0
 62
     5
 10
646.160828
 20
-476.328888
 11
646.160828
 21
-498.294342
  0
LINE
  8
0
 62
     5
 10
627.912903
 20
-476.445496
 11
653.614319
 21
-466.223785
  0
LINE
  8
0
 62
     5
 10
627.912598
 20
-483.586365
 11
646.160706
 21
-476.328796
  0
LINE
  8
0
 62
     5
 10
646.160828
 20
-498.294342
 11
655.008484
 21
-498.294342
  0
LINE
  8
0
 62
     5
 10
655.008484
 20
-472.810120
 11
655.008484
 21
-498.294342
  0
LINE
  8
0
 62
     5
 10
655.009155
 20
-472.810547
 11
657.461609
 21
-471.835114
  0
LINE
  8
0
 62
     5
 10
565.533691
 20
-460.747406
 11
572.403381
 21
-460.747406
  0
LINE
  8
0
 62
     5
 10
583.398193
 20
-460.747406
 11
586.218201
 21
-460.747406
  0
LINE
  8
0
 62
     5
 10
603.028809
 20
-460.747406
 11
611.876221
 21
-460.747406
  0
LINE
  8
0
 62
     5
 10
583.398193
 20
-465.171234
 11
586.218201
 21
-465.171234
  0
LINE
  8
0
 62
     5
 10
583.398193
 20
-460.747406
 11
583.398193
 21
-465.171234
  0
LINE
  8
0
 62
     5
 10
586.218201
 20
-460.747406
 11
586.218201
 21
-465.171234
  0
LINE
  8
0
 62
     5
 10
587.877319
 20
-460.747406
 11
587.877319
 21
-465.171234
  0
LINE
  8
0
 62
     5
 10
591.029297
 20
-460.747406
 11
591.029297
 21
-465.171234
  0
LINE
  8
0
 62
     5
 10
587.877319
 20
-460.747406
 11
591.029297
 21
-460.747406
  0
LINE
  8
0
 62
     5
 10
587.877319
 20
-465.171234
 11
591.029297
 21
-465.171234
  0
LINE
  8
0
 62
     3
 10
436.659546
 20
-451.914154
 11
436.659546
 21
-509.118408
  0
LINE
  8
0
 62
     3
 10
436.659546
 20
-451.914154
 11
741.749207
 21
-451.914154
  0
LINE
  8
0
 62
     3
 10
436.659546
 20
509.118408
 11
436.659546
 21
451.914032
  0
LINE
  8
0
 62
     3
 10
436.659546
 20
451.914032
 11
741.749207
 21
451.914032
  0
LINE
  8
0
 62
     3
 10
-317.483978
 20
451.914032
 11
-317.483978
 21
509.118408
  0
LINE
  8
0
 62
     3
 10
-741.749207
 20
451.914032
 11
-317.483978
 21
451.914032
  0
LINE
  8
0
 10
0.000000
 20
509.114990
 11
0.000000
 21
-0.000061
  0
LINE
  8
0
 10
-741.749207
 20
-0.000061
 11
741.750000
 21
-0.000061
  0
LINE
  8
0
  6
CENTER
 10
-567.749939
 20
119.999893
 11
-505.749939
 21
119.999893
  0
LINE
  8
0
  6
CENTER
 10
-536.749939
 20
54.999893
 11
-536.749939
 21
184.999893
  0
LINE
  8
0
  6
PHANTOM
 10
-549.750000
 20
149.999893
 11
-544.749939
 21
149.999893
  0
LINE
  8
0
  6
PHANTOM
 10
-523.749939
 20
143.999893
 11
-523.749939
 21
149.999908
  0
LINE
  8
0
  6
PHANTOM
 10
-549.749939
 20
143.999893
 11
-549.749939
 21
149.999878
  0
LINE
  8
0
  6
PHANTOM
 10
-531.499939
 20
143.699890
 11
-531.499939
 21
144.999893
  0
LINE
  8
0
  6
PHANTOM
 10
-541.999939
 20
143.699890
 11
-541.999939
 21
144.999893
  0
LINE
  8
0
  6
PHANTOM
 10
-533.499939
 20
147.999908
 11
-533.499939
 21
149.999908
  0
LINE
  8
0
  6
PHANTOM
 10
-539.999939
 20
147.999893
 11
-539.999939
 21
149.999893
  0
LINE
  8
0
  6
PHANTOM
 10
-541.999939
 20
143.699890
 11
-531.499939
 21
143.699890
  0
LINE
  8
0
  6
PHANTOM
 10
-545.749878
 20
59.999893
 11
-527.749878
 21
59.999893
  0
LINE
  8
0
  6
PHANTOM
 10
-527.749939
 20
59.999901
 11
-527.749939
 21
90.999901
  0
LINE
  8
0
  6
PHANTOM
 10
-545.749939
 20
59.999886
 11
-545.749939
 21
90.999886
  0
LINE
  8
0
  6
PHANTOM
 10
-551.249878
 20
90.999893
 11
-522.249878
 21
90.999893
  0
LINE
  8
0
  6
PHANTOM
 10
-550.249878
 20
65.999893
 11
-545.749878
 21
65.999893
  0
LINE
  8
0
  6
PHANTOM
 10
-523.249939
 20
65.999908
 11
-523.249939
 21
68.226387
  0
LINE
  8
0
  6
PHANTOM
 10
-550.249939
 20
65.999878
 11
-550.249939
 21
66.499893
  0
LINE
  8
0
  6
PHANTOM
 10
-527.749878
 20
65.999893
 11
-523.249878
 21
65.999893
  0
LINE
  8
0
  6
PHANTOM
 10
-346.750000
 20
149.999908
 11
-286.750000
 21
149.999908
  0
LINE
  8
0
  6
PHANTOM
 10
-338.750000
 20
90.999916
 11
-174.750015
 21
90.999916
  0
LINE
  8
0
  6
PHANTOM
 10
-336.750000
 20
59.999916
 11
-176.750000
 21
59.999916
  0
LINE
  8
0
  6
PHANTOM
 10
-336.750000
 20
65.999916
 11
-261.250000
 21
65.999916
  0
LINE
  8
0
  6
PHANTOM
 10
-336.750000
 20
59.999916
 11
-336.750000
 21
90.999916
  0
LINE
  8
0
  6
PHANTOM
 10
-176.750000
 20
59.999916
 11
-176.750000
 21
90.999916
  0
LINE
  8
0
  6
PHANTOM
 10
-261.250000
 20
65.999916
 11
-261.250000
 21
74.999916
  0
LINE
  8
0
  6
PHANTOM
 10
-252.250000
 20
65.999916
 11
-252.250000
 21
74.999916
  0
LINE
  8
0
  6
PHANTOM
 10
-252.250000
 20
65.999916
 11
-176.750000
 21
65.999916
  0
LINE
  8
0
  6
CENTER
 10
-266.250000
 20
71.499916
 11
-247.250000
 21
71.499916
  0
LINE
  8
0
  6
CENTER
 10
-256.750000
 20
54.999916
 11
-256.750000
 21
184.999969
  0
LINE
  8
0
  6
CENTER
 10
-351.750000
 20
119.999939
 11
-161.750000
 21
119.999939
  0
LINE
  8
0
  6
CENTER
 10
-356.750000
 20
319.999939
 11
-156.750000
 21
319.999939
  0
LINE
  8
0
  6
PHANTOM
 10
-351.750000
 20
343.999939
 11
-336.750000
 21
343.999939
  0
LINE
  8
0
  6
PHANTOM
 10
-351.750000
 20
295.999939
 11
-286.750000
 21
295.999939
  0
LINE
  8
0
  6
CENTER
 10
-256.750000
 20
284.999939
 11
-256.750000
 21
366.999939
  0
LINE
  8
0
  6
PHANTOM
 10
-560.749939
 20
99.999893
 11
-560.749939
 21
139.999893
  0
LINE
  8
0
  6
PHANTOM
 10
-512.749939
 20
99.999893
 11
-512.749939
 21
139.999893
  0
LINE
  8
0
  6
PHANTOM
 10
-354.237885
 20
332.999939
 11
-336.750000
 21
332.999939
  0
LINE
  8
0
  6
PHANTOM
 10
-349.262115
 20
306.999939
 11
-321.750000
 21
306.999939
  0
LINE
  8
0
  6
PHANTOM
 10
-350.549866
 20
316.749939
 11
-336.750000
 21
316.749939
  0
LINE
  8
0
  6
PHANTOM
 10
-352.950134
 20
323.249939
 11
-336.750000
 21
323.249939
  0
LINE
  8
0
  6
PHANTOM
 10
-226.750000
 20
149.999908
 11
-166.750000
 21
149.999908
  0
LINE
  8
0
  6
PHANTOM
 10
-550.249939
 20
83.927521
 11
-550.249939
 21
90.999893
  0
LINE
  8
0
  6
PHANTOM
 10
-176.750000
 20
323.249939
 11
-162.950150
 21
323.249939
  0
LINE
  8
0
  6
PHANTOM
 10
-176.750000
 20
316.749939
 11
-160.549850
 21
316.749939
  0
LINE
  8
0
  6
PHANTOM
 10
-176.750000
 20
332.999939
 11
-164.237869
 21
332.999939
  0
LINE
  8
0
  6
PHANTOM
 10
-176.750000
 20
343.999939
 11
-161.750000
 21
343.999939
  0
LINE
  8
0
  6
PHANTOM
 10
-311.750000
 20
306.999939
 11
-286.750000
 21
306.999939
  0
LINE
  8
0
  6
PHANTOM
 10
-191.750000
 20
306.999939
 11
-159.262131
 21
306.999939
  0
LINE
  8
0
  6
PHANTOM
 10
-226.750000
 20
306.999939
 11
-201.750000
 21
306.999939
  0
LINE
  8
0
  6
PHANTOM
 10
-226.750000
 20
295.999939
 11
-161.750000
 21
295.999939
  0
LINE
  8
0
  6
PHANTOM
 10
-523.249939
 20
79.773415
 11
-523.249939
 21
90.999908
  0
LINE
  8
0
  6
PHANTOM
 10
164.999985
 20
154.999954
 11
169.000000
 21
154.999954
  0
LINE
  8
0
  6
PHANTOM
 10
174.749985
 20
148.699951
 11
185.249985
 21
148.699951
  0
LINE
  8
0
  6
PHANTOM
 10
174.750031
 20
148.699951
 11
174.750031
 21
149.999969
  0
LINE
  8
0
  6
PHANTOM
 10
185.250031
 20
148.699951
 11
185.250031
 21
149.999954
  0
LINE
  8
0
  6
PHANTOM
 10
183.250031
 20
152.999969
 11
183.250031
 21
154.999969
  0
LINE
  8
0
  6
PHANTOM
 10
176.750031
 20
152.999939
 11
176.750031
 21
154.999939
  0
LINE
  8
0
  6
PHANTOM
 10
165.000031
 20
148.999908
 11
165.000031
 21
154.999939
  0
LINE
  8
0
  6
PHANTOM
 10
195.000031
 20
148.999908
 11
195.000031
 21
154.999954
  0
LINE
  8
0
  6
CENTER
 10
180.000000
 20
53.999954
 11
180.000000
 21
195.999908
  0
LINE
  8
0
  6
CENTER
 10
145.000031
 20
119.999908
 11
220.000000
 21
119.999908
  0
LINE
  8
0
  6
PHANTOM
 10
171.000122
 20
58.999908
 11
189.000122
 21
58.999908
  0
LINE
  8
0
  6
PHANTOM
 10
166.000000
 20
85.999908
 11
194.000000
 21
85.999908
  0
LINE
  8
0
  6
PHANTOM
 10
194.000000
 20
62.999977
 11
194.000000
 21
65.226402
  0
LINE
  8
0
  6
PHANTOM
 10
166.000000
 20
62.999931
 11
166.000000
 21
63.499908
  0
LINE
  8
0
  6
PHANTOM
 10
189.000000
 20
58.999969
 11
189.000000
 21
85.999969
  0
LINE
  8
0
  6
PHANTOM
 10
171.000000
 20
58.999939
 11
171.000000
 21
85.999939
  0
LINE
  8
0
  6
PHANTOM
 10
166.000122
 20
62.999908
 11
194.000122
 21
62.999908
  0
LINE
  8
0
  6
PHANTOM
 10
368.425934
 20
154.999969
 11
450.000000
 21
154.999969
  0
LINE
  8
0
  6
CENTER
 10
480.000000
 20
53.999924
 11
480.000000
 21
195.999908
  0
LINE
  8
0
  6
PHANTOM
 10
383.000000
 20
85.999924
 11
577.000000
 21
85.999924
  0
LINE
  8
0
  6
PHANTOM
 10
391.000000
 20
58.999924
 11
569.000000
 21
58.999924
  0
LINE
  8
0
  6
PHANTOM
 10
385.000000
 20
62.999924
 11
475.000000
 21
62.999924
  0
LINE
  8
0
  6
PHANTOM
 10
385.000000
 20
62.999924
 11
385.000000
 21
85.999924
  0
LINE
  8
0
  6
PHANTOM
 10
575.000000
 20
62.999924
 11
575.000000
 21
85.999924
  0
LINE
  8
0
  6
PHANTOM
 10
391.000000
 20
58.999924
 11
391.000000
 21
62.999924
  0
LINE
  8
0
  6
PHANTOM
 10
569.000000
 20
58.999924
 11
569.000000
 21
62.999924
  0
LINE
  8
0
  6
PHANTOM
 10
475.000000
 20
62.999924
 11
475.000000
 21
70.999924
  0
LINE
  8
0
  6
PHANTOM
 10
485.000000
 20
62.999924
 11
485.000000
 21
70.999924
  0
LINE
  8
0
  6
PHANTOM
 10
485.000000
 20
62.999924
 11
575.000000
 21
62.999924
  0
LINE
  8
0
  6
CENTER
 10
471.000000
 20
68.999924
 11
489.000000
 21
68.999924
  0
LINE
  8
0
  6
CENTER
 10
360.000000
 20
119.999939
 11
600.000000
 21
119.999939
  0
LINE
  8
0
  6
CENTER
 10
360.000000
 20
319.999939
 11
599.551270
 21
319.999939
  0
LINE
  8
0
  6
CENTER
 10
480.000000
 20
279.999939
 11
480.000000
 21
371.999939
  0
LINE
  8
0
  6
PHANTOM
 10
365.000000
 20
348.999939
 11
385.000000
 21
348.999939
  0
LINE
  8
0
  6
PHANTOM
 10
365.000000
 20
290.999939
 11
450.000000
 21
290.999939
  0
LINE
  8
0
  6
PHANTOM
 10
151.000000
 20
99.999908
 11
151.000000
 21
140.999908
  0
LINE
  8
0
  6
PHANTOM
 10
363.893982
 20
323.249939
 11
385.000000
 21
323.249939
  0
LINE
  8
0
  6
PHANTOM
 10
366.106018
 20
316.749939
 11
385.000000
 21
316.749939
  0
LINE
  8
0
  6
PHANTOM
 10
575.000000
 20
323.249939
 11
593.893982
 21
323.249939
  0
LINE
  8
0
  6
PHANTOM
 10
575.000000
 20
316.749939
 11
596.106018
 21
316.749939
  0
LINE
  8
0
  6
PHANTOM
 10
367.717529
 20
304.999939
 11
420.499969
 21
304.999939
  0
LINE
  8
0
  6
PHANTOM
 10
362.282471
 20
334.999939
 11
385.000000
 21
334.999939
  0
LINE
  8
0
  6
PHANTOM
 10
575.000000
 20
334.999939
 11
592.282471
 21
334.999939
  0
LINE
  8
0
  6
PHANTOM
 10
510.000000
 20
304.999939
 11
530.500000
 21
304.999939
  0
LINE
  8
0
  6
PHANTOM
 10
166.000000
 20
78.845207
 11
166.000000
 21
85.999908
  0
LINE
  8
0
  6
PHANTOM
 10
194.000000
 20
76.773430
 11
194.000000
 21
85.999908
  0
LINE
  8
0
  6
PHANTOM
 10
575.000000
 20
348.999939
 11
595.000000
 21
348.999939
  0
LINE
  8
0
  6
PHANTOM
 10
510.000000
 20
154.999969
 11
598.425903
 21
154.999969
  0
LINE
  8
0
  6
PHANTOM
 10
510.000000
 20
290.999939
 11
595.000000
 21
290.999939
  0
LINE
  8
0
  6
PHANTOM
 10
429.499969
 20
304.999939
 11
450.000000
 21
304.999939
  0
LINE
  8
0
  6
PHANTOM
 10
539.500000
 20
304.999939
 11
597.717529
 21
304.999939
  0
LINE
  8
0
  6
CENTER
 10
-253.750092
 20
-379.114960
 11
-158.750092
 21
-379.114960
  0
LINE
  8
0
  6
CENTER
 10
-211.750092
 20
-453.114960
 11
-211.750092
 21
-295.114960
  0
LINE
  8
0
  6
PHANTOM
 10
-216.000092
 20
-341.114960
 11
-216.000092
 21
-339.114960
  0
LINE
  8
0
  6
PHANTOM
 10
-207.500092
 20
-341.114960
 11
-207.500092
 21
-339.114960
  0
LINE
  8
0
  6
PHANTOM
 10
-218.500092
 20
-346.414948
 11
-218.500092
 21
-344.115021
  0
LINE
  8
0
  6
PHANTOM
 10
-205.000092
 20
-346.414948
 11
-205.000092
 21
-344.115021
  0
LINE
  8
0
  6
PHANTOM
 10
-231.750092
 20
-339.114960
 11
-227.750092
 21
-339.114960
  0
LINE
  8
0
  6
PHANTOM
 10
-191.750092
 20
-344.115021
 11
-191.750092
 21
-339.114960
  0
LINE
  8
0
  6
PHANTOM
 10
-231.750092
 20
-344.115021
 11
-231.750092
 21
-339.114960
  0
LINE
  8
0
  6
PHANTOM
 10
-220.750061
 20
-448.114960
 11
-202.750061
 21
-448.114960
  0
LINE
  8
0
  6
PHANTOM
 10
-225.750061
 20
-444.114960
 11
-197.750061
 21
-444.114960
  0
LINE
  8
0
  6
PHANTOM
 10
-220.750092
 20
-448.114960
 11
-220.750092
 21
-419.114960
  0
LINE
  8
0
  6
PHANTOM
 10
-202.750092
 20
-448.114960
 11
-202.750092
 21
-419.114960
  0
LINE
  8
0
  6
PHANTOM
 10
-197.750092
 20
-444.114960
 11
-197.750092
 21
-441.888458
  0
LINE
  8
0
  6
PHANTOM
 10
-225.750092
 20
-444.114960
 11
-225.750092
 21
-443.614960
  0
LINE
  8
0
  6
PHANTOM
 10
-225.750092
 20
-419.114960
 11
-197.750092
 21
-419.114960
  0
LINE
  8
0
  6
PHANTOM
 10
-218.500122
 20
-346.414948
 11
-205.000122
 21
-346.414948
  0
LINE
  8
0
  6
PHANTOM
 10
-11.750000
 20
-339.115021
 11
68.250000
 21
-339.115021
  0
LINE
  8
0
  6
PHANTOM
 10
-11.750000
 20
-414.115021
 11
228.250000
 21
-414.115021
  0
LINE
  8
0
  6
PHANTOM
 10
-13.621201
 20
-344.115021
 11
68.250000
 21
-344.115021
  0
LINE
  8
0
  6
PHANTOM
 10
14.250000
 20
-448.115021
 11
202.250000
 21
-448.115021
  0
LINE
  8
0
  6
PHANTOM
 10
8.250000
 20
-444.115021
 11
103.250000
 21
-444.115021
  0
LINE
  8
0
  6
PHANTOM
 10
5.750000
 20
-419.115021
 11
210.750000
 21
-419.115021
  0
LINE
  8
0
  6
CENTER
 10
108.250000
 20
-453.115021
 11
108.250000
 21
-295.114960
  0
LINE
  8
0
  6
PHANTOM
 10
8.250000
 20
-444.115021
 11
8.250000
 21
-419.115021
  0
LINE
  8
0
  6
PHANTOM
 10
14.250000
 20
-448.115021
 11
14.250000
 21
-444.115021
  0
LINE
  8
0
  6
PHANTOM
 10
202.250000
 20
-448.115021
 11
202.250000
 21
-444.115021
  0
LINE
  8
0
  6
PHANTOM
 10
208.250000
 20
-444.115021
 11
208.250000
 21
-419.115021
  0
LINE
  8
0
  6
CENTER
 10
99.250000
 20
-438.115021
 11
117.250000
 21
-438.115021
  0
LINE
  8
0
  6
PHANTOM
 10
103.250000
 20
-444.115021
 11
103.250000
 21
-435.115021
  0
LINE
  8
0
  6
PHANTOM
 10
113.250000
 20
-444.115021
 11
113.250000
 21
-435.115021
  0
LINE
  8
0
  6
PHANTOM
 10
113.250000
 20
-444.115021
 11
208.250000
 21
-444.115021
  0
LINE
  8
0
  6
CENTER
 10
-16.750000
 20
-379.114990
 11
233.250000
 21
-379.114990
  0
LINE
  8
0
  6
CENTER
 10
-16.750000
 20
-139.114990
 11
233.250000
 21
-139.114990
  0
LINE
  8
0
  6
PHANTOM
 10
-11.750000
 20
-174.114990
 11
68.250000
 21
-174.114990
  0
LINE
  8
0
  6
PHANTOM
 10
-11.750000
 20
-104.114990
 11
8.250000
 21
-104.114990
  0
LINE
  8
0
  6
CENTER
 10
108.250000
 20
-79.114990
 11
108.250000
 21
-192.114990
  0
LINE
  8
0
  6
PHANTOM
 10
-246.750092
 20
-406.115021
 11
-246.750092
 21
-352.115021
  0
LINE
  8
0
  6
PHANTOM
 10
-176.750092
 20
-406.115021
 11
-176.750092
 21
-352.115021
  0
LINE
  8
0
  6
PHANTOM
 10
-238.750092
 20
-344.115021
 11
-231.750092
 21
-344.115021
  0
LINE
  8
0
  6
PHANTOM
 10
-238.750092
 20
-414.115021
 11
-184.750092
 21
-414.115021
  0
LINE
  8
0
  6
PHANTOM
 10
-191.750092
 20
-344.115021
 11
-184.750092
 21
-344.115021
  0
LINE
  8
0
  6
PHANTOM
 10
-197.750092
 20
-430.341431
 11
-197.750092
 21
-419.114960
  0
LINE
  8
0
  6
PHANTOM
 10
-225.750092
 20
-428.416962
 11
-225.750092
 21
-419.114960
  0
LINE
  8
0
  6
PHANTOM
 10
208.250000
 20
-104.114990
 11
228.250000
 21
-104.114990
  0
LINE
  8
0
  6
PHANTOM
 10
-8.650032
 20
-159.114990
 11
68.250000
 21
-159.114990
  0
LINE
  8
0
  6
PHANTOM
 10
-14.849976
 20
-119.114990
 11
8.250000
 21
-119.114990
  0
LINE
  8
0
  6
PHANTOM
 10
-10.375072
 20
-143.364990
 11
8.250000
 21
-143.364990
  0
LINE
  8
0
  6
PHANTOM
 10
-13.124935
 20
-134.864990
 11
8.250000
 21
-134.864990
  0
LINE
  8
0
  6
PHANTOM
 10
208.250000
 20
-119.114990
 11
225.150024
 21
-119.114990
  0
LINE
  8
0
  6
PHANTOM
 10
208.250000
 20
-134.864990
 11
226.875076
 21
-134.864990
  0
LINE
  8
0
  6
PHANTOM
 10
208.250000
 20
-143.364990
 11
229.624924
 21
-143.364990
  0
LINE
  8
0
  6
PHANTOM
 10
148.250000
 20
-159.114990
 11
231.349976
 21
-159.114990
  0
LINE
  8
0
  6
PHANTOM
 10
148.250000
 20
-339.115021
 11
228.250000
 21
-339.115021
  0
LINE
  8
0
  6
PHANTOM
 10
148.250000
 20
-344.115021
 11
226.378815
 21
-344.115021
  0
LINE
  8
0
  6
PHANTOM
 10
148.250000
 20
-174.114990
 11
228.250000
 21
-174.114990
  0
LINE
  8
0
  6
CENTER
 10
41.250000
 20
-139.114990
 11
55.250000
 21
-139.114990
  0
LINE
  8
0
  6
CENTER
 10
175.250000
 20
-139.114990
 11
161.250000
 21
-139.114990
  0
LINE
  8
0
  6
PHANTOM
 10
-347.186523
 20
95.999939
 11
-167.186508
 21
95.999939
  0
LINE
  8
0
  6
PHANTOM
 10
-349.387390
 20
143.999939
 11
-286.750000
 21
143.999939
  0
LINE
  8
0
  6
PHANTOM
 10
-226.750000
 20
143.999939
 11
-169.387390
 21
143.999939
  0
LINE
  8
0
  6
PHANTOM
 10
-556.749939
 20
95.999893
 11
-516.749939
 21
95.999893
  0
LINE
  8
0
  6
PHANTOM
 10
-556.749939
 20
143.999893
 11
-549.749939
 21
143.999893
  0
LINE
  8
0
  6
PHANTOM
 10
-523.749939
 20
143.999893
 11
-516.749939
 21
143.999893
  0
LINE
  8
0
  6
PHANTOM
 10
159.000000
 20
148.999908
 11
165.000031
 21
148.999908
  0
LINE
  8
0
  6
PHANTOM
 10
159.000000
 20
91.999908
 11
201.000000
 21
91.999908
  0
LINE
  8
0
  6
PHANTOM
 10
195.000031
 20
148.999908
 11
201.000000
 21
148.999908
  0
LINE
  8
0
  6
PHANTOM
 10
367.628571
 20
91.999939
 11
597.628540
 21
91.999939
  0
LINE
  8
0
  6
PHANTOM
 10
365.389008
 20
148.999939
 11
450.000000
 21
148.999939
  0
LINE
  8
0
  6
PHANTOM
 10
510.000000
 20
148.999939
 11
595.388977
 21
148.999939
  0
LINE
  8
0
 10
-221.749954
 20
76.886749
 11
-226.749954
 21
79.773499
  0
LINE
  8
0
 10
-226.750122
 20
79.773598
 11
-231.750122
 21
76.886848
  0
LINE
  8
0
 10
-231.750092
 20
76.886673
 11
-231.750092
 21
71.113174
  0
LINE
  8
0
 10
-336.750000
 20
179.999969
 11
-176.750000
 21
179.999969
  0
LINE
  8
0
 10
-336.750000
 20
179.999969
 11
-336.750000
 21
149.999908
  0
LINE
  8
0
 10
-176.750000
 20
179.999969
 11
-176.750000
 21
149.999908
  0
LINE
  8
0
 10
-191.749985
 20
163.113159
 11
-196.749969
 21
160.226410
  0
LINE
  8
0
 10
-191.749878
 20
168.886719
 11
-191.749878
 21
163.113220
  0
LINE
  8
0
 10
-196.749969
 20
171.773437
 11
-191.749985
 21
168.886703
  0
LINE
  8
0
 10
-201.749969
 20
168.886673
 11
-196.749969
 21
171.773422
  0
LINE
  8
0
 10
-226.749954
 20
68.226303
 11
-221.749954
 21
71.113052
  0
LINE
  8
0
 10
-226.750000
 20
103.999893
 11
-226.750000
 21
153.999893
  0
LINE
  8
0
 10
-286.750000
 20
103.999893
 11
-286.750000
 21
153.999893
  0
LINE
  8
0
 10
-286.750000
 20
153.999893
 11
-226.750000
 21
153.999893
  0
LINE
  8
0
 10
-286.750000
 20
103.999893
 11
-226.750000
 21
103.999893
  0
LINE
  8
0
 10
-221.749878
 20
71.113159
 11
-221.749878
 21
76.886658
  0
LINE
  8
0
  6
CENTER
 10
-294.250000
 20
165.999969
 11
-279.250000
 21
165.999969
  0
LINE
  8
0
 10
-321.750092
 20
163.113205
 11
-321.750092
 21
168.886703
  0
LINE
  8
0
 10
-316.750031
 20
160.226334
 11
-321.750000
 21
163.113083
  0
LINE
  8
0
 10
-311.749847
 20
163.112900
 11
-316.749847
 21
160.226151
  0
LINE
  8
0
 10
-311.749878
 20
168.886719
 11
-311.749878
 21
163.113220
  0
LINE
  8
0
 10
-316.749939
 20
171.773453
 11
-311.749939
 21
168.886719
  0
LINE
  8
0
 10
-321.749908
 20
168.886642
 11
-316.749908
 21
171.773392
  0
LINE
  8
0
 10
-201.750092
 20
163.113205
 11
-201.750092
 21
168.886703
  0
LINE
  8
0
 10
-196.750061
 20
160.226303
 11
-201.750046
 21
163.113037
  0
LINE
  8
0
 10
-201.750076
 20
71.113083
 11
-196.750076
 21
68.226334
  0
LINE
  8
0
 10
-196.749924
 20
68.226295
 11
-191.749939
 21
71.113029
  0
LINE
  8
0
 10
-191.749878
 20
71.113159
 11
-191.749878
 21
76.886658
  0
LINE
  8
0
 10
-191.749985
 20
76.886780
 11
-196.749969
 21
79.773529
  0
LINE
  8
0
 10
-196.750076
 20
79.773605
 11
-201.750092
 21
76.886848
  0
LINE
  8
0
 10
-201.750092
 20
76.886673
 11
-201.750092
 21
71.113174
  0
LINE
  8
0
 10
-231.750061
 20
71.113068
 11
-226.750061
 21
68.226318
  0
LINE
  8
0
  6
CENTER
 10
-226.750000
 20
63.999916
 11
-226.750000
 21
83.999916
  0
LINE
  8
0
  6
CENTER
 10
-236.750000
 20
73.999916
 11
-216.750000
 21
73.999916
  0
LINE
  8
0
  6
CENTER
 10
-196.750000
 20
63.999916
 11
-196.750000
 21
83.999916
  0
LINE
  8
0
  6
CENTER
 10
-186.750000
 20
73.999916
 11
-206.750000
 21
73.999916
  0
LINE
  8
0
  6
CENTER
 10
-284.250000
 20
135.999893
 11
-269.250000
 21
135.999893
  0
LINE
  8
0
  6
CENTER
 10
-276.750000
 20
143.499893
 11
-276.750000
 21
128.499893
  0
LINE
  8
0
  6
CENTER
 10
-276.750000
 20
106.499893
 11
-276.750000
 21
121.499893
  0
LINE
  8
0
  6
CENTER
 10
-284.250000
 20
113.999893
 11
-269.250000
 21
113.999893
  0
LINE
  8
0
  6
CENTER
 10
-229.250000
 20
113.999893
 11
-244.250000
 21
113.999893
  0
LINE
  8
0
  6
CENTER
 10
-236.750000
 20
106.499893
 11
-236.750000
 21
121.499893
  0
LINE
  8
0
  6
CENTER
 10
-229.250000
 20
135.999893
 11
-244.250000
 21
135.999893
  0
LINE
  8
0
  6
CENTER
 10
-236.750000
 20
143.499893
 11
-236.750000
 21
128.499893
  0
LINE
  8
0
  6
CENTER
 10
-196.750000
 20
175.999969
 11
-196.750000
 21
155.999969
  0
LINE
  8
0
  6
CENTER
 10
-186.750000
 20
165.999969
 11
-206.750000
 21
165.999969
  0
LINE
  8
0
  6
CENTER
 10
-226.750000
 20
173.499969
 11
-226.750000
 21
158.499969
  0
LINE
  8
0
  6
CENTER
 10
-219.250000
 20
165.999969
 11
-234.250000
 21
165.999969
  0
LINE
  8
0
  6
CENTER
 10
-266.250000
 20
168.499969
 11
-247.250000
 21
168.499969
  0
LINE
  8
0
 10
-336.750000
 20
156.999893
 11
-176.750000
 21
156.999893
  0
LINE
  8
0
  6
CENTER
 10
-286.750000
 20
173.499969
 11
-286.750000
 21
158.499969
  0
LINE
  8
0
  6
CENTER
 10
-316.750000
 20
175.999969
 11
-316.750000
 21
155.999969
  0
LINE
  8
0
  6
CENTER
 10
-326.750000
 20
165.999969
 11
-306.750000
 21
165.999969
  0
LINE
  8
0
 10
-311.749969
 20
76.886757
 11
-316.749969
 21
79.773506
  0
LINE
  8
0
 10
-316.750122
 20
79.773605
 11
-321.750122
 21
76.886856
  0
LINE
  8
0
 10
-321.750092
 20
76.886673
 11
-321.750092
 21
71.113174
  0
LINE
  8
0
 10
-316.749908
 20
68.226295
 11
-311.749908
 21
71.113045
  0
LINE
  8
0
 10
-311.749878
 20
71.113159
 11
-311.749878
 21
76.886658
  0
LINE
  8
0
 10
-321.750061
 20
71.113075
 11
-316.750061
 21
68.226326
  0
LINE
  8
0
  6
CENTER
 10
-316.750000
 20
63.999916
 11
-316.750000
 21
83.999916
  0
LINE
  8
0
  6
CENTER
 10
-326.750000
 20
73.999916
 11
-306.750000
 21
73.999916
  0
LINE
  8
0
 10
-281.749969
 20
76.886749
 11
-286.749939
 21
79.773499
  0
LINE
  8
0
 10
-286.750122
 20
79.773613
 11
-291.750122
 21
76.886864
  0
LINE
  8
0
 10
-291.750092
 20
76.886673
 11
-291.750092
 21
71.113174
  0
LINE
  8
0
 10
-286.749908
 20
68.226303
 11
-281.749908
 21
71.113052
  0
LINE
  8
0
 10
-281.749878
 20
71.113159
 11
-281.749878
 21
76.886658
  0
LINE
  8
0
 10
-291.750061
 20
71.113068
 11
-286.750061
 21
68.226318
  0
LINE
  8
0
  6
CENTER
 10
-286.750000
 20
63.999916
 11
-286.750000
 21
83.999916
  0
LINE
  8
0
  6
CENTER
 10
-296.750000
 20
73.999916
 11
-276.750000
 21
73.999916
  0
LINE
  8
0
 10
-201.749908
 20
305.999939
 11
-191.749908
 21
305.999939
  0
LINE
  8
0
 10
-314.249908
 20
298.999817
 11
-319.249908
 21
298.999817
  0
LINE
  8
0
 10
-319.749878
 20
303.499969
 11
-319.749878
 21
299.499969
  0
LINE
  8
0
 10
-313.749878
 20
303.499969
 11
-313.749878
 21
299.499969
  0
LINE
  8
0
 10
-286.749908
 20
289.999847
 11
-226.749908
 21
289.999847
  0
LINE
  8
0
 10
-226.749908
 20
310.999847
 11
-226.749908
 21
289.999847
  0
LINE
  8
0
 10
-286.749908
 20
310.999847
 11
-286.749908
 21
289.999847
  0
LINE
  8
0
 10
-192.249878
 20
305.999969
 11
-192.249878
 21
304.749969
  0
LINE
  8
0
 10
-199.999908
 20
303.499939
 11
-193.499908
 21
303.499939
  0
LINE
  8
0
 10
-201.249878
 20
305.999969
 11
-201.249878
 21
304.749969
  0
LINE
  8
0
 10
-193.749908
 20
299.499817
 11
-199.749908
 21
299.499817
  0
LINE
  8
0
 10
-194.249908
 20
298.999817
 11
-199.249908
 21
298.999817
  0
LINE
  8
0
 10
-199.749878
 20
303.499969
 11
-199.749878
 21
299.499969
  0
LINE
  8
0
 10
-193.749878
 20
303.499969
 11
-193.749878
 21
299.499969
  0
LINE
  8
0
 10
-194.291382
 20
303.499969
 11
-194.291382
 21
298.999847
  0
LINE
  8
0
 10
-199.208374
 20
303.499969
 11
-199.208374
 21
298.999847
  0
LINE
  8
0
 10
-193.749817
 20
299.499756
 11
-194.249832
 21
298.999756
  0
LINE
  8
0
 10
-199.249954
 20
298.999786
 11
-199.749939
 21
299.499756
  0
LINE
  8
0
 10
-336.749908
 20
310.999847
 11
-336.749908
 21
361.999847
  0
LINE
  8
0
 10
-176.749908
 20
310.999847
 11
-176.749908
 21
361.999847
  0
LINE
  8
0
 10
-336.749908
 20
361.999847
 11
-176.749908
 21
361.999847
  0
LINE
  8
0
 10
-336.749908
 20
310.999847
 11
-176.749908
 21
310.999847
  0
LINE
  8
0
 10
-336.749908
 20
328.999847
 11
-176.749908
 21
328.999847
  0
LINE
  8
0
 10
-314.291382
 20
303.499969
 11
-314.291382
 21
298.999847
  0
LINE
  8
0
 10
-319.208374
 20
303.499969
 11
-319.208374
 21
298.999847
  0
LINE
  8
0
 10
-311.749908
 20
305.999939
 11
-311.749908
 21
310.999847
  0
LINE
  8
0
 10
-321.749908
 20
305.999939
 11
-321.749908
 21
310.999847
  0
LINE
  8
0
 10
-336.749908
 20
332.999847
 11
-176.749908
 21
332.999847
  0
LINE
  8
0
 10
-316.749908
 20
305.999939
 11
-316.749908
 21
310.999847
  0
LINE
  8
0
 10
-311.749908
 20
332.999847
 11
-311.749908
 21
338.999847
  0
LINE
  8
0
 10
-319.249939
 20
298.999817
 11
-319.749939
 21
299.499817
  0
LINE
  8
0
 10
-313.749817
 20
299.499756
 11
-314.249817
 21
298.999756
  0
LINE
  8
0
 10
-201.749908
 20
305.999939
 11
-201.749908
 21
310.999847
  0
LINE
  8
0
 10
-191.749908
 20
305.999939
 11
-191.749908
 21
310.999847
  0
LINE
  8
0
 10
-196.749908
 20
305.999939
 11
-196.749908
 21
310.999847
  0
LINE
  8
0
 10
-201.749908
 20
338.999847
 11
-191.749908
 21
338.999847
  0
LINE
  8
0
 10
-191.749908
 20
332.999847
 11
-191.749908
 21
338.999847
  0
LINE
  8
0
 10
-201.749908
 20
332.999847
 11
-201.749908
 21
338.999847
  0
LINE
  8
0
 10
-321.749908
 20
305.999939
 11
-311.749908
 21
305.999939
  0
LINE
  8
0
 10
-321.749908
 20
332.999847
 11
-321.749908
 21
338.999847
  0
LINE
  8
0
 10
-321.749908
 20
338.999847
 11
-311.749908
 21
338.999847
  0
LINE
  8
0
 10
-312.249878
 20
305.999969
 11
-312.249878
 21
304.749969
  0
LINE
  8
0
 10
-319.999908
 20
303.499939
 11
-313.499908
 21
303.499939
  0
LINE
  8
0
 10
-321.249878
 20
305.999969
 11
-321.249878
 21
304.749969
  0
LINE
  8
0
 10
-313.749908
 20
299.499817
 11
-319.749908
 21
299.499817
  0
LINE
  8
0
  6
CENTER
 10
-316.749908
 20
293.999817
 11
-316.749908
 21
343.999847
  0
LINE
  8
0
  6
CENTER
 10
-286.749908
 20
305.999847
 11
-286.749908
 21
337.999847
  0
LINE
  8
0
  6
CENTER
 10
-226.749908
 20
305.999847
 11
-226.749908
 21
337.999847
  0
LINE
  8
0
  6
CENTER
 10
-196.749908
 20
293.999817
 11
-196.749908
 21
343.999847
  0
LINE
  8
0
  6
CENTER
 10
-301.749908
 20
326.999847
 11
-301.749908
 21
312.999847
  0
LINE
  8
0
  6
CENTER
 10
-211.749908
 20
326.999847
 11
-211.749908
 21
312.999847
  0
LINE
  8
0
 10
-560.249817
 20
68.999947
 11
-560.249817
 21
78.999947
  0
LINE
  8
0
 10
-515.749878
 20
70.749809
 11
-515.749878
 21
77.249809
  0
LINE
  8
0
 10
-518.250061
 20
69.499886
 11
-517.000061
 21
69.499886
  0
LINE
  8
0
 10
-518.250000
 20
78.499886
 11
-517.000000
 21
78.499886
  0
LINE
  8
0
 10
-522.749939
 20
160.226349
 11
-522.749939
 21
171.773376
  0
LINE
  8
0
 10
-541.999756
 20
147.999878
 11
-531.499695
 21
147.999878
  0
LINE
  8
0
 10
-522.749695
 20
160.226379
 11
-527.749695
 21
160.226379
  0
LINE
  8
0
 10
-522.749695
 20
163.113129
 11
-527.749695
 21
163.113129
  0
LINE
  8
0
 10
-522.749634
 20
168.886627
 11
-527.749634
 21
168.886627
  0
LINE
  8
0
 10
-560.249878
 20
78.999886
 11
-554.249878
 21
78.999886
  0
LINE
  8
0
 10
-560.249939
 20
68.999886
 11
-554.249939
 21
68.999886
  0
LINE
  8
0
 10
-523.249817
 20
68.226334
 11
-523.249817
 21
79.773361
  0
LINE
  8
0
 10
-522.749634
 20
171.773407
 11
-527.749634
 21
171.773407
  0
LINE
  8
0
 10
-550.249817
 20
66.499931
 11
-550.249817
 21
81.845230
  0
LINE
  8
0
 10
-516.249634
 20
168.999847
 11
-515.749573
 21
168.499817
  0
LINE
  8
0
 10
-555.749573
 20
170.999878
 11
-549.749573
 21
170.999878
  0
LINE
  8
0
 10
-555.749634
 20
160.999878
 11
-549.749634
 21
160.999878
  0
LINE
  8
0
 10
-555.749817
 20
160.999939
 11
-555.749817
 21
170.999939
  0
LINE
  8
0
 10
-520.249756
 20
163.541382
 11
-515.749634
 21
163.541382
  0
LINE
  8
0
 10
-520.249756
 20
168.458374
 11
-515.749634
 21
168.458374
  0
LINE
  8
0
 10
-520.249756
 20
168.999878
 11
-516.249756
 21
168.999878
  0
LINE
  8
0
 10
-520.249817
 20
162.999878
 11
-516.249817
 21
162.999878
  0
LINE
  8
0
 10
-515.749817
 20
168.499817
 11
-515.749817
 21
163.499817
  0
LINE
  8
0
 10
-516.249817
 20
168.999817
 11
-516.249817
 21
162.999817
  0
LINE
  8
0
 10
-543.749695
 20
153.999878
 11
-506.749695
 21
153.999878
  0
LINE
  8
0
 10
-506.749817
 20
103.999779
 11
-506.749817
 21
153.999786
  0
LINE
  8
0
 10
-544.749817
 20
149.999908
 11
-544.749817
 21
152.999908
  0
LINE
  8
0
 10
-544.749695
 20
152.999969
 11
-543.749756
 21
153.999954
  0
LINE
  8
0
 10
-544.749695
 20
149.999878
 11
-522.749695
 21
149.999878
  0
LINE
  8
0
 10
-522.749817
 20
148.999847
 11
-522.749817
 21
149.999847
  0
LINE
  8
0
 10
-522.749695
 20
148.999878
 11
-518.249695
 21
148.999878
  0
LINE
  8
0
 10
-508.749878
 20
103.999886
 11
-506.749878
 21
103.999886
  0
LINE
  8
0
 10
-511.749817
 20
106.999794
 11
-511.749817
 21
142.499786
  0
LINE
  8
0
 10
-522.749817
 20
161.499878
 11
-521.499817
 21
161.499878
  0
LINE
  8
0
 10
-520.249939
 20
162.749817
 11
-520.249939
 21
169.249817
  0
LINE
  8
0
 10
-540.999756
 20
143.999878
 11
-532.499756
 21
143.999878
  0
LINE
  8
0
 10
-541.999756
 20
144.999893
 11
-540.999695
 21
143.999878
  0
LINE
  8
0
 10
-532.499756
 20
143.999893
 11
-531.499695
 21
144.999924
  0
LINE
  8
0
 10
-541.999756
 20
144.999878
 11
-531.499756
 21
144.999878
  0
LINE
  8
0
 10
-541.999817
 20
144.999908
 11
-541.999817
 21
147.999878
  0
LINE
  8
0
 10
-531.499817
 20
144.999878
 11
-531.499817
 21
147.999878
  0
LINE
  8
0
 10
-539.749817
 20
147.999893
 11
-539.749817
 21
149.999893
  0
LINE
  8
0
 10
-533.749817
 20
147.999878
 11
-533.749817
 21
149.999878
  0
LINE
  8
0
 10
-539.208313
 20
147.999893
 11
-539.208313
 21
149.999893
  0
LINE
  8
0
 10
-534.291321
 20
147.999878
 11
-534.291321
 21
149.999878
  0
LINE
  8
0
 10
-554.249817
 20
66.499947
 11
-554.249817
 21
81.845245
  0
LINE
  8
0
 10
-554.250000
 20
66.499886
 11
-550.250000
 21
66.499886
  0
LINE
  8
0
 10
-549.749634
 20
173.499878
 11
-545.749634
 21
173.499878
  0
LINE
  8
0
 10
-545.749817
 20
179.999908
 11
-545.749817
 21
156.999908
  0
LINE
  8
0
 10
-549.749817
 20
173.499939
 11
-549.749817
 21
158.534576
  0
LINE
  8
0
 10
-578.749817
 20
143.090881
 11
-578.749817
 21
101.763908
  0
LINE
  8
0
 10
-551.232056
 20
156.602737
 11
-572.820313
 21
150.818176
  0
LINE
  8
0
 10
-574.749817
 20
143.090881
 11
-574.749817
 21
101.763901
  0
LINE
  8
0
 10
-555.249817
 20
83.577393
 11
-574.749817
 21
94.835686
  0
LINE
  8
0
 10
-553.249817
 20
87.041481
 11
-572.749817
 21
98.299774
  0
LINE
  8
0
 10
-550.196777
 20
152.739090
 11
-571.784973
 21
146.954544
  0
LINE
  8
0
 10
-522.749756
 20
170.499878
 11
-521.499756
 21
170.499878
  0
LINE
  8
0
 10
-515.749695
 20
163.499878
 11
-516.249695
 21
162.999878
  0
LINE
  8
0
 10
-545.749634
 20
179.999878
 11
-527.749634
 21
179.999878
  0
LINE
  8
0
 10
-545.749695
 20
156.999878
 11
-527.749695
 21
156.999878
  0
LINE
  8
0
 10
-527.749817
 20
156.999847
 11
-527.749817
 21
179.999847
  0
LINE
  8
0
 10
-518.249878
 20
68.226341
 11
-518.249878
 21
79.773369
  0
LINE
  8
0
 10
-518.249939
 20
68.226379
 11
-523.249939
 21
68.226379
  0
LINE
  8
0
 10
-518.249878
 20
76.886627
 11
-523.249878
 21
76.886627
  0
LINE
  8
0
 10
-518.249878
 20
79.773407
 11
-523.249878
 21
79.773407
  0
LINE
  8
0
 10
-518.249939
 20
71.113129
 11
-523.249939
 21
71.113129
  0
LINE
  8
0
  6
CENTER
 10
-560.749634
 20
165.999878
 11
-510.749634
 21
165.999878
  0
LINE
  8
0
  6
CENTER
 10
-516.749756
 20
135.999878
 11
-501.749756
 21
135.999878
  0
LINE
  8
0
  6
CENTER
 10
-516.749817
 20
113.999886
 11
-501.749817
 21
113.999886
  0
LINE
  8
0
  6
CENTER
 10
-565.250000
 20
73.999886
 11
-510.750061
 21
73.999886
  0
LINE
  8
0
 10
530.000000
 20
68.113159
 11
530.000000
 21
73.886658
  0
LINE
  8
0
 10
534.999878
 20
65.226357
 11
529.999878
 21
68.113106
  0
LINE
  8
0
 10
539.999939
 20
68.113235
 11
534.999939
 21
65.226471
  0
LINE
  8
0
 10
534.999817
 20
76.773369
 11
539.999817
 21
73.886620
  0
LINE
  8
0
 10
540.000061
 20
73.886719
 11
540.000061
 21
68.113220
  0
LINE
  8
0
 10
529.999878
 20
176.113129
 11
534.999817
 21
173.226379
  0
LINE
  8
0
 10
530.000000
 20
181.886719
 11
530.000000
 21
176.113220
  0
LINE
  8
0
 10
534.999878
 20
184.773453
 11
529.999939
 21
181.886719
  0
LINE
  8
0
 10
539.999878
 20
181.886536
 11
534.999878
 21
184.773285
  0
LINE
  8
0
 10
385.000000
 20
154.999969
 11
385.000000
 21
190.999908
  0
LINE
  8
0
 10
575.000000
 20
154.999969
 11
575.000000
 21
190.999908
  0
LINE
  8
0
 10
385.000000
 20
190.999908
 11
575.000000
 21
190.999908
  0
LINE
  8
0
 10
534.999878
 20
173.226379
 11
539.999939
 21
176.113159
  0
LINE
  8
0
 10
540.000061
 20
176.113159
 11
540.000061
 21
181.886658
  0
LINE
  8
0
 10
450.000000
 20
159.999908
 11
510.000000
 21
159.999908
  0
LINE
  8
0
 10
419.999939
 20
176.113159
 11
419.999939
 21
181.886658
  0
LINE
  8
0
 10
529.999939
 20
73.886703
 11
534.999878
 21
76.773445
  0
LINE
  8
0
 10
450.000000
 20
94.999908
 11
510.000000
 21
94.999908
  0
LINE
  8
0
 10
450.000000
 20
94.999908
 11
450.000000
 21
159.999908
  0
LINE
  8
0
 10
385.000000
 20
170.999908
 11
575.000000
 21
170.999908
  0
LINE
  8
0
 10
510.000000
 20
94.999908
 11
510.000000
 21
159.999908
  0
LINE
  8
0
 10
502.499939
 20
73.886719
 11
502.499939
 21
68.113220
  0
LINE
  8
0
 10
502.500031
 20
68.113174
 11
507.500031
 21
65.226425
  0
LINE
  8
0
 10
507.500031
 20
65.226379
 11
512.500000
 21
68.113129
  0
LINE
  8
0
 10
512.500000
 20
68.113159
 11
512.500000
 21
73.886658
  0
LINE
  8
0
 10
512.500000
 20
73.886642
 11
507.500031
 21
76.773392
  0
LINE
  8
0
 10
507.500092
 20
76.773415
 11
502.500092
 21
73.886665
  0
LINE
  8
0
 10
429.999969
 20
176.113251
 11
424.999969
 21
173.226501
  0
LINE
  8
0
 10
429.999969
 20
181.886719
 11
429.999969
 21
176.113220
  0
LINE
  8
0
 10
425.000061
 20
184.773453
 11
430.000031
 21
181.886703
  0
LINE
  8
0
 10
419.999939
 20
181.886688
 11
424.999939
 21
184.773437
  0
LINE
  8
0
 10
425.000000
 20
173.226334
 11
420.000000
 21
176.113083
  0
LINE
  8
0
  6
CENTER
 10
507.500000
 20
61.999924
 11
507.500000
 21
79.999924
  0
LINE
  8
0
  6
CENTER
 10
498.500000
 20
70.999924
 11
516.500000
 21
70.999924
  0
LINE
  8
0
  6
CENTER
 10
535.000000
 20
61.999924
 11
535.000000
 21
79.999924
  0
LINE
  8
0
  6
CENTER
 10
544.000000
 20
70.999924
 11
526.000000
 21
70.999924
  0
LINE
  8
0
  6
CENTER
 10
467.500000
 20
137.999908
 11
452.500000
 21
137.999908
  0
LINE
  8
0
  6
CENTER
 10
460.000000
 20
145.499908
 11
460.000000
 21
130.499908
  0
LINE
  8
0
  6
CENTER
 10
460.000000
 20
97.499908
 11
460.000000
 21
112.499908
  0
LINE
  8
0
  6
CENTER
 10
467.500000
 20
104.999908
 11
452.500000
 21
104.999908
  0
LINE
  8
0
  6
CENTER
 10
492.500000
 20
104.999908
 11
507.500000
 21
104.999908
  0
LINE
  8
0
  6
CENTER
 10
500.000000
 20
97.499908
 11
500.000000
 21
112.499908
  0
LINE
  8
0
  6
CENTER
 10
500.000000
 20
145.499908
 11
500.000000
 21
130.499908
  0
LINE
  8
0
  6
CENTER
 10
492.500000
 20
137.999908
 11
507.500000
 21
137.999908
  0
LINE
  8
0
  6
CENTER
 10
416.000000
 20
178.999954
 11
434.000000
 21
178.999954
  0
LINE
  8
0
  6
CENTER
 10
425.000000
 20
187.999954
 11
425.000000
 21
169.999954
  0
LINE
  8
0
  6
CENTER
 10
452.500000
 20
186.499954
 11
452.500000
 21
171.499954
  0
LINE
  8
0
  6
CENTER
 10
445.000000
 20
178.999954
 11
460.000000
 21
178.999954
  0
LINE
  8
0
  6
CENTER
 10
471.000000
 20
180.999954
 11
489.000000
 21
180.999954
  0
LINE
  8
0
  6
CENTER
 10
515.000000
 20
178.999954
 11
500.000000
 21
178.999954
  0
LINE
  8
0
  6
CENTER
 10
507.500000
 20
186.499954
 11
507.500000
 21
171.499954
  0
LINE
  8
0
  6
CENTER
 10
535.000000
 20
187.999954
 11
535.000000
 21
169.999954
  0
LINE
  8
0
  6
CENTER
 10
544.000000
 20
178.999954
 11
526.000000
 21
178.999954
  0
LINE
  8
0
 10
419.999939
 20
73.886719
 11
419.999939
 21
68.113220
  0
LINE
  8
0
 10
420.000031
 20
68.113182
 11
425.000031
 21
65.226433
  0
LINE
  8
0
 10
425.000031
 20
65.226387
 11
430.000031
 21
68.113136
  0
LINE
  8
0
 10
429.999969
 20
68.113159
 11
429.999969
 21
73.886658
  0
LINE
  8
0
 10
430.000031
 20
73.886635
 11
425.000031
 21
76.773384
  0
LINE
  8
0
 10
425.000092
 20
76.773415
 11
420.000092
 21
73.886665
  0
LINE
  8
0
  6
CENTER
 10
425.000000
 20
61.999924
 11
425.000000
 21
79.999924
  0
LINE
  8
0
  6
CENTER
 10
416.000000
 20
70.999924
 11
434.000000
 21
70.999924
  0
LINE
  8
0
 10
447.499939
 20
73.886719
 11
447.499939
 21
68.113220
  0
LINE
  8
0
 10
447.500031
 20
68.113174
 11
452.500031
 21
65.226425
  0
LINE
  8
0
 10
452.500031
 20
65.226387
 11
457.500031
 21
68.113136
  0
LINE
  8
0
 10
457.499969
 20
68.113159
 11
457.499969
 21
73.886658
  0
LINE
  8
0
 10
457.500031
 20
73.886635
 11
452.500031
 21
76.773384
  0
LINE
  8
0
 10
452.500092
 20
76.773415
 11
447.500092
 21
73.886665
  0
LINE
  8
0
  6
CENTER
 10
452.500000
 20
61.999924
 11
452.500000
 21
79.999924
  0
LINE
  8
0
  6
CENTER
 10
443.500000
 20
70.999924
 11
461.500000
 21
70.999924
  0
LINE
  8
0
 10
420.000031
 20
306.000031
 11
430.000031
 21
306.000031
  0
LINE
  8
0
 10
421.750061
 20
303.500031
 11
428.250061
 21
303.500031
  0
LINE
  8
0
 10
420.500000
 20
305.999908
 11
420.500000
 21
304.749908
  0
LINE
  8
0
 10
429.500000
 20
305.999939
 11
429.500000
 21
304.749939
  0
LINE
  8
0
 10
430.000031
 20
339.499969
 11
430.000031
 21
333.499969
  0
LINE
  8
0
 10
420.000031
 20
339.499969
 11
420.000031
 21
333.499969
  0
LINE
  8
0
 10
420.000092
 20
339.499969
 11
430.000092
 21
339.499969
  0
LINE
  8
0
 10
538.000000
 20
303.500000
 11
538.000000
 21
299.999969
  0
LINE
  8
0
 10
532.000000
 20
303.500000
 11
532.000000
 21
299.999969
  0
LINE
  8
0
 10
532.541504
 20
303.500000
 11
532.541504
 21
299.499969
  0
LINE
  8
0
 10
385.000031
 20
310.999969
 11
385.000031
 21
366.999969
  0
LINE
  8
0
 10
575.000000
 20
310.999969
 11
575.000000
 21
366.999969
  0
LINE
  8
0
 10
385.000031
 20
310.999969
 11
575.000000
 21
310.999969
  0
LINE
  8
0
 10
385.000031
 20
328.999969
 11
575.000000
 21
328.999969
  0
LINE
  8
0
 10
569.000000
 20
310.999969
 11
569.000000
 21
328.999969
  0
LINE
  8
0
 10
391.000031
 20
310.999969
 11
391.000031
 21
328.999969
  0
LINE
  8
0
 10
537.458496
 20
303.500000
 11
537.458496
 21
299.499969
  0
LINE
  8
0
 10
450.000031
 20
284.999969
 11
510.000031
 21
284.999969
  0
LINE
  8
0
 10
530.000000
 20
339.499969
 11
530.000000
 21
333.499969
  0
LINE
  8
0
 10
540.000000
 20
339.499969
 11
540.000000
 21
333.499969
  0
LINE
  8
0
 10
540.000000
 20
339.499969
 11
530.000000
 21
339.499969
  0
LINE
  8
0
 10
510.000031
 20
310.999969
 11
510.000031
 21
284.999969
  0
LINE
  8
0
 10
450.000031
 20
310.999969
 11
450.000031
 21
284.999969
  0
LINE
  8
0
 10
532.500000
 20
299.499939
 11
532.000000
 21
299.999969
  0
LINE
  8
0
 10
385.000031
 20
366.999969
 11
575.000000
 21
366.999969
  0
LINE
  8
0
 10
535.000000
 20
310.999969
 11
535.000000
 21
306.000031
  0
LINE
  8
0
 10
530.000000
 20
310.999969
 11
530.000000
 21
306.000031
  0
LINE
  8
0
 10
540.000000
 20
310.999969
 11
540.000000
 21
306.000031
  0
LINE
  8
0
 10
532.000000
 20
300.000000
 11
538.000000
 21
300.000000
  0
LINE
  8
0
 10
537.500061
 20
299.500000
 11
538.000061
 21
300.000000
  0
LINE
  8
0
 10
422.500031
 20
299.500000
 11
427.500031
 21
299.500000
  0
LINE
  8
0
 10
422.000000
 20
303.500000
 11
422.000000
 21
299.999969
  0
LINE
  8
0
 10
428.000000
 20
303.500000
 11
428.000000
 21
299.999969
  0
LINE
  8
0
 10
427.458496
 20
303.500000
 11
427.458496
 21
299.499969
  0
LINE
  8
0
 10
422.541504
 20
303.500000
 11
422.541504
 21
299.499969
  0
LINE
  8
0
 10
427.499969
 20
299.499939
 11
428.000000
 21
300.000000
  0
LINE
  8
0
 10
422.500000
 20
299.499908
 11
422.000000
 21
299.999908
  0
LINE
  8
0
 10
428.000031
 20
300.000000
 11
422.000031
 21
300.000000
  0
LINE
  8
0
 10
385.000031
 20
333.499969
 11
575.000000
 21
333.499969
  0
LINE
  8
0
 10
420.000031
 20
310.999969
 11
420.000031
 21
306.000031
  0
LINE
  8
0
 10
430.000031
 20
310.999969
 11
430.000031
 21
306.000031
  0
LINE
  8
0
 10
425.000031
 20
310.999969
 11
425.000031
 21
306.000031
  0
LINE
  8
0
 10
540.000000
 20
306.000031
 11
530.000000
 21
306.000031
  0
LINE
  8
0
 10
538.250000
 20
303.500031
 11
531.750000
 21
303.500031
  0
LINE
  8
0
 10
539.500000
 20
305.999908
 11
539.500000
 21
304.749908
  0
LINE
  8
0
 10
530.500000
 20
305.999939
 11
530.500000
 21
304.749939
  0
LINE
  8
0
 10
537.500000
 20
299.500000
 11
532.500000
 21
299.500000
  0
LINE
  8
0
  6
CENTER
 10
425.000031
 20
344.499969
 11
425.000031
 21
294.500000
  0
LINE
  8
0
  6
CENTER
 10
452.500031
 20
305.999969
 11
452.500031
 21
338.499969
  0
LINE
  8
0
  6
CENTER
 10
507.500031
 20
305.999969
 11
507.500031
 21
338.499969
  0
LINE
  8
0
  6
CENTER
 10
535.000000
 20
344.499969
 11
535.000000
 21
294.500000
  0
LINE
  8
0
  6
CENTER
 10
435.000031
 20
326.999969
 11
435.000031
 21
312.999969
  0
LINE
  8
0
  6
CENTER
 10
525.000000
 20
326.999969
 11
525.000000
 21
312.999969
  0
LINE
  8
0
 10
174.750092
 20
152.999954
 11
185.250046
 21
152.999954
  0
LINE
  8
0
 10
169.000000
 20
154.999969
 11
169.000000
 21
155.999939
  0
LINE
  8
0
 10
169.000031
 20
155.999939
 11
173.000046
 21
159.999954
  0
LINE
  8
0
 10
196.000000
 20
153.999924
 11
196.000000
 21
154.999924
  0
LINE
  8
0
 10
196.000076
 20
153.999954
 11
200.500076
 21
153.999954
  0
LINE
  8
0
 10
211.999954
 20
94.999908
 11
214.999954
 21
94.999908
  0
LINE
  8
0
 10
185.250031
 20
149.999939
 11
185.250031
 21
152.999969
  0
LINE
  8
0
 10
174.750031
 20
149.999969
 11
174.750031
 21
152.999939
  0
LINE
  8
0
 10
175.750092
 20
148.999954
 11
184.250092
 21
148.999954
  0
LINE
  8
0
 10
173.000076
 20
159.999908
 11
215.000076
 21
159.999908
  0
LINE
  8
0
 10
215.000000
 20
94.999840
 11
215.000000
 21
159.999847
  0
LINE
  8
0
 10
160.500229
 20
183.999908
 11
166.500229
 21
183.999908
  0
LINE
  8
0
 10
160.500214
 20
173.999908
 11
166.500214
 21
173.999908
  0
LINE
  8
0
 10
160.500000
 20
173.999969
 11
160.500000
 21
183.999969
  0
LINE
  8
0
 10
209.000000
 20
97.999847
 11
209.000000
 21
145.499893
  0
LINE
  8
0
 10
169.000076
 20
154.999954
 11
196.000076
 21
154.999954
  0
LINE
  8
0
 10
182.458496
 20
152.999939
 11
182.458496
 21
154.999939
  0
LINE
  8
0
 10
177.541504
 20
152.999969
 11
177.541504
 21
154.999969
  0
LINE
  8
0
 10
183.000000
 20
152.999939
 11
183.000000
 21
154.999939
  0
LINE
  8
0
 10
177.000000
 20
152.999969
 11
177.000000
 21
154.999969
  0
LINE
  8
0
 10
174.750076
 20
149.999954
 11
185.250092
 21
149.999954
  0
LINE
  8
0
 10
171.000137
 20
190.999908
 11
189.000137
 21
190.999908
  0
LINE
  8
0
 10
171.000107
 20
170.999908
 11
189.000107
 21
170.999908
  0
LINE
  8
0
 10
189.000000
 20
170.999893
 11
189.000000
 21
190.999893
  0
LINE
  8
0
 10
171.000000
 20
165.534576
 11
171.000000
 21
190.999924
  0
LINE
  8
0
 10
133.000000
 20
101.361969
 11
133.000000
 21
148.501434
  0
LINE
  8
0
 10
161.499878
 20
63.499908
 11
165.999878
 21
63.499908
  0
LINE
  8
0
 10
161.500000
 20
63.499947
 11
161.500000
 21
78.845245
  0
LINE
  8
0
 10
166.500137
 20
186.499908
 11
171.000137
 21
186.499908
  0
LINE
  8
0
 10
166.500000
 20
165.534592
 11
166.500000
 21
186.499939
  0
LINE
  8
0
 10
160.499908
 20
80.577293
 11
137.249908
 21
94.000687
  0
LINE
  8
0
 10
165.017700
 20
163.602707
 11
139.300095
 21
156.711700
  0
LINE
  8
0
 10
137.500000
 20
101.361954
 11
137.500000
 21
148.501434
  0
LINE
  8
0
 10
166.182419
 20
159.256042
 11
140.464798
 21
152.365036
  0
LINE
  8
0
 10
162.749924
 20
84.474411
 11
139.499924
 21
97.897804
  0
LINE
  8
0
 10
185.250061
 20
150.000000
 11
184.250046
 21
149.000000
  0
LINE
  8
0
 10
166.000000
 20
63.499939
 11
166.000000
 21
78.845238
  0
LINE
  8
0
 10
155.500000
 20
75.999908
 11
161.500000
 21
75.999908
  0
LINE
  8
0
 10
155.500000
 20
65.999977
 11
155.500000
 21
75.999977
  0
LINE
  8
0
 10
155.500000
 20
65.999908
 11
161.500000
 21
65.999908
  0
LINE
  8
0
 10
198.999969
 20
65.226402
 11
198.999969
 21
76.773430
  0
LINE
  8
0
 10
198.999939
 20
65.226402
 11
193.999969
 21
65.226402
  0
LINE
  8
0
 10
198.999939
 20
68.113152
 11
193.999969
 21
68.113152
  0
LINE
  8
0
 10
198.999954
 20
73.886650
 11
193.999985
 21
73.886650
  0
LINE
  8
0
 10
198.999939
 20
76.773430
 11
193.999969
 21
76.773430
  0
LINE
  8
0
 10
201.499969
 20
67.749893
 11
201.499969
 21
74.249893
  0
LINE
  8
0
 10
198.999939
 20
66.499908
 11
200.249939
 21
66.499908
  0
LINE
  8
0
 10
198.999939
 20
75.499908
 11
200.249939
 21
75.499908
  0
LINE
  8
0
 10
174.750046
 20
149.999924
 11
175.750046
 21
148.999908
  0
LINE
  8
0
 10
194.000000
 20
65.226372
 11
194.000000
 21
76.773399
  0
LINE
  8
0
 10
193.999969
 20
173.226410
 11
193.999969
 21
184.773437
  0
LINE
  8
0
 10
194.000153
 20
173.226410
 11
189.000183
 21
173.226410
  0
LINE
  8
0
 10
194.000153
 20
176.113159
 11
189.000183
 21
176.113159
  0
LINE
  8
0
 10
194.000168
 20
181.886658
 11
189.000198
 21
181.886658
  0
LINE
  8
0
 10
194.000168
 20
184.773437
 11
189.000198
 21
184.773437
  0
LINE
  8
0
 10
196.499969
 20
175.749908
 11
196.499969
 21
182.249908
  0
LINE
  8
0
 10
194.000153
 20
174.499908
 11
195.250153
 21
174.499908
  0
LINE
  8
0
 10
194.000153
 20
183.499908
 11
195.250153
 21
183.499908
  0
LINE
  8
0
 10
199.999985
 20
181.999878
 11
199.999985
 21
175.999878
  0
LINE
  8
0
 10
200.500015
 20
176.499924
 11
200.000031
 21
175.999939
  0
LINE
  8
0
 10
200.500000
 20
176.499878
 11
200.500000
 21
181.499878
  0
LINE
  8
0
 10
196.500076
 20
175.999908
 11
200.000107
 21
175.999908
  0
LINE
  8
0
 10
196.500092
 20
181.999908
 11
200.000107
 21
181.999908
  0
LINE
  8
0
 10
196.500092
 20
181.458405
 11
200.500122
 21
181.458405
  0
LINE
  8
0
 10
196.500092
 20
176.541412
 11
200.500122
 21
176.541412
  0
LINE
  8
0
 10
200.500061
 20
181.499786
 11
200.000046
 21
181.999771
  0
LINE
  8
0
  6
CENTER
 10
150.499893
 20
70.999908
 11
207.000000
 21
70.999908
  0
LINE
  8
0
  6
CENTER
 10
203.999969
 20
104.999908
 11
219.999969
 21
104.999908
  0
LINE
  8
0
  6
CENTER
 10
204.000031
 20
137.999908
 11
220.000031
 21
137.999908
  0
LINE
  8
0
  6
CENTER
 10
155.500122
 20
178.999908
 11
205.500122
 21
178.999908
  0
LINE
  8
0
 10
23.250019
 20
-309.228210
 11
28.250015
 21
-306.341461
  0
LINE
  8
0
 10
28.250002
 20
-306.341553
 11
33.250000
 21
-309.228302
  0
LINE
  8
0
 10
33.250031
 20
-309.228302
 11
33.250031
 21
-315.001801
  0
LINE
  8
0
 10
33.250023
 20
-315.001801
 11
28.250025
 21
-317.888550
  0
LINE
  8
0
 10
28.250027
 20
-317.888458
 11
23.250015
 21
-315.001678
  0
LINE
  8
0
 10
193.250015
 20
-315.001801
 11
193.250015
 21
-309.228302
  0
LINE
  8
0
 10
193.250015
 20
-309.228119
 11
188.250015
 21
-306.341370
  0
LINE
  8
0
 10
143.250031
 20
-433.228363
 11
143.250031
 21
-439.001862
  0
LINE
  8
0
 10
143.250000
 20
-439.002075
 11
148.249985
 21
-441.888824
  0
LINE
  8
0
 10
148.250137
 20
-441.888824
 11
153.250153
 21
-439.002075
  0
LINE
  8
0
 10
153.250031
 20
-439.001862
 11
153.250031
 21
-433.228363
  0
LINE
  8
0
 10
153.250015
 20
-433.228424
 11
148.250000
 21
-430.341675
  0
LINE
  8
0
 10
148.250183
 20
-430.341827
 11
143.250183
 21
-433.228577
  0
LINE
  8
0
 10
193.250015
 20
-433.228363
 11
193.250015
 21
-439.001862
  0
LINE
  8
0
 10
193.249939
 20
-439.001709
 11
188.249939
 21
-441.888489
  0
LINE
  8
0
 10
188.249939
 20
-441.888794
 11
183.249924
 21
-439.002045
  0
LINE
  8
0
 10
183.250000
 20
-439.001862
 11
183.250000
 21
-433.228363
  0
LINE
  8
0
 10
183.250107
 20
-433.228546
 11
188.250122
 21
-430.341766
  0
LINE
  8
0
 10
188.249954
 20
-430.341766
 11
193.249985
 21
-433.228546
  0
LINE
  8
0
 10
8.250015
 20
-300.115051
 11
208.250015
 21
-300.115051
  0
LINE
  8
0
 10
8.250015
 20
-320.115051
 11
208.250015
 21
-320.115051
  0
LINE
  8
0
 10
8.250015
 20
-300.115051
 11
8.250015
 21
-339.115112
  0
LINE
  8
0
 10
208.250015
 20
-300.115051
 11
208.250015
 21
-339.115112
  0
LINE
  8
0
 10
188.250076
 20
-306.341553
 11
183.250061
 21
-309.228302
  0
LINE
  8
0
 10
23.250023
 20
-315.001801
 11
23.250023
 21
-309.228302
  0
LINE
  8
0
 10
183.250000
 20
-309.228302
 11
183.250000
 21
-315.001801
  0
LINE
  8
0
 10
183.250046
 20
-315.001648
 11
188.250046
 21
-317.888397
  0
LINE
  8
0
 10
188.250076
 20
-317.888550
 11
193.250076
 21
-315.001801
  0
LINE
  8
0
 10
68.250015
 20
-329.115051
 11
148.250015
 21
-329.115051
  0
LINE
  8
0
 10
68.250015
 20
-404.115051
 11
148.250015
 21
-404.115051
  0
LINE
  8
0
  6
CENTER
 10
133.250015
 20
-347.615051
 11
133.250015
 21
-364.615051
  0
LINE
  8
0
 10
68.250015
 20
-404.115051
 11
68.250015
 21
-329.115051
  0
LINE
  8
0
  6
CENTER
 10
148.250015
 20
-445.115112
 11
148.250015
 21
-427.115112
  0
LINE
  8
0
  6
CENTER
 10
139.250015
 20
-436.115112
 11
157.250015
 21
-436.115112
  0
LINE
  8
0
  6
CENTER
 10
188.250015
 20
-445.115112
 11
188.250015
 21
-427.115112
  0
LINE
  8
0
  6
CENTER
 10
197.250015
 20
-436.115112
 11
179.250015
 21
-436.115112
  0
LINE
  8
0
  6
CENTER
 10
83.250015
 20
-347.615051
 11
83.250015
 21
-364.615051
  0
LINE
  8
0
  6
CENTER
 10
74.750015
 20
-356.115051
 11
91.750015
 21
-356.115051
  0
LINE
  8
0
  6
CENTER
 10
83.250015
 20
-400.615051
 11
83.250015
 21
-383.615051
  0
LINE
  8
0
  6
CENTER
 10
74.750015
 20
-392.115051
 11
91.750015
 21
-392.115051
  0
LINE
  8
0
  6
CENTER
 10
133.250015
 20
-400.615051
 11
133.250015
 21
-383.615051
  0
LINE
  8
0
  6
CENTER
 10
141.750015
 20
-392.115051
 11
124.750015
 21
-392.115051
  0
LINE
  8
0
 10
148.250015
 20
-404.115051
 11
148.250015
 21
-329.115051
  0
LINE
  8
0
  6
CENTER
 10
141.750015
 20
-356.115051
 11
124.750015
 21
-356.115051
  0
LINE
  8
0
  6
CENTER
 10
197.250015
 20
-312.115051
 11
179.250015
 21
-312.115051
  0
LINE
  8
0
  6
CENTER
 10
188.250015
 20
-303.115051
 11
188.250015
 21
-321.115051
  0
LINE
  8
0
  6
CENTER
 10
148.250015
 20
-304.615051
 11
148.250015
 21
-319.615051
  0
LINE
  8
0
  6
CENTER
 10
155.750015
 20
-312.115051
 11
140.750015
 21
-312.115051
  0
LINE
  8
0
  6
CENTER
 10
99.250015
 20
-310.115051
 11
117.250015
 21
-310.115051
  0
LINE
  8
0
  6
CENTER
 10
60.750015
 20
-312.115051
 11
75.750015
 21
-312.115051
  0
LINE
  8
0
  6
CENTER
 10
68.250015
 20
-304.615051
 11
68.250015
 21
-319.615051
  0
LINE
  8
0
  6
CENTER
 10
28.250015
 20
-303.115051
 11
28.250015
 21
-321.115051
  0
LINE
  8
0
  6
CENTER
 10
19.250015
 20
-312.115051
 11
37.250015
 21
-312.115051
  0
LINE
  8
0
 10
23.250023
 20
-433.228363
 11
23.250023
 21
-439.001862
  0
LINE
  8
0
 10
23.249977
 20
-439.002075
 11
28.249973
 21
-441.888824
  0
LINE
  8
0
 10
28.250122
 20
-441.888855
 11
33.250134
 21
-439.002075
  0
LINE
  8
0
 10
33.250031
 20
-439.001862
 11
33.250031
 21
-433.228363
  0
LINE
  8
0
 10
33.249989
 20
-433.228424
 11
28.249981
 21
-430.341644
  0
LINE
  8
0
 10
28.250168
 20
-430.341827
 11
23.250158
 21
-433.228577
  0
LINE
  8
0
  6
CENTER
 10
28.250015
 20
-445.115112
 11
28.250015
 21
-427.115112
  0
LINE
  8
0
  6
CENTER
 10
19.250015
 20
-436.115112
 11
37.250015
 21
-436.115112
  0
LINE
  8
0
 10
63.250023
 20
-433.228363
 11
63.250023
 21
-439.001862
  0
LINE
  8
0
 10
63.249985
 20
-439.002075
 11
68.249977
 21
-441.888824
  0
LINE
  8
0
 10
68.250130
 20
-441.888824
 11
73.250137
 21
-439.002075
  0
LINE
  8
0
 10
73.250031
 20
-439.001862
 11
73.250031
 21
-433.228363
  0
LINE
  8
0
 10
73.250008
 20
-433.228424
 11
68.250015
 21
-430.341675
  0
LINE
  8
0
 10
68.250191
 20
-430.341827
 11
63.250164
 21
-433.228577
  0
LINE
  8
0
  6
CENTER
 10
68.250015
 20
-445.115112
 11
68.250015
 21
-427.115112
  0
LINE
  8
0
  6
CENTER
 10
59.250015
 20
-436.115112
 11
77.250015
 21
-436.115112
  0
LINE
  8
0
 10
23.750031
 20
-153.115067
 11
23.750031
 21
-154.365067
  0
LINE
  8
0
 10
183.250031
 20
-148.115051
 11
183.250031
 21
-153.115036
  0
LINE
  8
0
 10
193.250031
 20
-153.115036
 11
183.250031
 21
-153.115036
  0
LINE
  8
0
 10
188.250031
 20
-153.115082
 11
188.250031
 21
-148.115082
  0
LINE
  8
0
 10
191.500031
 20
-155.615036
 11
185.000031
 21
-155.615036
  0
LINE
  8
0
 10
183.750031
 20
-153.115067
 11
183.750031
 21
-154.365067
  0
LINE
  8
0
 10
192.750031
 20
-153.115067
 11
192.750031
 21
-154.365067
  0
LINE
  8
0
 10
188.250031
 20
-148.115051
 11
188.250031
 21
-153.115036
  0
LINE
  8
0
 10
193.250031
 20
-148.115051
 11
193.250031
 21
-153.115036
  0
LINE
  8
0
 10
28.250031
 20
-148.115051
 11
28.250031
 21
-153.115036
  0
LINE
  8
0
 10
33.250031
 20
-148.115051
 11
33.250031
 21
-153.115036
  0
LINE
  8
0
 10
23.250031
 20
-153.115036
 11
33.250031
 21
-153.115036
  0
LINE
  8
0
 10
28.250031
 20
-153.115082
 11
28.250031
 21
-148.115082
  0
LINE
  8
0
 10
25.000031
 20
-155.615036
 11
31.500031
 21
-155.615036
  0
LINE
  8
0
 10
32.750031
 20
-153.115067
 11
32.750031
 21
-154.365067
  0
LINE
  8
0
 10
190.750031
 20
-158.115036
 11
185.750031
 21
-158.115036
  0
LINE
  8
0
 10
191.250031
 20
-155.615051
 11
191.250031
 21
-157.615051
  0
LINE
  8
0
 10
208.250031
 20
-84.115036
 11
208.250031
 21
-148.115051
  0
LINE
  8
0
 10
8.250031
 20
-84.115036
 11
8.250031
 21
-148.115051
  0
LINE
  8
0
 10
8.250031
 20
-130.115036
 11
208.250031
 21
-130.115036
  0
LINE
  8
0
 10
8.250031
 20
-148.115051
 11
208.250031
 21
-148.115051
  0
LINE
  8
0
 10
14.250031
 20
-130.115036
 11
14.250031
 21
-148.115051
  0
LINE
  8
0
 10
202.250031
 20
-130.115036
 11
202.250031
 21
-148.115051
  0
LINE
  8
0
 10
68.250031
 20
-187.115036
 11
148.250031
 21
-187.115036
  0
LINE
  8
0
 10
68.250031
 20
-148.115051
 11
68.250031
 21
-187.115036
  0
LINE
  8
0
 10
148.250031
 20
-148.115051
 11
148.250031
 21
-187.115036
  0
LINE
  8
0
 10
25.750031
 20
-158.115036
 11
30.750031
 21
-158.115036
  0
LINE
  8
0
 10
25.250031
 20
-155.615051
 11
25.250031
 21
-157.615051
  0
LINE
  8
0
 10
31.250031
 20
-155.615051
 11
31.250031
 21
-157.615051
  0
LINE
  8
0
 10
25.791534
 20
-155.615051
 11
25.791534
 21
-158.115051
  0
LINE
  8
0
 10
30.708527
 20
-155.615051
 11
30.708527
 21
-158.115051
  0
LINE
  8
0
 10
30.750019
 20
-158.115021
 11
31.250019
 21
-157.615021
  0
LINE
  8
0
 10
25.750084
 20
-158.115021
 11
25.250093
 21
-157.615021
  0
LINE
  8
0
 10
31.250031
 20
-157.615036
 11
25.250031
 21
-157.615036
  0
LINE
  8
0
 10
8.250031
 20
-124.115036
 11
208.250031
 21
-124.115036
  0
LINE
  8
0
 10
8.250031
 20
-84.115036
 11
208.250031
 21
-84.115036
  0
LINE
  8
0
 10
185.250031
 20
-155.615051
 11
185.250031
 21
-157.615051
  0
LINE
  8
0
 10
193.250031
 20
-118.115036
 11
193.250031
 21
-124.115036
  0
LINE
  8
0
 10
183.250031
 20
-118.115036
 11
183.250031
 21
-124.115036
  0
LINE
  8
0
 10
193.250031
 20
-118.115036
 11
183.250031
 21
-118.115036
  0
LINE
  8
0
 10
185.250031
 20
-157.615036
 11
191.250031
 21
-157.615036
  0
LINE
  8
0
 10
190.749939
 20
-158.114944
 11
191.249908
 21
-157.614944
  0
LINE
  8
0
 10
185.750015
 20
-158.115021
 11
185.249985
 21
-157.614990
  0
LINE
  8
0
 10
185.791534
 20
-155.615051
 11
185.791534
 21
-158.115051
  0
LINE
  8
0
 10
190.708527
 20
-155.615051
 11
190.708527
 21
-158.115051
  0
LINE
  8
0
 10
23.250031
 20
-118.115036
 11
33.250031
 21
-118.115036
  0
LINE
  8
0
 10
33.250031
 20
-118.115036
 11
33.250031
 21
-124.115036
  0
LINE
  8
0
 10
23.250031
 20
-118.115036
 11
23.250031
 21
-124.115036
  0
LINE
  8
0
 10
23.250031
 20
-148.115051
 11
23.250031
 21
-153.115036
  0
LINE
  8
0
  6
CENTER
 10
28.250031
 20
-113.115036
 11
28.250031
 21
-163.115036
  0
LINE
  8
0
  6
CENTER
 10
48.250031
 20
-132.115036
 11
48.250031
 21
-146.115036
  0
LINE
  8
0
  6
CENTER
 10
148.250031
 20
-119.115036
 11
148.250031
 21
-153.115051
  0
LINE
  8
0
  6
CENTER
 10
68.250031
 20
-119.115036
 11
68.250031
 21
-153.115051
  0
LINE
  8
0
  6
CENTER
 10
168.250031
 20
-132.115036
 11
168.250031
 21
-146.115036
  0
LINE
  8
0
  6
CENTER
 10
188.250031
 20
-113.115036
 11
188.250031
 21
-163.115036
  0
LINE
  8
0
 10
-218.500092
 20
-341.114868
 11
-205.000061
 21
-341.114868
  0
LINE
  8
0
 10
-190.750061
 20
-341.114868
 11
-184.250061
 21
-341.114868
  0
LINE
  8
0
 10
-227.750000
 20
-339.114899
 11
-227.750000
 21
-338.114899
  0
LINE
  8
0
 10
-227.750107
 20
-338.114838
 11
-212.161591
 21
-329.114807
  0
LINE
  8
0
 10
-190.750000
 20
-341.114838
 11
-190.750000
 21
-339.114838
  0
LINE
  8
0
 10
-169.749969
 20
-404.114868
 11
-163.749969
 21
-404.114868
  0
LINE
  8
0
 10
-175.750000
 20
-398.114807
 11
-175.750000
 21
-349.614807
  0
LINE
  8
0
 10
-205.000000
 20
-344.114929
 11
-205.000000
 21
-341.114868
  0
LINE
  8
0
 10
-218.500000
 20
-344.114868
 11
-218.500000
 21
-341.114868
  0
LINE
  8
0
 10
-163.750000
 20
-404.114777
 11
-163.750000
 21
-329.114777
  0
LINE
  8
0
 10
-212.161621
 20
-329.114868
 11
-163.750092
 21
-329.114868
  0
LINE
  8
0
 10
-232.750000
 20
-317.114899
 11
-232.750000
 21
-307.114899
  0
LINE
  8
0
 10
-232.750092
 20
-307.114868
 11
-226.750122
 21
-307.114868
  0
LINE
  8
0
 10
-232.750061
 20
-317.114868
 11
-226.750092
 21
-317.114868
  0
LINE
  8
0
 10
-227.750061
 20
-339.114868
 11
-190.750061
 21
-339.114868
  0
LINE
  8
0
 10
-215.073517
 20
-341.114868
 11
-215.073517
 21
-339.114868
  0
LINE
  8
0
 10
-208.426483
 20
-341.114868
 11
-208.426483
 21
-339.114868
  0
LINE
  8
0
 10
-215.750000
 20
-341.114868
 11
-215.750000
 21
-339.114868
  0
LINE
  8
0
 10
-207.750000
 20
-341.114868
 11
-207.750000
 21
-339.114868
  0
LINE
  8
0
 10
-218.500092
 20
-344.114929
 11
-205.000061
 21
-344.114929
  0
LINE
  8
0
 10
-206.499985
 20
-345.614960
 11
-204.999969
 21
-344.114960
  0
LINE
  8
0
 10
-197.750000
 20
-441.888336
 11
-197.750000
 21
-430.341309
  0
LINE
  8
0
 10
-266.750000
 20
-407.528839
 11
-266.750000
 21
-348.040833
  0
LINE
  8
0
 10
-220.750122
 20
-300.114868
 11
-202.750122
 21
-300.114868
  0
LINE
  8
0
 10
-220.750092
 20
-320.114868
 11
-202.750092
 21
-320.114868
  0
LINE
  8
0
 10
-202.750000
 20
-320.114868
 11
-202.750000
 21
-300.114868
  0
LINE
  8
0
 10
-220.750000
 20
-325.812897
 11
-220.750000
 21
-300.114868
  0
LINE
  8
0
 10
-231.750000
 20
-443.614899
 11
-231.750000
 21
-428.416901
  0
LINE
  8
0
 10
-231.749908
 20
-443.614868
 11
-225.749908
 21
-443.614868
  0
LINE
  8
0
 10
-225.750000
 20
-443.614899
 11
-225.750000
 21
-428.416901
  0
LINE
  8
0
 10
-226.750122
 20
-304.614868
 11
-220.750122
 21
-304.614868
  0
LINE
  8
0
 10
-226.750000
 20
-325.812927
 11
-226.750000
 21
-304.614899
  0
LINE
  8
0
 10
-233.973572
 20
-425.519470
 11
-257.855865
 21
-419.120239
  0
LINE
  8
0
 10
-228.973663
 20
-328.710602
 11
-257.855957
 21
-336.449585
  0
LINE
  8
0
 10
-260.750000
 20
-407.528839
 11
-260.750000
 21
-348.040833
  0
LINE
  8
0
 10
-232.420670
 20
-419.723877
 11
-256.302979
 21
-413.324646
  0
LINE
  8
0
 10
-227.420715
 20
-334.506073
 11
-256.303009
 21
-342.245056
  0
LINE
  8
0
 10
-218.500366
 20
-344.115204
 11
-217.000366
 21
-345.615204
  0
LINE
  8
0
 10
-237.749878
 20
-431.114868
 11
-231.749908
 21
-431.114868
  0
LINE
  8
0
 10
-192.750000
 20
-441.888336
 11
-192.750000
 21
-430.341309
  0
LINE
  8
0
 10
-192.749878
 20
-441.888367
 11
-197.749878
 21
-441.888367
  0
LINE
  8
0
 10
-192.749878
 20
-439.001617
 11
-197.749878
 21
-439.001617
  0
LINE
  8
0
 10
-192.749893
 20
-433.228119
 11
-197.749878
 21
-433.228119
  0
LINE
  8
0
 10
-192.749893
 20
-430.341339
 11
-197.749878
 21
-430.341339
  0
LINE
  8
0
 10
-192.749878
 20
-436.114868
 11
-197.749878
 21
-436.114868
  0
LINE
  8
0
 10
-190.250000
 20
-439.364838
 11
-190.250000
 21
-432.864838
  0
LINE
  8
0
 10
-192.749893
 20
-431.614868
 11
-191.499893
 21
-431.614868
  0
LINE
  8
0
 10
-192.749878
 20
-440.614868
 11
-191.499878
 21
-440.614868
  0
LINE
  8
0
 10
-237.750000
 20
-441.114899
 11
-237.750000
 21
-431.114899
  0
LINE
  8
0
 10
-237.749878
 20
-441.114868
 11
-231.749908
 21
-441.114868
  0
LINE
  8
0
 10
-217.000061
 20
-345.614868
 11
-206.500061
 21
-345.614868
  0
LINE
  8
0
 10
-197.750000
 20
-317.888336
 11
-197.750000
 21
-306.341309
  0
LINE
  8
0
 10
-197.750061
 20
-317.888367
 11
-202.750061
 21
-317.888367
  0
LINE
  8
0
 10
-197.750061
 20
-315.001617
 11
-202.750061
 21
-315.001617
  0
LINE
  8
0
 10
-197.750092
 20
-309.228119
 11
-202.750092
 21
-309.228119
  0
LINE
  8
0
 10
-197.750092
 20
-306.341339
 11
-202.750092
 21
-306.341339
  0
LINE
  8
0
 10
-197.750092
 20
-312.114868
 11
-202.750092
 21
-312.114868
  0
LINE
  8
0
 10
-195.250000
 20
-315.364838
 11
-195.250000
 21
-308.864838
  0
LINE
  8
0
 10
-197.750092
 20
-307.614868
 11
-196.500092
 21
-307.614868
  0
LINE
  8
0
 10
-197.750061
 20
-316.614868
 11
-196.500061
 21
-316.614868
  0
LINE
  8
0
 10
-192.750000
 20
-314.614838
 11
-192.750000
 21
-309.614838
  0
LINE
  8
0
 10
-195.250092
 20
-315.114868
 11
-193.250092
 21
-315.114868
  0
LINE
  8
0
 10
-195.250122
 20
-309.114868
 11
-193.250122
 21
-309.114868
  0
LINE
  8
0
 10
-195.250092
 20
-314.573364
 11
-192.750092
 21
-314.573364
  0
LINE
  8
0
 10
-195.250122
 20
-309.656372
 11
-192.750122
 21
-309.656372
  0
LINE
  8
0
 10
-192.750031
 20
-309.614777
 11
-193.250031
 21
-309.114777
  0
LINE
  8
0
 10
-192.750015
 20
-314.614868
 11
-193.250015
 21
-315.114868
  0
LINE
  8
0
 10
-193.250000
 20
-309.114838
 11
-193.250000
 21
-315.114838
  0
LINE
  8
0
  6
CENTER
 10
-242.749878
 20
-436.114868
 11
-184.749878
 21
-436.114868
  0
LINE
  8
0
  6
CENTER
 10
-180.749969
 20
-392.114868
 11
-158.749969
 21
-392.114868
  0
LINE
  8
0
  6
CENTER
 10
-180.750031
 20
-356.114868
 11
-158.750031
 21
-356.114868
  0
LINE
  8
0
  6
CENTER
 10
-237.750092
 20
-312.114868
 11
-187.750122
 21
-312.114868
  0
ARC
  8
0
 62
     5
 10
655.008484
 20
-465.668823
 40
6.635708
 50
291.688293
 51
0.000000
  0
ARC
  8
0
 62
     5
 10
652.796448
 20
-464.168060
 40
2.211920
 50
291.688660
 51
0.000000
  0
ARC
  8
0
 62
     5
 10
546.072388
 20
-470.092651
 40
4.423828
 50
0.000000
 51
90.000000
  0
ARC
  8
0
 62
     5
 10
582.568787
 20
-493.870697
 40
4.423798
 50
270.000000
 51
0.000000
  0
ARC
  8
0
 62
     5
 10
580.356750
 20
-472.304474
 40
6.635681
 50
0.000000
 51
90.000000
  0
ARC
  8
0
 62
     5
 10
620.723999
 20
-470.092651
 40
4.423828
 50
0.000000
 51
90.000000
  0
ARC
  8
0
 62
     5
 10
620.723999
 20
-473.626892
 40
4.423808
 50
294.999786
 51
0.000000
  0
ARC
  8
0
  6
PHANTOM
 10
-256.750000
 20
74.999916
 40
4.500000
 50
359.999908
 51
180.000000
  0
ARC
  8
0
  6
PHANTOM
 10
-140.769226
 20
134.999924
 40
29.999994
 50
150.000061
 51
209.999939
  0
ARC
  8
0
  6
PHANTOM
 10
-320.769226
 20
134.999924
 40
30.000002
 50
150.000031
 51
209.999954
  0
ARC
  8
0
  6
PHANTOM
 10
-374.458313
 20
108.499924
 40
30.000002
 50
335.375702
 51
22.540339
  0
ARC
  8
0
  6
PHANTOM
 10
-194.458298
 20
108.499924
 40
30.000002
 50
335.375702
 51
22.540327
  0
ARC
  8
0
  6
PHANTOM
 10
-134.254547
 20
331.999939
 40
29.999998
 50
156.421814
 51
203.578125
  0
ARC
  8
0
  6
PHANTOM
 10
-324.254547
 20
331.999939
 40
29.999998
 50
156.421814
 51
203.578125
  0
ARC
  8
0
  6
PHANTOM
 10
-379.245453
 20
307.999939
 40
29.999998
 50
336.421814
 51
23.578180
  0
ARC
  8
0
  6
PHANTOM
 10
-189.245453
 20
307.999939
 40
29.999998
 50
336.421814
 51
23.578180
  0
ARC
  8
0
  6
PHANTOM
 10
480.000000
 20
68.999924
 40
5.999998
 50
38.682201
 51
141.317749
  0
ARC
  8
0
  6
PHANTOM
 10
480.000000
 20
68.999924
 40
5.999997
 50
213.557266
 51
326.442596
  0
ARC
  8
0
  6
PHANTOM
 10
480.000000
 20
70.999924
 40
5.000000
 50
359.999908
 51
180.000000
  0
ARC
  8
0
  6
PHANTOM
 10
480.000000
 20
68.999924
 40
8.000001
 50
228.590378
 51
311.409637
  0
ARC
  8
0
  6
PHANTOM
 10
329.031281
 20
102.499924
 40
40.000008
 50
344.781555
 51
25.944452
  0
ARC
  8
0
  6
PHANTOM
 10
402.470001
 20
133.999924
 40
39.999996
 50
148.331711
 51
200.487213
  0
ARC
  8
0
  6
PHANTOM
 10
559.031250
 20
102.499924
 40
40.000008
 50
344.781555
 51
25.944452
  0
ARC
  8
0
  6
PHANTOM
 10
632.469971
 20
133.999924
 40
39.999996
 50
148.331711
 51
200.487198
  0
ARC
  8
0
  6
PHANTOM
 10
402.279358
 20
334.499939
 40
39.999996
 50
158.746231
 51
201.253769
  0
ARC
  8
0
  6
PHANTOM
 10
327.720642
 20
305.499939
 40
40.000008
 50
338.746185
 51
21.253805
  0
ARC
  8
0
  6
PHANTOM
 10
632.279358
 20
334.499939
 40
39.999996
 50
158.746231
 51
201.253769
  0
ARC
  8
0
  6
PHANTOM
 10
557.720642
 20
305.499939
 40
40.000008
 50
338.746185
 51
21.253805
  0
ARC
  8
0
  6
PHANTOM
 10
108.250000
 20
-438.115021
 40
5.999997
 50
213.557266
 51
326.442688
  0
ARC
  8
0
  6
PHANTOM
 10
210.750000
 20
-416.615021
 40
2.500000
 50
270.000000
 51
90.000000
  0
ARC
  8
0
  6
PHANTOM
 10
5.750000
 20
-416.615021
 40
2.500000
 50
89.999924
 51
269.999939
  0
ARC
  8
0
  6
PHANTOM
 10
108.250000
 20
-435.115021
 40
5.000000
 50
0.000000
 51
180.000000
  0
ARC
  8
0
  6
PHANTOM
 10
108.250000
 20
-438.115021
 40
8.000001
 50
228.590378
 51
311.409637
  0
ARC
  8
0
  6
PHANTOM
 10
108.250000
 20
-438.115021
 40
5.999997
 50
33.557270
 51
146.442688
  0
ARC
  8
0
  6
PHANTOM
 10
274.075775
 20
-359.115021
 40
50.000004
 50
156.421860
 51
203.578110
  0
ARC
  8
0
  6
PHANTOM
 10
34.075760
 20
-359.115021
 40
50.000000
 50
156.421860
 51
203.578110
  0
ARC
  8
0
  6
PHANTOM
 10
-58.587479
 20
-396.615021
 40
50.000004
 50
339.512665
 51
20.487350
  0
ARC
  8
0
  6
PHANTOM
 10
181.412521
 20
-396.615021
 40
50.000004
 50
339.512665
 51
20.487350
  0
ARC
  8
0
  6
PHANTOM
 10
275.087494
 20
-121.614990
 40
50.000004
 50
159.512711
 51
200.487274
  0
ARC
  8
0
  6
PHANTOM
 10
35.087486
 20
-121.614990
 40
50.000000
 50
159.512711
 51
200.487274
  0
ARC
  8
0
  6
PHANTOM
 10
181.412506
 20
-156.614990
 40
49.999992
 50
339.512695
 51
20.487318
  0
ARC
  8
0
  6
PHANTOM
 10
-58.587494
 20
-156.614990
 40
50.000000
 50
339.512695
 51
20.487316
  0
ARC
  8
0
  6
PHANTOM
 10
-238.750092
 20
-352.115021
 40
8.000000
 50
90.000000
 51
180.000000
  0
ARC
  8
0
  6
PHANTOM
 10
-238.750092
 20
-406.115021
 40
8.000000
 50
180.000000
 51
270.000000
  0
ARC
  8
0
  6
PHANTOM
 10
-184.750092
 20
-406.115021
 40
8.000000
 50
270.000000
 51
0.000000
  0
ARC
  8
0
  6
PHANTOM
 10
-184.750092
 20
-352.115021
 40
8.000000
 50
0.000000
 51
90.000000
  0
ARC
  8
0
  6
PHANTOM
 10
-256.750000
 20
71.499916
 40
6.000000
 50
41.409630
 51
138.590378
  0
ARC
  8
0
  6
PHANTOM
 10
-256.750000
 20
71.499916
 40
7.999998
 50
223.432480
 51
316.567474
  0
ARC
  8
0
  6
PHANTOM
 10
-256.750000
 20
71.499916
 40
6.000000
 50
221.409622
 51
318.590363
  0
ARC
  8
0
  6
PHANTOM
 10
-338.750000
 20
93.499924
 40
2.500015
 50
90.000000
 51
270.000000
  0
ARC
  8
0
  6
PHANTOM
 10
-174.750015
 20
93.499924
 40
2.500008
 50
270.000000
 51
90.000000
  0
ARC
  8
0
  6
PHANTOM
 10
-551.249878
 20
93.499893
 40
2.500000
 50
90.000000
 51
270.000000
  0
ARC
  8
0
  6
PHANTOM
 10
-522.249878
 20
93.499893
 40
2.500000
 50
270.000000
 51
90.000000
  0
ARC
  8
0
  6
PHANTOM
 10
-556.749939
 20
99.999893
 40
4.000000
 50
180.000000
 51
270.000000
  0
ARC
  8
0
  6
PHANTOM
 10
-516.749939
 20
99.999893
 40
4.000000
 50
270.000000
 51
0.000000
  0
ARC
  8
0
  6
PHANTOM
 10
-516.749939
 20
139.999893
 40
4.000000
 50
0.000000
 51
90.000000
  0
ARC
  8
0
  6
PHANTOM
 10
-556.749939
 20
139.999893
 40
4.000000
 50
90.000000
 51
180.000000
  0
ARC
  8
0
  6
PHANTOM
 10
159.000000
 20
140.999908
 40
8.000000
 50
90.000000
 51
180.000000
  0
ARC
  8
0
  6
PHANTOM
 10
159.000000
 20
99.999908
 40
8.000000
 50
180.000000
 51
270.000000
  0
ARC
  8
0
  6
PHANTOM
 10
201.000000
 20
99.999908
 40
8.000000
 50
270.000000
 51
0.000055
  0
ARC
  8
0
  6
PHANTOM
 10
201.000000
 20
140.999908
 40
8.000000
 50
0.000000
 51
90.000000
  0
ARC
  8
0
  6
PHANTOM
 10
-198.250061
 20
-416.614990
 40
2.499969
 50
270.000000
 51
90.000000
  0
ARC
  8
0
  6
PHANTOM
 10
-225.250122
 20
-416.614990
 40
2.499969
 50
90.000000
 51
270.000000
  0
ARC
  8
0
  6
PHANTOM
 10
167.000000
 20
88.999908
 40
3.000000
 50
90.000000
 51
270.000000
  0
ARC
  8
0
  6
PHANTOM
 10
193.000000
 20
88.999908
 40
3.000000
 50
270.000000
 51
90.000000
  0
ARC
  8
0
  6
PHANTOM
 10
383.000000
 20
88.999931
 40
3.000008
 50
90.000000
 51
270.000000
  0
ARC
  8
0
  6
PHANTOM
 10
577.000000
 20
88.999931
 40
3.000008
 50
270.000000
 51
90.000000
  0
CIRCLE
  8
0
 10
-286.750000
 20
165.999969
 40
3.500000
  0
CIRCLE
  8
0
 10
-316.750000
 20
165.999969
 40
4.500000
  0
CIRCLE
  8
0
 10
-226.750000
 20
165.999969
 40
3.500000
  0
CIRCLE
  8
0
 10
-256.750000
 20
168.499969
 40
6.500000
  0
CIRCLE
  8
0
 10
-316.750000
 20
165.999969
 40
3.000000
  0
CIRCLE
  8
0
 10
-196.750000
 20
165.999969
 40
2.458500
  0
CIRCLE
  8
0
 10
-196.750000
 20
165.999969
 40
4.500000
  0
CIRCLE
  8
0
 10
-316.750000
 20
165.999969
 40
2.458500
  0
CIRCLE
  8
0
 10
-196.750000
 20
165.999969
 40
3.000000
  0
CIRCLE
  8
0
 10
-226.750000
 20
73.999916
 40
3.000000
  0
CIRCLE
  8
0
 10
-226.750000
 20
73.999916
 40
4.500000
  0
CIRCLE
  8
0
 10
-226.750000
 20
73.999916
 40
2.458500
  0
CIRCLE
  8
0
 10
-196.750000
 20
73.999916
 40
4.500000
  0
CIRCLE
  8
0
 10
-196.750000
 20
73.999916
 40
2.458500
  0
CIRCLE
  8
0
 10
-196.750000
 20
73.999916
 40
3.000000
  0
CIRCLE
  8
0
 10
-236.750000
 20
113.999893
 40
3.400000
  0
CIRCLE
  8
0
 10
-276.750000
 20
113.999893
 40
3.400000
  0
CIRCLE
  8
0
 10
-236.750000
 20
135.999893
 40
3.400000
  0
CIRCLE
  8
0
 10
-276.750000
 20
135.999893
 40
3.400000
  0
CIRCLE
  8
0
 10
-316.750000
 20
73.999916
 40
3.000000
  0
CIRCLE
  8
0
 10
-316.750000
 20
73.999916
 40
4.500000
  0
CIRCLE
  8
0
 10
-316.750000
 20
73.999916
 40
2.458500
  0
CIRCLE
  8
0
 10
-286.750000
 20
73.999916
 40
3.000000
  0
CIRCLE
  8
0
 10
-286.750000
 20
73.999916
 40
4.500000
  0
CIRCLE
  8
0
 10
-286.750000
 20
73.999916
 40
2.458500
  0
ARC
  8
0
 10
-319.999908
 20
304.749969
 40
1.250000
 50
180.000000
 51
270.000000
  0
ARC
  8
0
 10
-313.499908
 20
304.749969
 40
1.250000
 50
270.000000
 51
0.000000
  0
ARC
  8
0
 10
-199.999908
 20
304.749969
 40
1.250000
 50
180.000000
 51
270.000000
  0
ARC
  8
0
 10
-193.499908
 20
304.749969
 40
1.250000
 50
270.000000
 51
0.000000
  0
CIRCLE
  8
0
 10
-301.749908
 20
319.999847
 40
3.000000
  0
CIRCLE
  8
0
 10
-301.749908
 20
319.999847
 40
2.458500
  0
CIRCLE
  8
0
 10
-211.749908
 20
319.999847
 40
3.000000
  0
CIRCLE
  8
0
 10
-211.749908
 20
319.999847
 40
2.458500
  0
ARC
  8
0
 10
-521.499756
 20
169.249832
 40
1.250000
 50
0.000000
 51
90.000000
  0
ARC
  8
0
 10
-521.499817
 20
162.749832
 40
1.250000
 50
270.000000
 51
0.000000
  0
ARC
  8
0
 10
-517.000000
 20
77.249817
 40
1.250000
 50
0.000000
 51
90.000000
  0
ARC
  8
0
 10
-517.000061
 20
70.749817
 40
1.250000
 50
270.000000
 51
0.000000
  0
ARC
  8
0
 10
-570.749878
 20
101.763885
 40
8.000000
 50
180.000000
 51
239.999985
  0
ARC
  8
0
 10
-570.749756
 20
143.090851
 40
7.999996
 50
105.000038
 51
180.000000
  0
ARC
  8
0
 10
-570.749878
 20
101.763885
 40
4.000000
 50
180.000000
 51
240.000015
  0
ARC
  8
0
 10
-570.749756
 20
143.090851
 40
4.000006
 50
105.000008
 51
180.000000
  0
ARC
  8
0
 10
-551.749695
 20
158.534592
 40
5.999994
 50
285.000061
 51
0.000000
  0
ARC
  8
0
 10
-556.249939
 20
81.845253
 40
6.000000
 50
0.000000
 51
59.999996
  0
ARC
  8
0
 10
-556.249939
 20
81.845253
 40
2.000000
 50
0.000000
 51
59.999962
  0
ARC
  8
0
 10
-551.749695
 20
158.534592
 40
2.000003
 50
285.000000
 51
0.000000
  0
ARC
  8
0
 10
-518.249756
 20
142.499817
 40
6.500000
 50
0.000000
 51
90.000000
  0
ARC
  8
0
 10
-508.749878
 20
106.999786
 40
3.000000
 50
180.000000
 51
270.000000
  0
CIRCLE
  8
0
 10
460.000000
 20
104.999908
 40
3.400000
  0
CIRCLE
  8
0
 10
460.000000
 20
137.999908
 40
3.400000
  0
CIRCLE
  8
0
 10
500.000000
 20
104.999908
 40
3.400000
  0
CIRCLE
  8
0
 10
500.000000
 20
137.999908
 40
3.400000
  0
CIRCLE
  8
0
 10
507.500000
 20
178.999954
 40
3.500000
  0
CIRCLE
  8
0
 10
452.500000
 20
178.999954
 40
3.500000
  0
CIRCLE
  8
0
 10
535.000000
 20
178.999954
 40
4.500000
  0
CIRCLE
  8
0
 10
480.000000
 20
180.999954
 40
6.000000
  0
CIRCLE
  8
0
 10
425.000000
 20
178.999954
 40
3.000000
  0
CIRCLE
  8
0
 10
535.000000
 20
178.999954
 40
2.458500
  0
CIRCLE
  8
0
 10
425.000000
 20
178.999954
 40
4.500000
  0
CIRCLE
  8
0
 10
425.000000
 20
178.999954
 40
2.458500
  0
CIRCLE
  8
0
 10
535.000000
 20
178.999954
 40
3.000000
  0
CIRCLE
  8
0
 10
535.000000
 20
70.999924
 40
3.000000
  0
CIRCLE
  8
0
 10
535.000000
 20
70.999924
 40
4.500000
  0
CIRCLE
  8
0
 10
535.000000
 20
70.999924
 40
2.458500
  0
CIRCLE
  8
0
 10
507.500000
 20
70.999924
 40
2.458500
  0
CIRCLE
  8
0
 10
507.500000
 20
70.999924
 40
3.000000
  0
CIRCLE
  8
0
 10
507.500000
 20
70.999924
 40
4.500000
  0
CIRCLE
  8
0
 10
425.000000
 20
70.999924
 40
2.458500
  0
CIRCLE
  8
0
 10
425.000000
 20
70.999924
 40
3.000000
  0
CIRCLE
  8
0
 10
425.000000
 20
70.999924
 40
4.500000
  0
CIRCLE
  8
0
 10
452.500000
 20
70.999924
 40
2.458500
  0
CIRCLE
  8
0
 10
452.500000
 20
70.999924
 40
3.000000
  0
CIRCLE
  8
0
 10
452.500000
 20
70.999924
 40
4.500000
  0
ARC
  8
0
 10
538.250000
 20
304.749908
 40
1.250000
 50
270.000000
 51
0.000000
  0
ARC
  8
0
 10
531.750000
 20
304.749908
 40
1.250000
 50
180.000000
 51
270.000000
  0
ARC
  8
0
 10
428.250061
 20
304.749908
 40
1.250000
 50
270.000000
 51
0.000000
  0
ARC
  8
0
 10
421.750061
 20
304.749908
 40
1.250000
 50
180.000000
 51
270.000000
  0
CIRCLE
  8
0
 10
435.000031
 20
319.999969
 40
3.000000
  0
CIRCLE
  8
0
 10
435.000031
 20
319.999969
 40
2.458500
  0
CIRCLE
  8
0
 10
525.000000
 20
319.999969
 40
2.458500
  0
CIRCLE
  8
0
 10
525.000000
 20
319.999969
 40
3.000000
  0
ARC
  8
0
 10
211.999954
 20
97.999847
 40
3.000000
 50
180.000000
 51
270.000000
  0
ARC
  8
0
 10
200.500046
 20
145.499908
 40
8.500000
 50
0.000000
 51
90.000000
  0
ARC
  8
0
 10
195.250153
 20
175.749908
 40
1.250000
 50
270.000000
 51
0.000000
  0
ARC
  8
0
 10
195.250168
 20
182.249908
 40
1.250000
 50
0.000000
 51
90.000000
  0
ARC
  8
0
 10
200.249939
 20
67.749893
 40
1.250000
 50
270.000000
 51
0.000000
  0
ARC
  8
0
 10
200.249954
 20
74.249893
 40
1.250000
 50
0.000000
 51
90.000000
  0
ARC
  8
0
 10
141.499969
 20
101.361946
 40
8.500000
 50
180.000000
 51
240.000000
  0
ARC
  8
0
 10
141.500061
 20
148.501419
 40
8.500005
 50
105.000023
 51
180.000000
  0
ARC
  8
0
 10
141.500061
 20
148.501419
 40
4.000006
 50
105.000008
 51
180.000000
  0
ARC
  8
0
 10
141.499969
 20
101.361946
 40
4.000000
 50
180.000000
 51
240.000015
  0
ARC
  8
0
 10
159.499908
 20
78.845245
 40
6.500000
 50
0.000000
 51
60.000004
  0
ARC
  8
0
 10
164.500092
 20
165.534592
 40
6.500002
 50
285.000031
 51
0.000000
  0
ARC
  8
0
 10
159.499908
 20
78.845245
 40
2.000000
 50
0.000000
 51
59.999962
  0
ARC
  8
0
 10
164.500092
 20
165.534592
 40
2.000003
 50
285.000000
 51
0.000000
  0
CIRCLE
  8
0
 10
133.250015
 20
-392.115051
 40
4.500000
  0
CIRCLE
  8
0
 10
83.250015
 20
-392.115051
 40
4.500000
  0
CIRCLE
  8
0
 10
133.250015
 20
-356.115051
 40
4.500000
  0
CIRCLE
  8
0
 10
83.250015
 20
-356.115051
 40
4.500000
  0
CIRCLE
  8
0
 10
188.250015
 20
-312.115051
 40
4.500000
  0
CIRCLE
  8
0
 10
68.250015
 20
-312.115051
 40
3.500000
  0
CIRCLE
  8
0
 10
28.250015
 20
-312.115051
 40
3.000000
  0
CIRCLE
  8
0
 10
148.250015
 20
-312.115051
 40
3.500000
  0
CIRCLE
  8
0
 10
108.250015
 20
-310.115051
 40
6.000000
  0
CIRCLE
  8
0
 10
28.250015
 20
-312.115051
 40
2.458500
  0
CIRCLE
  8
0
 10
28.250015
 20
-312.115051
 40
4.500000
  0
CIRCLE
  8
0
 10
188.250015
 20
-312.115051
 40
2.458500
  0
CIRCLE
  8
0
 10
188.250015
 20
-312.115051
 40
3.000000
  0
CIRCLE
  8
0
 10
188.250015
 20
-436.115112
 40
3.000000
  0
CIRCLE
  8
0
 10
188.250015
 20
-436.115112
 40
2.458500
  0
CIRCLE
  8
0
 10
188.250015
 20
-436.115112
 40
4.500000
  0
CIRCLE
  8
0
 10
148.250015
 20
-436.115112
 40
4.500000
  0
CIRCLE
  8
0
 10
148.250015
 20
-436.115112
 40
2.458500
  0
CIRCLE
  8
0
 10
148.250015
 20
-436.115112
 40
3.000000
  0
CIRCLE
  8
0
 10
28.250015
 20
-436.115112
 40
4.500000
  0
CIRCLE
  8
0
 10
28.250015
 20
-436.115112
 40
2.458500
  0
CIRCLE
  8
0
 10
28.250015
 20
-436.115112
 40
3.000000
  0
CIRCLE
  8
0
 10
68.250015
 20
-436.115112
 40
4.500000
  0
CIRCLE
  8
0
 10
68.250015
 20
-436.115112
 40
2.458500
  0
CIRCLE
  8
0
 10
68.250015
 20
-436.115112
 40
3.000000
  0
CIRCLE
  8
0
 10
168.250031
 20
-139.115036
 40
2.458500
  0
CIRCLE
  8
0
 10
168.250031
 20
-139.115036
 40
3.000000
  0
CIRCLE
  8
0
 10
48.250031
 20
-139.115036
 40
2.458500
  0
CIRCLE
  8
0
 10
48.250031
 20
-139.115036
 40
3.000000
  0
ARC
  8
0
 10
25.000031
 20
-154.365082
 40
1.250000
 50
180.000000
 51
269.999908
  0
ARC
  8
0
 10
31.500031
 20
-154.365082
 40
1.250000
 50
269.999908
 51
0.000000
  0
ARC
  8
0
 10
191.500031
 20
-154.365082
 40
1.250000
 50
270.000000
 51
0.000000
  0
ARC
  8
0
 10
185.000031
 20
-154.365082
 40
1.250000
 50
180.000000
 51
270.000000
  0
ARC
  8
0
 10
-184.250046
 20
-349.614807
 40
8.500000
 50
0.000000
 51
90.000000
  0
ARC
  8
0
 10
-169.749969
 20
-398.114807
 40
6.000000
 50
180.000000
 51
270.000000
  0
ARC
  8
0
 10
-196.500061
 20
-315.364838
 40
1.250000
 50
270.000000
 51
0.000000
  0
ARC
  8
0
 10
-196.500092
 20
-308.864838
 40
1.250000
 50
0.000000
 51
90.000000
  0
ARC
  8
0
 10
-191.499878
 20
-432.864838
 40
1.250000
 50
0.000000
 51
90.000000
  0
ARC
  8
0
 10
-191.499878
 20
-439.364838
 40
1.250000
 50
270.000000
 51
0.000000
  0
ARC
  8
0
 10
-254.750061
 20
-348.040802
 40
11.999988
 50
105.000046
 51
180.000000
  0
ARC
  8
0
 10
-254.749939
 20
-407.528809
 40
12.000000
 50
180.000000
 51
254.999954
  0
ARC
  8
0
 10
-254.749939
 20
-407.528809
 40
6.000000
 50
180.000000
 51
254.999985
  0
ARC
  8
0
 10
-254.750061
 20
-348.040802
 40
6.000009
 50
105.000008
 51
180.000000
  0
ARC
  8
0
 10
-229.750092
 20
-325.812927
 40
8.999998
 50
285.000031
 51
0.000000
  0
ARC
  8
0
 10
-234.749908
 20
-428.416901
 40
9.000000
 50
0.000000
 51
74.999962
  0
ARC
  8
0
 10
-234.749908
 20
-428.416901
 40
3.000000
 50
0.000000
 51
74.999916
  0
ARC
  8
0
 10
-229.750092
 20
-325.812927
 40
2.999990
 50
285.000092
 51
0.000000
  0
TEXT
  8
0
 10
452.676331
 20
466.216309
 40
17.000000
  1
DATE : MAY ,1991
 50
0.000000
 41
1.052631
 51
0.000000
  7
STANDARD
  0
TEXT
  8
0
 10
-672.223755
 20
463.516205
 40
20.000000
  1
ORCA G SUPPORT
 50
0.000000
 41
1.052632
 51
0.000000
  7
STANDARD
  0
TEXT
  8
0
 10
-704.357117
 20
384.914032
 40
20.000000
  1
BORE : 32
 50
0.000000
 41
1.052632
 51
0.000000
  7
STANDARD
  0
TEXT
  8
0
 10
37.392860
 20
384.914032
 40
20.000000
  1
BORE : 40
 50
0.000000
 41
1.052632
 51
0.000000
  7
STANDARD
  0
TEXT
  8
0
 10
-704.357117
 20
-67.000061
 40
20.000000
  1
BORE : 50
 50
0.000000
 41
1.052632
 51
0.000000
  7
STANDARD
  0
ENDSEC
  0
EOF
