  0
SECTION
  2
HEADER
  0
ENDSEC
  0
SECTION
  2
TABLES
  0
TABLE
  2
LTYPE
 70
     4
  0
LTYPE
  2
CONTINUOUS
 70
    64
  3
Solid line
 72
    65
 73
     0
 40
0.000000
  0
LTYPE
  2
DASHED
 70
    64
  3
__ __ __ __ __ __ __ __ __ __ __ __ __ __ __
 72
    65
 73
     2
 40
3.500000
 49
2.000000
 49
-1.500000
  0
LTYPE
  2
CENTER
 70
    64
  3
____ _ ____ _ ____ _ ____ _ ____ _ ____ _ ____
 72
    65
 73
     4
 40
17.500000
 49
13.000000
 49
-1.500000
 49
1.500000
 49
-1.500000
  0
LTYPE
  2
PHANTOM
 70
    64
  3
_____ _ _ _____ _ _ _____ _ _ _____ _ _ ____  
 72
    65
 73
     6
 40
15.500000
 49
8.000000
 49
-1.500000
 49
1.500000
 49
-1.500000
 49
1.500000
 49
-1.500000
  0
LTYPE
  2
DASHED1
 70
    64
  3
__ __ __ __ __ __ __ __ __ __ __ __ __ __ __
 72
    65
 73
     2
 40
1.500000
 49
1.000000
 49
-0.500000
  0
LTYPE
  2
DASHED2
 70
    64
  3
__ __ __ __ __ __ __ __ __ __ __ __ __ __ __
 72
    65
 73
     2
 40
3.500000
 49
2.500000
 49
-1.000000
  0
LTYPE
  2
DASHED3
 70
    64
  3
__ __ __ __ __ __ __ __ __ __ __ __ __ __ __
 72
    65
 73
     2
 40
6.000000
 49
4.000000
 49
-2.000000
  0
LTYPE
  2
DASHED4
 70
    64
  3
__ __ __ __ __ __ __ __ __ __ __ __ __ __ __
 72
    65
 73
     2
 40
12.000000
 49
10.000000
 49
-2.000000
  0
LTYPE
  2
DASHED5
 70
    64
  3
__ __ __ __ __ __ __ __ __ __ __ __ __ __ __
 72
    65
 73
     2
 40
17.000000
 49
15.000000
 49
-2.000000
  0
LTYPE
  2
DASHED6
 70
    64
  3
__ __ __ __ __ __ __ __ __ __ __ __ __ __ __
 72
    65
 73
     2
 40
29.000000
 49
27.000000
 49
-2.000000
  0
LTYPE
  2
PHANTOM1
 70
    64
  3
_____ _ _ _____ _ _ _____ _ _ _____ _ _ ____  
 72
    65
 73
     6
 40
31.000000
 49
25.000000
 49
-1.500000
 49
1.000000
 49
-1.000000
 49
1.000000
 49
-1.500000
  0
LTYPE
  2
PHANTOM2
 70
    64
  3
_____ _ _ _____ _ _ _____ _ _ _____ _ _ ____  
 72
    65
 73
     6
 40
36.000000
 49
27.000000
 49
-1.500000
 49
2.500000
 49
-1.000000
 49
2.500000
 49
-1.500000
  0
LTYPE
  2
PHANTOM3
 70
    64
  3
_____ _ _ _____ _ _ _____ _ _ _____ _ _ ____  
 72
    65
 73
     6
 40
78.000000
 49
64.000000
 49
-2.000000
 49
4.000000
 49
-2.000000
 49
4.000000
 49
-2.000000
  0
LTYPE
  2
CENTER1
 70
    64
  3
____ _ ____ _ ____ _ ____ _ ____ _ ____ _ ____
 72
    65
 73
     4
 40
19.000000
 49
14.000000
 49
-1.000000
 49
3.000000
 49
-1.000000
  0
LTYPE
  2
CENTER2
 70
    64
  3
____ _ ____ _ ____ _ ____ _ ____ _ ____ _ ____
 72
    65
 73
     4
 40
28.500000
 49
25.000000
 49
-1.000000
 49
1.500000
 49
-1.000000
  0
LTYPE
  2
CENTER3
 70
    64
  3
____ _ ____ _ ____ _ ____ _ ____ _ ____ _ ____
 72
    65
 73
     4
 40
31.500000
 49
27.000000
 49
-1.000000
 49
2.500000
 49
-1.000000
  0
LTYPE
  2
CENTER4
 70
    64
  3
____ _ ____ _ ____ _ ____ _ ____ _ ____ _ ____
 72
    65
 73
     4
 40
50.000000
 49
45.000000
 49
-1.000000
 49
3.000000
 49
-1.000000
  0
LTYPE
  2
CENTER5
 70
    64
  3
____ _ ____ _ ____ _ ____ _ ____ _ ____ _ ____
 72
    65
 73
     4
 40
100.000000
 49
92.000000
 49
-2.000000
 49
4.000000
 49
-2.000000
  0
LTYPE
  2
SBK1
 70
    64
  3
______ _ _ _ ______ _ _ _ ______ _ _ _ _____  
 72
    65
 73
     8
 40
60.500000
 49
45.000000
 49
-2.000000
 49
2.500000
 49
-2.000000
 49
2.500000
 49
-2.000000
 49
2.500000
 49
-2.000000
  0
LTYPE
  2
SBK2
 70
    64
  3
______ _ _ _ ______ _ _ _ ______ _ _ _ _____  
 72
    65
 73
     8
 40
84.000000
 49
64.000000
 49
-2.000000
 49
4.000000
 49
-2.000000
 49
4.000000
 49
-2.000000
 49
4.000000
 49
-2.000000
  0
LTYPE
  2
STCH
 70
    64
  3
__ __ __ __ __ __ __ __ __ __ __ __ __ __ __
 72
    65
 73
     2
 40
3.000000
 49
1.000000
 49
-2.000000
  0
LTYPE
  2
MTCH
 70
    64
  3
_____ _ _ _____ _ _ _____ _ _ _____ _ _ ____  
 72
    65
 73
     6
 40
80.000000
 49
66.000000
 49
-2.000000
 49
4.000000
 49
-2.000000
 49
4.000000
 49
-2.000000
  0
ENDTAB
  0
TABLE
  2
LAYER
 70
     1
  0
LAYER
  2
0
 70
     0
 62
     7
  6
CONTINUOUS
  0
ENDTAB
  0
TABLE
  2
STYLE
 70
     1
  0
STYLE
  2
STANDARD
 70
     0
 40
0.000000
 41
1.000000
 50
0.000000
 71
     0
 42
0.200000
  3
txt
  4
BIGFONT
  0
ENDTAB
  0
TABLE
  2
VIEW
 70
     0
  0
ENDTAB
  0
ENDSEC
  0
SECTION
  2
BLOCKS
  0
ENDSEC
  0
SECTION
  2
ENTITIES
  0
POINT
  8
0
 10
-425.749847
 20
289.999939
  0
POINT
  8
0
 10
-425.749847
 20
99.999939
  0
POINT
  8
0
 10
-451.750000
 20
99.999939
  0
POINT
  8
0
 10
-451.750000
 20
289.999939
  0
POINT
  8
0
 10
-231.749939
 20
99.999893
  0
POINT
  8
0
 10
-205.749939
 20
99.999893
  0
POINT
  8
0
 10
305.999969
 20
299.999939
  0
POINT
  8
0
 10
305.999969
 20
99.999954
  0
POINT
  8
0
 10
280.000000
 20
99.999954
  0
POINT
  8
0
 10
280.000000
 20
299.999939
  0
POINT
  8
0
 10
500.000000
 20
99.999908
  0
POINT
  8
0
 10
530.000000
 20
99.999908
  0
POINT
  8
0
 10
128.249908
 20
-394.114960
  0
POINT
  8
0
 10
165.249908
 20
-394.114960
  0
POINT
  8
0
 10
-99.750076
 20
-159.114990
  0
POINT
  8
0
 10
-99.750076
 20
-394.114990
  0
POINT
  8
0
 10
-131.750000
 20
-394.114990
  0
POINT
  8
0
 10
-131.750000
 20
-159.114990
  0
LINE
  8
0
 62
     3
 10
-741.750000
 20
-509.114990
 11
741.750000
 21
-509.114990
  0
LINE
  8
0
 62
     3
 10
-741.750000
 20
509.114990
 11
741.750000
 21
509.114990
  0
LINE
  8
0
 62
     3
 10
741.750000
 20
509.114990
 11
741.750000
 21
-509.114990
  0
LINE
  8
0
 62
     3
 10
-741.750000
 20
509.114990
 11
-741.750000
 21
-509.114990
  0
LINE
  8
0
 62
     5
 10
516.764709
 20
-465.668823
 11
546.072388
 21
-465.668823
  0
LINE
  8
0
 62
     5
 10
516.764709
 20
-491.658691
 11
541.648621
 21
-491.658691
  0
LINE
  8
0
 62
     5
 10
516.764709
 20
-498.294342
 11
550.496216
 21
-498.294342
  0
LINE
  8
0
 62
     5
 10
516.764709
 20
-472.304474
 11
541.648621
 21
-472.304474
  0
LINE
  8
0
 62
     5
 10
516.764709
 20
-465.668823
 11
516.764709
 21
-472.304474
  0
LINE
  8
0
 62
     5
 10
550.496216
 20
-470.092651
 11
550.496216
 21
-498.294342
  0
LINE
  8
0
 62
     5
 10
541.648621
 20
-472.304474
 11
541.648621
 21
-491.658691
  0
LINE
  8
0
 62
     5
 10
555.472900
 20
-465.668823
 11
555.472900
 21
-472.304474
  0
LINE
  8
0
 62
     5
 10
586.992432
 20
-472.304474
 11
586.992432
 21
-493.870697
  0
LINE
  8
0
 62
     5
 10
578.144897
 20
-472.304474
 11
578.144897
 21
-491.658691
  0
LINE
  8
0
 62
     5
 10
516.764709
 20
-491.658691
 11
516.764709
 21
-498.294342
  0
LINE
  8
0
 62
     5
 10
555.472900
 20
-465.668823
 11
564.214966
 21
-465.668823
  0
LINE
  8
0
 62
     5
 10
555.472900
 20
-498.294342
 11
562.342773
 21
-498.294342
  0
LINE
  8
0
 62
     5
 10
555.472717
 20
-498.294098
 11
562.436890
 21
-472.304413
  0
LINE
  8
0
 62
     5
 10
555.472900
 20
-472.304474
 11
562.436951
 21
-472.304474
  0
LINE
  8
0
 62
     5
 10
562.343140
 20
-498.294647
 11
569.307007
 21
-472.304871
  0
LINE
  8
0
 62
     5
 10
571.509094
 20
-491.658691
 11
578.144897
 21
-491.658691
  0
LINE
  8
0
 62
     5
 10
571.508972
 20
-491.658600
 11
573.286804
 21
-498.294128
  0
LINE
  8
0
 62
     5
 10
573.287354
 20
-498.294342
 11
582.568787
 21
-498.294342
  0
LINE
  8
0
 62
     5
 10
569.306763
 20
-472.304474
 11
578.144897
 21
-472.304474
  0
LINE
  8
0
 62
     5
 10
571.084717
 20
-465.668823
 11
580.356750
 21
-465.668823
  0
LINE
  8
0
 62
     5
 10
564.215088
 20
-465.668854
 11
565.533630
 21
-460.747498
  0
LINE
  8
0
 62
     5
 10
571.084290
 20
-465.668488
 11
572.402893
 21
-460.746979
  0
LINE
  8
0
 62
     5
 10
592.522278
 20
-465.668823
 11
603.028809
 21
-465.668823
  0
LINE
  8
0
 62
     5
 10
592.522278
 20
-472.304474
 11
618.325867
 21
-472.304474
  0
LINE
  8
0
 62
     5
 10
603.028809
 20
-498.294342
 11
611.876221
 21
-498.294342
  0
LINE
  8
0
 62
     5
 10
592.522278
 20
-465.668823
 11
592.522278
 21
-472.304474
  0
LINE
  8
0
 62
     5
 10
625.147827
 20
-484.336975
 11
625.147827
 21
-491.658691
  0
LINE
  8
0
 62
     5
 10
592.521790
 20
-491.658447
 11
603.028564
 21
-486.759003
  0
LINE
  8
0
 62
     5
 10
592.522827
 20
-484.337433
 11
618.326355
 21
-472.304932
  0
LINE
  8
0
 62
     5
 10
592.522278
 20
-484.336975
 11
592.522278
 21
-491.658691
  0
LINE
  8
0
 62
     5
 10
611.876038
 20
-485.469879
 11
625.147766
 21
-491.658478
  0
LINE
  8
0
 62
     5
 10
616.686646
 20
-480.391724
 11
625.148682
 21
-484.337585
  0
LINE
  8
0
 62
     5
 10
625.147827
 20
-470.092651
 11
625.147827
 21
-473.626892
  0
LINE
  8
0
 62
     5
 10
603.028809
 20
-460.747406
 11
603.028809
 21
-465.668823
  0
LINE
  8
0
 62
     5
 10
611.876221
 20
-460.747406
 11
611.876221
 21
-465.668823
  0
LINE
  8
0
 62
     5
 10
611.876221
 20
-465.668823
 11
620.723999
 21
-465.668823
  0
LINE
  8
0
 62
     5
 10
603.028809
 20
-486.759460
 11
603.028809
 21
-498.294342
  0
LINE
  8
0
 62
     5
 10
611.876221
 20
-485.470184
 11
611.876221
 21
-498.294342
  0
LINE
  8
0
 62
     5
 10
616.686707
 20
-480.391937
 11
622.594543
 21
-477.637115
  0
LINE
  8
0
 62
     5
 10
655.008484
 20
-462.738159
 11
661.644043
 21
-462.738159
  0
LINE
  8
0
 62
     5
 10
627.912720
 20
-476.445160
 11
627.912720
 21
-483.586365
  0
LINE
  8
0
 62
     5
 10
661.644043
 20
-462.738159
 11
661.644043
 21
-465.668823
  0
LINE
  8
0
 62
     5
 10
655.008484
 20
-462.738159
 11
655.008484
 21
-464.168060
  0
LINE
  8
0
 62
     5
 10
646.160828
 20
-476.328888
 11
646.160828
 21
-498.294342
  0
LINE
  8
0
 62
     5
 10
627.912903
 20
-476.445496
 11
653.614319
 21
-466.223785
  0
LINE
  8
0
 62
     5
 10
627.912598
 20
-483.586365
 11
646.160706
 21
-476.328796
  0
LINE
  8
0
 62
     5
 10
646.160828
 20
-498.294342
 11
655.008484
 21
-498.294342
  0
LINE
  8
0
 62
     5
 10
655.008484
 20
-472.810120
 11
655.008484
 21
-498.294342
  0
LINE
  8
0
 62
     5
 10
655.009155
 20
-472.810547
 11
657.461609
 21
-471.835114
  0
LINE
  8
0
 62
     5
 10
565.533691
 20
-460.747406
 11
572.403381
 21
-460.747406
  0
LINE
  8
0
 62
     5
 10
583.398193
 20
-460.747406
 11
586.218201
 21
-460.747406
  0
LINE
  8
0
 62
     5
 10
603.028809
 20
-460.747406
 11
611.876221
 21
-460.747406
  0
LINE
  8
0
 62
     5
 10
583.398193
 20
-465.171234
 11
586.218201
 21
-465.171234
  0
LINE
  8
0
 62
     5
 10
583.398193
 20
-460.747406
 11
583.398193
 21
-465.171234
  0
LINE
  8
0
 62
     5
 10
586.218201
 20
-460.747406
 11
586.218201
 21
-465.171234
  0
LINE
  8
0
 62
     5
 10
587.877319
 20
-460.747406
 11
587.877319
 21
-465.171234
  0
LINE
  8
0
 62
     5
 10
591.029297
 20
-460.747406
 11
591.029297
 21
-465.171234
  0
LINE
  8
0
 62
     5
 10
587.877319
 20
-460.747406
 11
591.029297
 21
-460.747406
  0
LINE
  8
0
 62
     5
 10
587.877319
 20
-465.171234
 11
591.029297
 21
-465.171234
  0
LINE
  8
0
 62
     3
 10
436.659546
 20
-451.914154
 11
436.659546
 21
-509.118408
  0
LINE
  8
0
 62
     3
 10
436.659546
 20
-451.914154
 11
741.749207
 21
-451.914154
  0
LINE
  8
0
 62
     3
 10
436.659546
 20
509.118408
 11
436.659546
 21
451.914032
  0
LINE
  8
0
 62
     3
 10
436.659546
 20
451.914032
 11
741.749207
 21
451.914032
  0
LINE
  8
0
 62
     3
 10
-317.483978
 20
451.914032
 11
-317.483978
 21
509.118408
  0
LINE
  8
0
 62
     3
 10
-741.749207
 20
451.914032
 11
-317.483978
 21
451.914032
  0
LINE
  8
0
 10
0.000000
 20
509.114990
 11
0.000000
 21
-0.000061
  0
LINE
  8
0
 10
-741.749207
 20
-0.000061
 11
741.750000
 21
-0.000061
  0
LINE
  8
0
  6
PHANTOM
 10
-528.750000
 20
69.999962
 11
-478.750000
 21
69.999962
  0
LINE
  8
0
  6
PHANTOM
 10
-526.112610
 20
75.999962
 11
-478.750000
 21
75.999962
  0
LINE
  8
0
  6
PHANTOM
 10
-451.750000
 20
125.999962
 11
-451.750000
 21
89.999962
  0
LINE
  8
0
  6
PHANTOM
 10
-478.750000
 20
125.999962
 11
-478.750000
 21
69.999962
  0
LINE
  8
0
  6
PHANTOM
 10
-451.750000
 20
125.999962
 11
-478.750000
 21
125.999962
  0
LINE
  8
0
  6
PHANTOM
 10
-451.750000
 20
73.999962
 11
-478.750000
 21
73.999962
  0
LINE
  8
0
  6
CENTER
 10
-533.750000
 20
99.999939
 11
-446.750000
 21
99.999939
  0
LINE
  8
0
  6
PHANTOM
 10
-451.750000
 20
76.199966
 11
-451.750000
 21
73.999962
  0
LINE
  8
0
  6
CENTER
 10
-533.750000
 20
289.999939
 11
-420.750000
 21
289.999939
  0
LINE
  8
0
  6
PHANTOM
 10
-528.750000
 20
265.999939
 11
-478.750000
 21
265.999939
  0
LINE
  8
0
  6
PHANTOM
 10
-528.750000
 20
313.999939
 11
-478.750000
 21
313.999939
  0
LINE
  8
0
  6
PHANTOM
 10
-478.750000
 20
315.999939
 11
-478.750000
 21
263.999939
  0
LINE
  8
0
  6
PHANTOM
 10
-451.750000
 20
315.999939
 11
-451.750000
 21
314.999939
  0
LINE
  8
0
  6
PHANTOM
 10
-451.750000
 20
263.999939
 11
-478.750000
 21
263.999939
  0
LINE
  8
0
  6
PHANTOM
 10
-451.750000
 20
315.999939
 11
-478.750000
 21
315.999939
  0
LINE
  8
0
  6
CENTER
 10
-262.749939
 20
99.999893
 11
-200.749939
 21
99.999893
  0
LINE
  8
0
  6
CENTER
 10
-231.749939
 20
130.999893
 11
-231.749939
 21
64.999893
  0
LINE
  8
0
  6
PHANTOM
 10
-249.750000
 20
125.999893
 11
-213.750000
 21
125.999893
  0
LINE
  8
0
  6
PHANTOM
 10
-257.749939
 20
117.999832
 11
-257.749939
 21
81.999832
  0
LINE
  8
0
  6
PHANTOM
 10
-205.749939
 20
117.999954
 11
-205.749939
 21
81.999954
  0
LINE
  8
0
  6
PHANTOM
 10
-451.750000
 20
264.999939
 11
-451.750000
 21
263.999939
  0
LINE
  8
0
  6
PHANTOM
 10
250.000000
 20
129.999939
 11
250.000000
 21
64.999939
  0
LINE
  8
0
  6
PHANTOM
 10
249.999985
 20
69.999924
 11
280.000000
 21
69.999924
  0
LINE
  8
0
  6
PHANTOM
 10
250.000015
 20
129.999924
 11
280.000000
 21
129.999924
  0
LINE
  8
0
  6
PHANTOM
 10
280.000000
 20
129.999924
 11
280.000000
 21
86.999924
  0
LINE
  8
0
  6
PHANTOM
 10
199.999985
 20
64.999924
 11
249.999985
 21
64.999924
  0
LINE
  8
0
  6
CENTER
 10
195.000000
 20
99.999954
 11
285.000061
 21
99.999954
  0
LINE
  8
0
  6
PHANTOM
 10
280.000000
 20
71.999924
 11
280.000000
 21
69.999924
  0
LINE
  8
0
  6
CENTER
 10
195.000000
 20
299.999939
 11
311.000000
 21
299.999939
  0
LINE
  8
0
  6
PHANTOM
 10
280.000000
 20
329.999939
 11
280.000000
 21
328.999939
  0
LINE
  8
0
  6
PHANTOM
 10
250.000000
 20
329.999939
 11
250.000000
 21
269.999939
  0
LINE
  8
0
  6
PHANTOM
 10
250.000000
 20
269.999939
 11
280.000000
 21
269.999939
  0
LINE
  8
0
  6
PHANTOM
 10
250.000000
 20
329.999939
 11
280.000000
 21
329.999939
  0
LINE
  8
0
  6
PHANTOM
 10
200.000000
 20
270.999939
 11
250.000000
 21
270.999939
  0
LINE
  8
0
  6
PHANTOM
 10
200.000000
 20
328.999939
 11
250.000000
 21
328.999939
  0
LINE
  8
0
  6
PHANTOM
 10
280.000000
 20
270.999939
 11
280.000000
 21
269.999939
  0
LINE
  8
0
  6
CENTER
 10
500.000000
 20
134.999908
 11
500.000000
 21
59.999863
  0
LINE
  8
0
  6
CENTER
 10
465.000031
 20
99.999908
 11
535.000000
 21
99.999908
  0
LINE
  8
0
  6
PHANTOM
 10
530.000000
 20
119.999878
 11
530.000000
 21
78.999878
  0
LINE
  8
0
  6
PHANTOM
 10
470.000000
 20
119.999847
 11
470.000000
 21
78.999847
  0
LINE
  8
0
  6
PHANTOM
 10
479.000031
 20
128.999908
 11
521.000000
 21
128.999908
  0
LINE
  8
0
  6
PHANTOM
 10
-131.750000
 20
-357.114960
 11
-131.750000
 21
-410.114960
  0
LINE
  8
0
  6
PHANTOM
 10
-163.750000
 20
-357.114960
 11
-131.750000
 21
-357.114960
  0
LINE
  8
0
  6
PHANTOM
 10
-163.750000
 20
-431.114960
 11
-131.750000
 21
-431.114960
  0
LINE
  8
0
  6
PHANTOM
 10
-163.750000
 20
-357.114960
 11
-163.750000
 21
-434.114960
  0
LINE
  8
0
  6
PHANTOM
 10
-233.750000
 20
-434.114960
 11
-163.750000
 21
-434.114960
  0
LINE
  8
0
  6
PHANTOM
 10
-231.878784
 20
-429.114960
 11
-163.750000
 21
-429.114960
  0
LINE
  8
0
  6
CENTER
 10
-238.750000
 20
-394.114990
 11
-126.750061
 21
-394.114990
  0
LINE
  8
0
  6
PHANTOM
 10
-131.750000
 20
-427.114960
 11
-131.750000
 21
-431.114960
  0
LINE
  8
0
  6
CENTER
 10
-238.750000
 20
-159.114990
 11
-94.750000
 21
-159.114990
  0
LINE
  8
0
  6
PHANTOM
 10
-131.750000
 20
-122.114990
 11
-131.750000
 21
-123.114990
  0
LINE
  8
0
  6
PHANTOM
 10
-163.750000
 20
-122.114990
 11
-163.750000
 21
-196.114990
  0
LINE
  8
0
  6
PHANTOM
 10
-163.750000
 20
-122.114990
 11
-131.750000
 21
-122.114990
  0
LINE
  8
0
  6
PHANTOM
 10
-163.750000
 20
-196.114990
 11
-131.750000
 21
-196.114990
  0
LINE
  8
0
  6
PHANTOM
 10
-233.750000
 20
-194.114990
 11
-163.750000
 21
-194.114990
  0
LINE
  8
0
  6
PHANTOM
 10
-233.750000
 20
-124.114990
 11
-163.750000
 21
-124.114990
  0
LINE
  8
0
  6
PHANTOM
 10
-131.750000
 20
-195.114990
 11
-131.750000
 21
-196.114990
  0
LINE
  8
0
  6
CENTER
 10
86.249908
 20
-394.114960
 11
170.249908
 21
-394.114960
  0
LINE
  8
0
  6
CENTER
 10
128.249908
 20
-352.114960
 11
128.249908
 21
-439.114960
  0
LINE
  8
0
  6
PHANTOM
 10
102.249985
 20
-357.114960
 11
154.249985
 21
-357.114960
  0
LINE
  8
0
  6
PHANTOM
 10
165.249908
 20
-368.115021
 11
165.249908
 21
-420.115021
  0
LINE
  8
0
  6
PHANTOM
 10
91.249908
 20
-368.114868
 11
91.249908
 21
-420.114868
  0
LINE
  8
0
  6
PHANTOM
 10
-528.313477
 20
123.999962
 11
-478.750000
 21
123.999962
  0
LINE
  8
0
  6
PHANTOM
 10
-531.049683
 20
298.499939
 11
-478.750000
 21
298.499939
  0
LINE
  8
0
  6
PHANTOM
 10
-526.450378
 20
281.499939
 11
-478.750000
 21
281.499939
  0
LINE
  8
0
  6
PHANTOM
 10
202.340714
 20
290.999939
 11
250.000000
 21
290.999939
  0
LINE
  8
0
  6
PHANTOM
 10
197.659286
 20
308.999939
 11
250.000000
 21
308.999939
  0
LINE
  8
0
  6
PHANTOM
 10
-233.750000
 20
-359.114960
 11
-163.750000
 21
-359.114960
  0
LINE
  8
0
  6
PHANTOM
 10
-236.001740
 20
-151.114990
 11
-163.750000
 21
-151.114990
  0
LINE
  8
0
  6
PHANTOM
 10
-231.498260
 20
-167.114990
 11
-163.750000
 21
-167.114990
  0
LINE
  8
0
  6
PHANTOM
 10
199.999985
 20
127.999954
 11
250.000000
 21
127.999954
  0
LINE
  8
0
  6
PHANTOM
 10
202.342484
 20
70.999954
 11
250.000000
 21
70.999954
  0
LINE
  8
0
 10
-443.149963
 20
77.000000
 11
-442.549957
 21
77.600006
  0
LINE
  8
0
 10
-443.149872
 20
86.999977
 11
-442.549866
 21
86.399963
  0
LINE
  8
0
 10
-425.749908
 20
69.999931
 11
-445.549896
 21
69.999931
  0
LINE
  8
0
 10
-448.549896
 20
89.999931
 11
-451.749908
 21
89.999931
  0
LINE
  8
0
 10
-448.549896
 20
89.999931
 11
-448.549896
 21
76.199936
  0
LINE
  8
0
 10
-425.749908
 20
73.199936
 11
-425.749908
 21
69.999931
  0
LINE
  8
0
 10
-425.749908
 20
73.199936
 11
-445.549896
 21
73.199936
  0
LINE
  8
0
 10
-451.749908
 20
89.999931
 11
-451.749908
 21
76.199936
  0
LINE
  8
0
 10
-443.149902
 20
86.999931
 11
-443.149902
 21
76.999931
  0
LINE
  8
0
 10
-442.549896
 20
86.399933
 11
-442.549896
 21
77.599930
  0
LINE
  8
0
 10
-443.149902
 20
86.999931
 11
-448.549896
 21
86.999931
  0
LINE
  8
0
 10
-443.149902
 20
76.999931
 11
-448.549896
 21
76.999931
  0
LINE
  8
0
  6
CENTER
 10
-437.549896
 20
81.999931
 11
-462.749878
 21
81.999931
  0
LINE
  8
0
  6
CENTER
 10
-433.749908
 20
78.199936
 11
-433.749908
 21
64.999931
  0
LINE
  8
0
  6
DASHED
 10
-437.049896
 20
73.199936
 11
-437.049896
 21
69.999931
  0
LINE
  8
0
  6
DASHED
 10
-430.449921
 20
73.199936
 11
-430.449921
 21
69.999931
  0
LINE
  8
0
 10
-443.149841
 20
276.999878
 11
-443.149841
 21
266.999878
  0
LINE
  8
0
 10
-442.549835
 20
276.399872
 11
-442.549835
 21
267.599854
  0
LINE
  8
0
 10
-451.749847
 20
277.999878
 11
-448.549835
 21
277.999878
  0
LINE
  8
0
 10
-451.749847
 20
301.999878
 11
-448.549835
 21
301.999878
  0
LINE
  8
0
 10
-425.749847
 20
277.999878
 11
-425.749847
 21
264.999878
  0
LINE
  8
0
 10
-443.149963
 20
266.999969
 11
-442.549957
 21
267.599945
  0
LINE
  8
0
 10
-443.149841
 20
302.999878
 11
-448.549835
 21
302.999878
  0
LINE
  8
0
 10
-443.149841
 20
312.999878
 11
-448.549835
 21
312.999878
  0
LINE
  8
0
 10
-442.549835
 20
312.399872
 11
-442.549835
 21
303.599854
  0
LINE
  8
0
 10
-443.149841
 20
312.999878
 11
-443.149841
 21
302.999878
  0
LINE
  8
0
 10
-443.149811
 20
312.999908
 11
-442.549805
 21
312.399902
  0
LINE
  8
0
 10
-443.149963
 20
303.000000
 11
-442.549988
 21
303.600006
  0
LINE
  8
0
 10
-451.749847
 20
314.999878
 11
-451.749847
 21
264.999878
  0
LINE
  8
0
 10
-443.149841
 20
266.999878
 11
-448.549835
 21
266.999878
  0
LINE
  8
0
 10
-443.149841
 20
276.999878
 11
-448.549835
 21
276.999878
  0
LINE
  8
0
 10
-443.149811
 20
276.999908
 11
-442.549805
 21
276.399902
  0
LINE
  8
0
 10
-448.549835
 20
314.999878
 11
-448.549835
 21
264.999878
  0
LINE
  8
0
 10
-425.749847
 20
314.999878
 11
-425.749847
 21
301.999878
  0
LINE
  8
0
 10
-451.749847
 20
314.999878
 11
-425.749847
 21
314.999878
  0
LINE
  8
0
 10
-451.749847
 20
264.999878
 11
-425.749847
 21
264.999878
  0
LINE
  8
0
  6
CENTER
 10
-462.749878
 20
271.999878
 11
-428.249847
 21
271.999878
  0
LINE
  8
0
  6
CENTER
 10
-462.749878
 20
307.999878
 11
-428.249847
 21
307.999878
  0
LINE
  8
0
  6
CENTER
 10
-433.749847
 20
313.499878
 11
-433.749847
 21
302.499878
  0
LINE
  8
0
  6
CENTER
 10
-433.749847
 20
277.499878
 11
-433.749847
 21
266.499878
  0
LINE
  8
0
 10
-216.249939
 20
83.443268
 11
-216.249939
 21
80.556519
  0
LINE
  8
0
 10
-216.249954
 20
80.556503
 11
-213.749954
 21
79.113129
  0
LINE
  8
0
 10
-211.249939
 20
83.443253
 11
-213.749939
 21
84.886627
  0
LINE
  8
0
 10
-213.749969
 20
84.886665
 11
-216.249969
 21
83.443291
  0
LINE
  8
0
 10
-213.749954
 20
79.113159
 11
-211.249954
 21
80.556541
  0
LINE
  8
0
 10
-211.249939
 20
80.556503
 11
-211.249939
 21
83.443260
  0
LINE
  8
0
 10
-247.249878
 20
83.443268
 11
-247.249878
 21
80.556519
  0
LINE
  8
0
 10
-249.749832
 20
84.886650
 11
-247.249847
 21
83.443283
  0
LINE
  8
0
 10
-252.249832
 20
83.443222
 11
-249.749847
 21
84.886597
  0
LINE
  8
0
 10
-252.249878
 20
80.556503
 11
-252.249878
 21
83.443260
  0
LINE
  8
0
 10
-249.749832
 20
79.113136
 11
-252.249847
 21
80.556526
  0
LINE
  8
0
 10
-256.749908
 20
89.999977
 11
-243.749908
 21
89.999977
  0
LINE
  8
0
 10
-256.749908
 20
73.199982
 11
-206.749908
 21
73.199982
  0
LINE
  8
0
 10
-256.749908
 20
69.999977
 11
-206.749908
 21
69.999977
  0
LINE
  8
0
 10
-206.749908
 20
89.999977
 11
-206.749908
 21
69.999977
  0
LINE
  8
0
 10
-256.749908
 20
89.999977
 11
-256.749908
 21
69.999977
  0
LINE
  8
0
 10
-219.749908
 20
73.199982
 11
-219.749908
 21
69.999977
  0
LINE
  8
0
 10
-243.749908
 20
73.199982
 11
-243.749908
 21
69.999977
  0
LINE
  8
0
 10
-219.749908
 20
89.999977
 11
-206.749908
 21
89.999977
  0
LINE
  8
0
 10
-247.249802
 20
80.556465
 11
-249.749802
 21
79.113091
  0
LINE
  8
0
  6
CENTER
 10
-240.749878
 20
81.999878
 11
-258.749878
 21
81.999878
  0
LINE
  8
0
  6
CENTER
 10
-249.749878
 20
90.999878
 11
-249.749878
 21
64.999977
  0
LINE
  8
0
  6
DASHED
 10
-253.049942
 20
69.999977
 11
-253.049942
 21
73.199982
  0
LINE
  8
0
  6
DASHED
 10
-246.449936
 20
69.999977
 11
-246.449936
 21
73.199982
  0
LINE
  8
0
  6
DASHED
 10
-217.049942
 20
69.999977
 11
-217.049942
 21
73.199982
  0
LINE
  8
0
  6
CENTER
 10
-213.749939
 20
90.999878
 11
-213.749939
 21
64.999977
  0
LINE
  8
0
  6
DASHED
 10
-210.449936
 20
69.999977
 11
-210.449936
 21
73.199982
  0
LINE
  8
0
  6
CENTER
 10
-222.749939
 20
81.999878
 11
-204.749939
 21
81.999878
  0
LINE
  8
0
 10
289.399963
 20
73.999908
 11
290.000000
 21
74.599937
  0
LINE
  8
0
 10
289.399994
 20
83.999908
 11
289.999969
 21
83.399910
  0
LINE
  8
0
 10
289.399994
 20
83.999924
 11
289.399994
 21
73.999924
  0
LINE
  8
0
 10
284.000000
 20
73.999924
 11
289.399994
 21
73.999924
  0
LINE
  8
0
 10
284.000000
 20
83.999924
 11
289.399994
 21
83.999924
  0
LINE
  8
0
 10
306.000000
 20
68.999924
 11
306.000000
 21
64.999924
  0
LINE
  8
0
 10
287.000000
 20
64.999924
 11
306.000000
 21
64.999924
  0
LINE
  8
0
 10
280.000000
 20
86.999924
 11
284.000000
 21
86.999924
  0
LINE
  8
0
 10
284.000000
 20
86.999924
 11
284.000000
 21
71.999924
  0
LINE
  8
0
 10
287.000000
 20
68.999924
 11
306.000000
 21
68.999924
  0
LINE
  8
0
 10
290.000000
 20
83.399925
 11
290.000000
 21
74.599922
  0
LINE
  8
0
 10
280.000000
 20
86.999924
 11
280.000000
 21
71.999924
  0
LINE
  8
0
  6
CENTER
 10
269.000000
 20
78.999924
 11
295.000000
 21
78.999924
  0
LINE
  8
0
  6
CENTER
 10
298.000000
 20
73.999924
 11
298.000000
 21
59.999924
  0
LINE
  8
0
  6
DASHED
 10
294.700012
 20
68.999924
 11
294.700012
 21
64.999924
  0
LINE
  8
0
  6
DASHED
 10
301.299988
 20
68.999924
 11
301.299988
 21
64.999924
  0
LINE
  8
0
 10
305.999969
 20
286.583466
 11
305.999969
 21
270.999878
  0
LINE
  8
0
 10
279.999969
 20
328.999878
 11
279.999969
 21
270.999878
  0
LINE
  8
0
 10
289.399902
 20
325.999817
 11
289.999908
 21
325.399811
  0
LINE
  8
0
 10
289.399963
 20
325.999878
 11
289.399963
 21
315.999878
  0
LINE
  8
0
 10
289.999969
 20
283.399872
 11
289.999969
 21
274.599884
  0
LINE
  8
0
 10
283.999969
 20
283.999878
 11
289.399963
 21
283.999878
  0
LINE
  8
0
 10
283.999969
 20
273.999878
 11
289.399963
 21
273.999878
  0
LINE
  8
0
 10
289.399963
 20
283.999878
 11
289.399963
 21
273.999878
  0
LINE
  8
0
 10
289.399933
 20
283.999847
 11
289.999939
 21
283.399841
  0
LINE
  8
0
 10
289.399963
 20
273.999847
 11
290.000000
 21
274.599884
  0
LINE
  8
0
 10
283.999969
 20
315.999878
 11
289.399963
 21
315.999878
  0
LINE
  8
0
 10
283.999969
 20
325.999878
 11
289.399963
 21
325.999878
  0
LINE
  8
0
 10
289.999969
 20
325.399872
 11
289.999969
 21
316.599884
  0
LINE
  8
0
 10
289.399963
 20
315.999847
 11
289.999969
 21
316.599854
  0
LINE
  8
0
 10
305.999969
 20
328.999878
 11
305.999969
 21
313.416290
  0
LINE
  8
0
 10
283.999969
 20
328.999878
 11
283.999969
 21
270.999878
  0
LINE
  8
0
 10
279.999969
 20
270.999878
 11
305.999969
 21
270.999878
  0
LINE
  8
0
 10
279.999969
 20
328.999878
 11
305.999969
 21
328.999878
  0
LINE
  8
0
 10
279.999969
 20
286.583466
 11
283.999969
 21
286.583466
  0
LINE
  8
0
 10
279.999969
 20
313.416290
 11
283.999969
 21
313.416290
  0
LINE
  8
0
  6
CENTER
 10
268.999969
 20
320.999878
 11
303.499969
 21
320.999878
  0
LINE
  8
0
  6
CENTER
 10
268.999969
 20
278.999878
 11
303.499969
 21
278.999878
  0
LINE
  8
0
  6
CENTER
 10
297.999969
 20
284.499878
 11
297.999969
 21
273.499878
  0
LINE
  8
0
  6
CENTER
 10
297.999969
 20
326.499878
 11
297.999969
 21
315.499878
  0
LINE
  8
0
  6
CENTER
 10
512.000000
 20
78.999870
 11
530.000000
 21
78.999870
  0
LINE
  8
0
 10
529.000000
 20
64.999870
 11
471.000031
 21
64.999870
  0
LINE
  8
0
 10
529.000000
 20
86.999870
 11
513.416382
 21
86.999870
  0
LINE
  8
0
 10
529.000000
 20
68.999870
 11
471.000031
 21
68.999870
  0
LINE
  8
0
 10
529.000000
 20
86.999886
 11
529.000000
 21
64.999886
  0
LINE
  8
0
 10
471.000000
 20
86.999855
 11
471.000000
 21
64.999855
  0
LINE
  8
0
 10
476.500000
 20
77.556480
 11
476.500000
 21
80.443230
  0
LINE
  8
0
 10
481.499969
 20
77.556511
 11
478.999969
 21
76.113136
  0
LINE
  8
0
 10
518.500061
 20
77.556519
 11
521.000061
 21
76.113144
  0
LINE
  8
0
 10
521.000122
 20
76.113144
 11
523.500122
 21
77.556519
  0
LINE
  8
0
 10
523.500000
 20
77.556511
 11
523.500000
 21
80.443260
  0
LINE
  8
0
 10
523.500061
 20
80.443268
 11
521.000061
 21
81.886642
  0
LINE
  8
0
 10
521.000061
 20
81.886589
 11
518.500061
 21
80.443214
  0
LINE
  8
0
 10
518.500000
 20
80.443245
 11
518.500000
 21
77.556496
  0
LINE
  8
0
 10
479.000000
 20
76.113113
 11
476.500000
 21
77.556488
  0
LINE
  8
0
 10
481.500000
 20
80.443230
 11
481.500000
 21
77.556480
  0
LINE
  8
0
 10
486.583588
 20
86.999870
 11
471.000000
 21
86.999870
  0
LINE
  8
0
 10
486.583588
 20
68.999863
 11
486.583588
 21
64.999863
  0
LINE
  8
0
 10
513.416382
 20
68.999878
 11
513.416382
 21
64.999878
  0
LINE
  8
0
 10
478.999908
 20
81.886543
 11
481.499908
 21
80.443169
  0
LINE
  8
0
 10
476.499908
 20
80.443306
 11
478.999908
 21
81.886673
  0
LINE
  8
0
  6
CENTER
 10
479.000000
 20
87.999863
 11
479.000000
 21
59.999863
  0
LINE
  8
0
  6
DASHED
 10
475.700012
 20
68.999855
 11
475.700012
 21
64.999855
  0
LINE
  8
0
  6
DASHED
 10
482.299988
 20
68.999863
 11
482.299988
 21
64.999863
  0
LINE
  8
0
  6
CENTER
 10
488.000000
 20
78.999870
 11
470.000000
 21
78.999870
  0
LINE
  8
0
  6
CENTER
 10
521.000000
 20
87.999878
 11
521.000000
 21
59.999878
  0
LINE
  8
0
  6
DASHED
 10
517.700012
 20
68.999878
 11
517.700012
 21
64.999878
  0
LINE
  8
0
  6
DASHED
 10
524.299988
 20
68.999886
 11
524.299988
 21
64.999886
  0
LINE
  8
0
 10
-119.750015
 20
-414.414978
 11
-119.750015
 21
-425.814972
  0
LINE
  8
0
 10
-120.550041
 20
-426.614990
 11
-119.750038
 21
-425.815002
  0
LINE
  8
0
 10
-120.550011
 20
-413.614960
 11
-119.750008
 21
-414.414948
  0
LINE
  8
0
 10
-120.550018
 20
-413.614990
 11
-120.550018
 21
-426.614990
  0
LINE
  8
0
 10
-127.750015
 20
-413.614990
 11
-120.550018
 21
-413.614990
  0
LINE
  8
0
 10
-127.750015
 20
-426.614990
 11
-120.550018
 21
-426.614990
  0
LINE
  8
0
 10
-99.750015
 20
-430.114990
 11
-99.750015
 21
-434.114990
  0
LINE
  8
0
  6
CENTER
 10
-144.750015
 20
-420.114990
 11
-114.750015
 21
-420.114990
  0
LINE
  8
0
 10
-131.750015
 20
-410.114990
 11
-127.750015
 21
-410.114990
  0
LINE
  8
0
 10
-127.750015
 20
-410.114990
 11
-127.750015
 21
-427.114990
  0
LINE
  8
0
 10
-124.750015
 20
-434.114990
 11
-99.750015
 21
-434.114990
  0
LINE
  8
0
 10
-131.750015
 20
-410.114990
 11
-131.750015
 21
-427.114990
  0
LINE
  8
0
  6
DASHED
 10
-114.250015
 20
-430.114990
 11
-114.250015
 21
-434.114990
  0
LINE
  8
0
  6
DASHED
 10
-105.250015
 20
-430.114990
 11
-105.250015
 21
-434.114990
  0
LINE
  8
0
 10
-124.750015
 20
-430.114990
 11
-99.750015
 21
-430.114990
  0
LINE
  8
0
  6
CENTER
 10
-109.750015
 20
-425.114990
 11
-109.750015
 21
-439.114990
  0
LINE
  8
0
 10
-131.750076
 20
-141.115036
 11
-127.750076
 21
-141.115036
  0
LINE
  8
0
 10
-99.750076
 20
-177.115036
 11
-99.750076
 21
-195.115036
  0
LINE
  8
0
 10
-119.750076
 20
-127.415024
 11
-119.750076
 21
-138.815018
  0
LINE
  8
0
 10
-127.750076
 20
-139.615036
 11
-120.550079
 21
-139.615036
  0
LINE
  8
0
 10
-127.750076
 20
-126.615036
 11
-120.550079
 21
-126.615036
  0
LINE
  8
0
 10
-120.550079
 20
-126.615036
 11
-120.550079
 21
-139.615036
  0
LINE
  8
0
 10
-120.550041
 20
-126.614998
 11
-119.750046
 21
-127.414993
  0
LINE
  8
0
 10
-120.550079
 20
-139.615067
 11
-119.750099
 21
-138.815094
  0
LINE
  8
0
 10
-120.550072
 20
-178.614990
 11
-119.750076
 21
-179.414978
  0
LINE
  8
0
 10
-120.550079
 20
-178.615036
 11
-120.550079
 21
-191.615036
  0
LINE
  8
0
 10
-127.750076
 20
-178.615036
 11
-120.550079
 21
-178.615036
  0
LINE
  8
0
 10
-127.750076
 20
-191.615036
 11
-120.550079
 21
-191.615036
  0
LINE
  8
0
 10
-99.750076
 20
-123.115036
 11
-99.750076
 21
-141.115036
  0
LINE
  8
0
 10
-127.750076
 20
-123.115036
 11
-127.750076
 21
-195.115036
  0
LINE
  8
0
 10
-131.750076
 20
-123.115036
 11
-99.750076
 21
-123.115036
  0
LINE
  8
0
 10
-131.750076
 20
-195.115036
 11
-99.750076
 21
-195.115036
  0
LINE
  8
0
 10
-131.750076
 20
-123.115036
 11
-131.750076
 21
-195.115036
  0
LINE
  8
0
 10
-119.750076
 20
-179.415024
 11
-119.750076
 21
-190.815018
  0
LINE
  8
0
 10
-120.550072
 20
-191.615036
 11
-119.750092
 21
-190.815048
  0
LINE
  8
0
 10
-131.750076
 20
-177.115036
 11
-127.750076
 21
-177.115036
  0
LINE
  8
0
  6
CENTER
 10
-144.750076
 20
-185.115036
 11
-101.250076
 21
-185.115036
  0
LINE
  8
0
  6
CENTER
 10
-144.750076
 20
-133.115036
 11
-101.250076
 21
-133.115036
  0
LINE
  8
0
  6
CENTER
 10
-109.750076
 20
-124.615036
 11
-109.750076
 21
-141.615036
  0
LINE
  8
0
  6
CENTER
 10
-109.750076
 20
-176.615036
 11
-109.750076
 21
-193.615036
  0
LINE
  8
0
 10
164.249817
 20
-434.114899
 11
92.249825
 21
-434.114899
  0
LINE
  8
0
 10
164.249878
 20
-410.114899
 11
146.249878
 21
-410.114899
  0
LINE
  8
0
  6
CENTER
 10
154.249908
 20
-410.114960
 11
154.249908
 21
-439.114960
  0
LINE
  8
0
 10
164.249908
 20
-410.114960
 11
164.249908
 21
-434.114960
  0
LINE
  8
0
 10
92.249908
 20
-410.114838
 11
92.249908
 21
-434.114838
  0
LINE
  8
0
 10
110.249878
 20
-410.114899
 11
92.249878
 21
-410.114899
  0
LINE
  8
0
 10
99.249908
 20
-421.846893
 11
99.249908
 21
-418.382782
  0
LINE
  8
0
 10
99.249916
 20
-418.382904
 11
102.249916
 21
-416.650848
  0
LINE
  8
0
 10
154.249908
 20
-423.579132
 11
157.249908
 21
-421.847076
  0
LINE
  8
0
 10
157.249908
 20
-421.847015
 11
157.249908
 21
-418.382904
  0
LINE
  8
0
 10
157.249878
 20
-418.382874
 11
154.249924
 21
-416.650848
  0
LINE
  8
0
 10
154.249924
 20
-416.650909
 11
151.249908
 21
-418.382965
  0
LINE
  8
0
 10
151.249908
 20
-418.382904
 11
151.249908
 21
-421.847015
  0
LINE
  8
0
 10
151.249878
 20
-421.846985
 11
154.249878
 21
-423.579041
  0
LINE
  8
0
 10
102.249786
 20
-423.579071
 11
99.249802
 21
-421.847015
  0
LINE
  8
0
 10
102.249817
 20
-416.650848
 11
105.249825
 21
-418.382904
  0
LINE
  8
0
  6
CENTER
 10
144.249847
 20
-420.114899
 11
164.249847
 21
-420.114899
  0
LINE
  8
0
 10
110.249908
 20
-430.114868
 11
110.249908
 21
-434.114868
  0
LINE
  8
0
 10
105.249908
 20
-418.382782
 11
105.249908
 21
-421.846893
  0
LINE
  8
0
 10
105.249939
 20
-421.847076
 11
102.249931
 21
-423.579132
  0
LINE
  8
0
  6
DASHED
 10
97.749908
 20
-430.114838
 11
97.749908
 21
-434.114838
  0
LINE
  8
0
  6
CENTER
 10
102.249908
 20
-410.114838
 11
102.249908
 21
-439.114838
  0
LINE
  8
0
  6
DASHED
 10
106.749908
 20
-430.114868
 11
106.749908
 21
-434.114868
  0
LINE
  8
0
  6
CENTER
 10
112.249855
 20
-420.114899
 11
92.249855
 21
-420.114899
  0
LINE
  8
0
  6
DASHED
 10
149.749908
 20
-430.114929
 11
149.749908
 21
-434.114929
  0
LINE
  8
0
 10
146.249908
 20
-430.114929
 11
146.249908
 21
-434.114929
  0
LINE
  8
0
 10
164.249832
 20
-430.114899
 11
92.249832
 21
-430.114899
  0
LINE
  8
0
  6
DASHED
 10
158.749908
 20
-430.114960
 11
158.749908
 21
-434.114960
  0
ARC
  8
0
 62
     5
 10
655.008484
 20
-465.668823
 40
6.635708
 50
291.688293
 51
0.000000
  0
ARC
  8
0
 62
     5
 10
652.796448
 20
-464.168060
 40
2.211920
 50
291.688660
 51
0.000000
  0
ARC
  8
0
 62
     5
 10
546.072388
 20
-470.092651
 40
4.423828
 50
0.000000
 51
90.000000
  0
ARC
  8
0
 62
     5
 10
582.568787
 20
-493.870697
 40
4.423798
 50
270.000000
 51
0.000000
  0
ARC
  8
0
 62
     5
 10
580.356750
 20
-472.304474
 40
6.635681
 50
0.000000
 51
90.000000
  0
ARC
  8
0
 62
     5
 10
620.723999
 20
-470.092651
 40
4.423828
 50
0.000000
 51
90.000000
  0
ARC
  8
0
 62
     5
 10
620.723999
 20
-473.626892
 40
4.423808
 50
294.999786
 51
0.000000
  0
ARC
  8
0
  6
PHANTOM
 10
-501.041687
 20
111.499954
 40
30.000006
 50
155.375702
 51
202.540283
  0
ARC
  8
0
  6
PHANTOM
 10
-554.730774
 20
84.999954
 40
30.000006
 50
330.000031
 51
29.999975
  0
ARC
  8
0
  6
PHANTOM
 10
-501.254517
 20
301.999908
 40
30.000027
 50
156.421844
 51
203.578110
  0
ARC
  8
0
  6
PHANTOM
 10
-556.245483
 20
277.999908
 40
30.000027
 50
336.421844
 51
23.578156
  0
ARC
  8
0
  6
PHANTOM
 10
-249.749893
 20
81.999847
 40
7.999985
 50
180.000000
 51
208.954361
  0
ARC
  8
0
  6
PHANTOM
 10
-249.749985
 20
117.999847
 40
8.000000
 50
90.000000
 51
179.999939
  0
ARC
  8
0
  6
PHANTOM
 10
-213.749985
 20
117.999939
 40
8.000000
 50
0.000000
 51
90.000000
  0
ARC
  8
0
  6
PHANTOM
 10
-213.749893
 20
81.999939
 40
8.000002
 50
331.044281
 51
0.000000
  0
ARC
  8
0
  6
PHANTOM
 10
237.469971
 20
113.999962
 40
40.000004
 50
159.512726
 51
200.487274
  0
ARC
  8
0
  6
PHANTOM
 10
164.031281
 20
82.500008
 40
40.000008
 50
334.055481
 51
25.944510
  0
ARC
  8
0
  6
PHANTOM
 10
237.279358
 20
314.499939
 40
39.999996
 50
158.746231
 51
201.253769
  0
ARC
  8
0
  6
PHANTOM
 10
162.720642
 20
285.499939
 40
40.000008
 50
338.746185
 51
21.253805
  0
ARC
  8
0
  6
PHANTOM
 10
479.000031
 20
78.999847
 40
9.000000
 50
180.000000
 51
207.265625
  0
ARC
  8
0
  6
PHANTOM
 10
521.000061
 20
78.999878
 40
8.999975
 50
332.733429
 51
0.000000
  0
ARC
  8
0
  6
PHANTOM
 10
479.000031
 20
119.999847
 40
9.000000
 50
90.000000
 51
179.999954
  0
ARC
  8
0
  6
PHANTOM
 10
521.000000
 20
119.999878
 40
9.000000
 50
0.000000
 51
90.000000
  0
ARC
  8
0
  6
PHANTOM
 10
-186.912537
 20
-376.614960
 40
49.999992
 50
159.512680
 51
200.487305
  0
ARC
  8
0
  6
PHANTOM
 10
-279.575745
 20
-414.114960
 40
50.000004
 50
336.421814
 51
23.578176
  0
ARC
  8
0
  6
PHANTOM
 10
-186.912537
 20
-141.614990
 40
50.000004
 50
159.512711
 51
200.487274
  0
ARC
  8
0
  6
PHANTOM
 10
-280.587463
 20
-176.614990
 40
49.999992
 50
339.512695
 51
20.487318
  0
ARC
  8
0
  6
PHANTOM
 10
102.249855
 20
-420.114899
 40
11.000000
 50
180.000000
 51
204.619995
  0
ARC
  8
0
  6
PHANTOM
 10
102.249962
 20
-368.114899
 40
11.000000
 50
90.000000
 51
180.000000
  0
ARC
  8
0
  6
PHANTOM
 10
154.249969
 20
-368.115021
 40
11.000000
 50
0.000000
 51
90.000000
  0
ARC
  8
0
  6
PHANTOM
 10
154.249847
 20
-420.115021
 40
11.000002
 50
335.380005
 51
0.000000
  0
ARC
  8
0
 10
-445.549896
 20
76.199936
 40
6.200012
 50
180.000000
 51
270.000000
  0
ARC
  8
0
 10
-445.549896
 20
76.199936
 40
3.000000
 50
180.000000
 51
270.000000
  0
ARC
  8
0
 10
-422.249847
 20
289.999878
 40
12.500000
 50
106.260208
 51
253.739792
  0
CIRCLE
  8
0
 10
-433.749847
 20
271.999878
 40
3.300000
  0
CIRCLE
  8
0
 10
-433.749847
 20
307.999878
 40
3.300000
  0
CIRCLE
  8
0
 10
-249.749878
 20
81.999878
 40
5.000000
  0
CIRCLE
  8
0
 10
-213.749939
 20
81.999878
 40
5.000000
  0
ARC
  8
0
 10
-231.749908
 20
93.499977
 40
12.500000
 50
196.260208
 51
343.739807
  0
ARC
  8
0
 10
287.000000
 20
71.999924
 40
7.000000
 50
180.000000
 51
270.000000
  0
ARC
  8
0
 10
287.000000
 20
71.999924
 40
3.000000
 50
180.000000
 51
270.000000
  0
ARC
  8
0
 10
317.999969
 20
299.999878
 40
18.000004
 50
131.810303
 51
228.189697
  0
CIRCLE
  8
0
 10
297.999969
 20
278.999878
 40
3.300000
  0
CIRCLE
  8
0
 10
297.999969
 20
320.999878
 40
3.300000
  0
CIRCLE
  8
0
 10
479.000000
 20
78.999855
 40
5.000000
  0
ARC
  8
0
 10
500.000000
 20
98.999870
 40
18.000004
 50
221.810303
 51
318.189636
  0
CIRCLE
  8
0
 10
521.000000
 20
78.999886
 40
5.000000
  0
ARC
  8
0
 10
-124.750015
 20
-427.114990
 40
7.000000
 50
180.000000
 51
270.000000
  0
ARC
  8
0
 10
-124.750015
 20
-427.114990
 40
3.000000
 50
180.000000
 51
270.000000
  0
ARC
  8
0
 10
-86.250076
 20
-159.115036
 40
22.500004
 50
126.869911
 51
233.130066
  0
CIRCLE
  8
0
 10
-109.750076
 20
-185.115036
 40
4.500000
  0
CIRCLE
  8
0
 10
-109.750076
 20
-133.115036
 40
4.500000
  0
CIRCLE
  8
0
 10
102.249855
 20
-420.114838
 40
6.500000
  0
CIRCLE
  8
0
 10
154.249847
 20
-420.114960
 40
6.500000
  0
ARC
  8
0
 10
128.249908
 20
-396.614899
 40
22.500006
 50
216.869888
 51
323.130096
  0
TEXT
  8
0
 10
452.676331
 20
466.216309
 40
17.000000
  1
DATE : MAY ,1991
 50
0.000000
 41
1.052631
 51
0.000000
  7
STANDARD
  0
TEXT
  8
0
 10
-672.223755
 20
463.516205
 40
20.000000
  1
ORCA L SUPPORT
 50
0.000000
 41
1.052632
 51
0.000000
  7
STANDARD
  0
TEXT
  8
0
 10
-704.357117
 20
384.914032
 40
20.000000
  1
BORE : 32
 50
0.000000
 41
1.052632
 51
0.000000
  7
STANDARD
  0
TEXT
  8
0
 10
37.392860
 20
424.914032
 40
20.000000
  1
BORE : 40
 50
0.000000
 41
1.052632
 51
0.000000
  7
STANDARD
  0
TEXT
  8
0
 10
-704.357117
 20
-67.000061
 40
20.000000
  1
BORE : 50
 50
0.000000
 41
1.052632
 51
0.000000
  7
STANDARD
  0
ENDSEC
  0
EOF
