  0
SECTION
  2
HEADER
  0
ENDSEC
  0
SECTION
  2
TABLES
  0
TABLE
  2
LTYPE
 70
     4
  0
LTYPE
  2
CONTINUOUS
 70
    64
  3
Solid line
 72
    65
 73
     0
 40
0.000000
  0
LTYPE
  2
DASHED
 70
    64
  3
__ __ __ __ __ __ __ __ __ __ __ __ __ __ __
 72
    65
 73
     2
 40
3.500000
 49
2.000000
 49
-1.500000
  0
LTYPE
  2
CENTER
 70
    64
  3
____ _ ____ _ ____ _ ____ _ ____ _ ____ _ ____
 72
    65
 73
     4
 40
17.500000
 49
13.000000
 49
-1.500000
 49
1.500000
 49
-1.500000
  0
LTYPE
  2
PHANTOM
 70
    64
  3
_____ _ _ _____ _ _ _____ _ _ _____ _ _ ____  
 72
    65
 73
     6
 40
15.500000
 49
8.000000
 49
-1.500000
 49
1.500000
 49
-1.500000
 49
1.500000
 49
-1.500000
  0
LTYPE
  2
DASHED1
 70
    64
  3
__ __ __ __ __ __ __ __ __ __ __ __ __ __ __
 72
    65
 73
     2
 40
1.500000
 49
1.000000
 49
-0.500000
  0
LTYPE
  2
DASHED2
 70
    64
  3
__ __ __ __ __ __ __ __ __ __ __ __ __ __ __
 72
    65
 73
     2
 40
3.500000
 49
2.500000
 49
-1.000000
  0
LTYPE
  2
DASHED3
 70
    64
  3
__ __ __ __ __ __ __ __ __ __ __ __ __ __ __
 72
    65
 73
     2
 40
6.000000
 49
4.000000
 49
-2.000000
  0
LTYPE
  2
DASHED4
 70
    64
  3
__ __ __ __ __ __ __ __ __ __ __ __ __ __ __
 72
    65
 73
     2
 40
12.000000
 49
10.000000
 49
-2.000000
  0
LTYPE
  2
DASHED5
 70
    64
  3
__ __ __ __ __ __ __ __ __ __ __ __ __ __ __
 72
    65
 73
     2
 40
17.000000
 49
15.000000
 49
-2.000000
  0
LTYPE
  2
DASHED6
 70
    64
  3
__ __ __ __ __ __ __ __ __ __ __ __ __ __ __
 72
    65
 73
     2
 40
29.000000
 49
27.000000
 49
-2.000000
  0
LTYPE
  2
PHANTOM1
 70
    64
  3
_____ _ _ _____ _ _ _____ _ _ _____ _ _ ____  
 72
    65
 73
     6
 40
31.000000
 49
25.000000
 49
-1.500000
 49
1.000000
 49
-1.000000
 49
1.000000
 49
-1.500000
  0
LTYPE
  2
PHANTOM2
 70
    64
  3
_____ _ _ _____ _ _ _____ _ _ _____ _ _ ____  
 72
    65
 73
     6
 40
36.000000
 49
27.000000
 49
-1.500000
 49
2.500000
 49
-1.000000
 49
2.500000
 49
-1.500000
  0
LTYPE
  2
PHANTOM3
 70
    64
  3
_____ _ _ _____ _ _ _____ _ _ _____ _ _ ____  
 72
    65
 73
     6
 40
78.000000
 49
64.000000
 49
-2.000000
 49
4.000000
 49
-2.000000
 49
4.000000
 49
-2.000000
  0
LTYPE
  2
CENTER1
 70
    64
  3
____ _ ____ _ ____ _ ____ _ ____ _ ____ _ ____
 72
    65
 73
     4
 40
19.000000
 49
14.000000
 49
-1.000000
 49
3.000000
 49
-1.000000
  0
LTYPE
  2
CENTER2
 70
    64
  3
____ _ ____ _ ____ _ ____ _ ____ _ ____ _ ____
 72
    65
 73
     4
 40
28.500000
 49
25.000000
 49
-1.000000
 49
1.500000
 49
-1.000000
  0
LTYPE
  2
CENTER3
 70
    64
  3
____ _ ____ _ ____ _ ____ _ ____ _ ____ _ ____
 72
    65
 73
     4
 40
31.500000
 49
27.000000
 49
-1.000000
 49
2.500000
 49
-1.000000
  0
LTYPE
  2
CENTER4
 70
    64
  3
____ _ ____ _ ____ _ ____ _ ____ _ ____ _ ____
 72
    65
 73
     4
 40
50.000000
 49
45.000000
 49
-1.000000
 49
3.000000
 49
-1.000000
  0
LTYPE
  2
CENTER5
 70
    64
  3
____ _ ____ _ ____ _ ____ _ ____ _ ____ _ ____
 72
    65
 73
     4
 40
100.000000
 49
92.000000
 49
-2.000000
 49
4.000000
 49
-2.000000
  0
LTYPE
  2
SBK1
 70
    64
  3
______ _ _ _ ______ _ _ _ ______ _ _ _ _____  
 72
    65
 73
     8
 40
60.500000
 49
45.000000
 49
-2.000000
 49
2.500000
 49
-2.000000
 49
2.500000
 49
-2.000000
 49
2.500000
 49
-2.000000
  0
LTYPE
  2
SBK2
 70
    64
  3
______ _ _ _ ______ _ _ _ ______ _ _ _ _____  
 72
    65
 73
     8
 40
84.000000
 49
64.000000
 49
-2.000000
 49
4.000000
 49
-2.000000
 49
4.000000
 49
-2.000000
 49
4.000000
 49
-2.000000
  0
LTYPE
  2
STCH
 70
    64
  3
__ __ __ __ __ __ __ __ __ __ __ __ __ __ __
 72
    65
 73
     2
 40
3.000000
 49
1.000000
 49
-2.000000
  0
LTYPE
  2
MTCH
 70
    64
  3
_____ _ _ _____ _ _ _____ _ _ _____ _ _ ____  
 72
    65
 73
     6
 40
80.000000
 49
66.000000
 49
-2.000000
 49
4.000000
 49
-2.000000
 49
4.000000
 49
-2.000000
  0
ENDTAB
  0
TABLE
  2
LAYER
 70
     1
  0
LAYER
  2
0
 70
     0
 62
     7
  6
CONTINUOUS
  0
ENDTAB
  0
TABLE
  2
STYLE
 70
     1
  0
STYLE
  2
STANDARD
 70
     0
 40
0.000000
 41
1.000000
 50
0.000000
 71
     0
 42
0.200000
  3
txt
  4
BIGFONT
  0
ENDTAB
  0
TABLE
  2
VIEW
 70
     0
  0
ENDTAB
  0
ENDSEC
  0
SECTION
  2
BLOCKS
  0
ENDSEC
  0
SECTION
  2
ENTITIES
  0
POINT
  8
0
 10
-491.750000
 20
299.999939
  0
POINT
  8
0
 10
-396.750000
 20
299.999939
  0
POINT
  8
0
 10
-491.750000
 20
99.999939
  0
POINT
  8
0
 10
-396.750000
 20
99.999939
  0
POINT
  8
0
 10
-155.749939
 20
99.999893
  0
POINT
  8
0
 10
260.000000
 20
99.999939
  0
POINT
  8
0
 10
375.000000
 20
99.999939
  0
POINT
  8
0
 10
260.000000
 20
319.999939
  0
POINT
  8
0
 10
375.000000
 20
319.999939
  0
POINT
  8
0
 10
590.000000
 20
99.999939
  0
POINT
  8
0
 10
195.249908
 20
-399.114960
  0
POINT
  8
0
 10
-191.750000
 20
-399.114990
  0
POINT
  8
0
 10
-71.749985
 20
-399.114990
  0
POINT
  8
0
 10
-191.750000
 20
-149.114990
  0
POINT
  8
0
 10
-71.749992
 20
-149.114990
  0
POINT
  8
0
 10
-181.749939
 20
99.999893
  0
POINT
  8
0
 10
560.000000
 20
99.999939
  0
POINT
  8
0
 10
158.249908
 20
-399.114960
  0
LINE
  8
0
 62
     3
 10
-741.750000
 20
-509.114990
 11
741.750000
 21
-509.114990
  0
LINE
  8
0
 62
     3
 10
-741.750000
 20
509.114990
 11
741.750000
 21
509.114990
  0
LINE
  8
0
 62
     3
 10
741.750000
 20
509.114990
 11
741.750000
 21
-509.114990
  0
LINE
  8
0
 62
     3
 10
-741.750000
 20
509.114990
 11
-741.750000
 21
-509.114990
  0
LINE
  8
0
 62
     5
 10
516.764709
 20
-465.668823
 11
546.072388
 21
-465.668823
  0
LINE
  8
0
 62
     5
 10
516.764709
 20
-491.658691
 11
541.648621
 21
-491.658691
  0
LINE
  8
0
 62
     5
 10
516.764709
 20
-498.294342
 11
550.496216
 21
-498.294342
  0
LINE
  8
0
 62
     5
 10
516.764709
 20
-472.304474
 11
541.648621
 21
-472.304474
  0
LINE
  8
0
 62
     5
 10
516.764709
 20
-465.668823
 11
516.764709
 21
-472.304474
  0
LINE
  8
0
 62
     5
 10
550.496216
 20
-470.092651
 11
550.496216
 21
-498.294342
  0
LINE
  8
0
 62
     5
 10
541.648621
 20
-472.304474
 11
541.648621
 21
-491.658691
  0
LINE
  8
0
 62
     5
 10
555.472900
 20
-465.668823
 11
555.472900
 21
-472.304474
  0
LINE
  8
0
 62
     5
 10
586.992432
 20
-472.304474
 11
586.992432
 21
-493.870697
  0
LINE
  8
0
 62
     5
 10
578.144897
 20
-472.304474
 11
578.144897
 21
-491.658691
  0
LINE
  8
0
 62
     5
 10
516.764709
 20
-491.658691
 11
516.764709
 21
-498.294342
  0
LINE
  8
0
 62
     5
 10
555.472900
 20
-465.668823
 11
564.214966
 21
-465.668823
  0
LINE
  8
0
 62
     5
 10
555.472900
 20
-498.294342
 11
562.342773
 21
-498.294342
  0
LINE
  8
0
 62
     5
 10
555.472717
 20
-498.294098
 11
562.436890
 21
-472.304413
  0
LINE
  8
0
 62
     5
 10
555.472900
 20
-472.304474
 11
562.436951
 21
-472.304474
  0
LINE
  8
0
 62
     5
 10
562.343140
 20
-498.294647
 11
569.307007
 21
-472.304871
  0
LINE
  8
0
 62
     5
 10
571.509094
 20
-491.658691
 11
578.144897
 21
-491.658691
  0
LINE
  8
0
 62
     5
 10
571.508972
 20
-491.658600
 11
573.286804
 21
-498.294128
  0
LINE
  8
0
 62
     5
 10
573.287354
 20
-498.294342
 11
582.568787
 21
-498.294342
  0
LINE
  8
0
 62
     5
 10
569.306763
 20
-472.304474
 11
578.144897
 21
-472.304474
  0
LINE
  8
0
 62
     5
 10
571.084717
 20
-465.668823
 11
580.356750
 21
-465.668823
  0
LINE
  8
0
 62
     5
 10
564.215088
 20
-465.668854
 11
565.533630
 21
-460.747498
  0
LINE
  8
0
 62
     5
 10
571.084290
 20
-465.668488
 11
572.402893
 21
-460.746979
  0
LINE
  8
0
 62
     5
 10
592.522278
 20
-465.668823
 11
603.028809
 21
-465.668823
  0
LINE
  8
0
 62
     5
 10
592.522278
 20
-472.304474
 11
618.325867
 21
-472.304474
  0
LINE
  8
0
 62
     5
 10
603.028809
 20
-498.294342
 11
611.876221
 21
-498.294342
  0
LINE
  8
0
 62
     5
 10
592.522278
 20
-465.668823
 11
592.522278
 21
-472.304474
  0
LINE
  8
0
 62
     5
 10
625.147827
 20
-484.336975
 11
625.147827
 21
-491.658691
  0
LINE
  8
0
 62
     5
 10
592.521790
 20
-491.658447
 11
603.028564
 21
-486.759003
  0
LINE
  8
0
 62
     5
 10
592.522827
 20
-484.337433
 11
618.326355
 21
-472.304932
  0
LINE
  8
0
 62
     5
 10
592.522278
 20
-484.336975
 11
592.522278
 21
-491.658691
  0
LINE
  8
0
 62
     5
 10
611.876038
 20
-485.469879
 11
625.147766
 21
-491.658478
  0
LINE
  8
0
 62
     5
 10
616.686646
 20
-480.391724
 11
625.148682
 21
-484.337585
  0
LINE
  8
0
 62
     5
 10
625.147827
 20
-470.092651
 11
625.147827
 21
-473.626892
  0
LINE
  8
0
 62
     5
 10
603.028809
 20
-460.747406
 11
603.028809
 21
-465.668823
  0
LINE
  8
0
 62
     5
 10
611.876221
 20
-460.747406
 11
611.876221
 21
-465.668823
  0
LINE
  8
0
 62
     5
 10
611.876221
 20
-465.668823
 11
620.723999
 21
-465.668823
  0
LINE
  8
0
 62
     5
 10
603.028809
 20
-486.759460
 11
603.028809
 21
-498.294342
  0
LINE
  8
0
 62
     5
 10
611.876221
 20
-485.470184
 11
611.876221
 21
-498.294342
  0
LINE
  8
0
 62
     5
 10
616.686707
 20
-480.391937
 11
622.594543
 21
-477.637115
  0
LINE
  8
0
 62
     5
 10
655.008484
 20
-462.738159
 11
661.644043
 21
-462.738159
  0
LINE
  8
0
 62
     5
 10
627.912720
 20
-476.445160
 11
627.912720
 21
-483.586365
  0
LINE
  8
0
 62
     5
 10
661.644043
 20
-462.738159
 11
661.644043
 21
-465.668823
  0
LINE
  8
0
 62
     5
 10
655.008484
 20
-462.738159
 11
655.008484
 21
-464.168060
  0
LINE
  8
0
 62
     5
 10
646.160828
 20
-476.328888
 11
646.160828
 21
-498.294342
  0
LINE
  8
0
 62
     5
 10
627.912903
 20
-476.445496
 11
653.614319
 21
-466.223785
  0
LINE
  8
0
 62
     5
 10
627.912598
 20
-483.586365
 11
646.160706
 21
-476.328796
  0
LINE
  8
0
 62
     5
 10
646.160828
 20
-498.294342
 11
655.008484
 21
-498.294342
  0
LINE
  8
0
 62
     5
 10
655.008484
 20
-472.810120
 11
655.008484
 21
-498.294342
  0
LINE
  8
0
 62
     5
 10
655.009155
 20
-472.810547
 11
657.461609
 21
-471.835114
  0
LINE
  8
0
 62
     5
 10
565.533691
 20
-460.747406
 11
572.403381
 21
-460.747406
  0
LINE
  8
0
 62
     5
 10
583.398193
 20
-460.747406
 11
586.218201
 21
-460.747406
  0
LINE
  8
0
 62
     5
 10
603.028809
 20
-460.747406
 11
611.876221
 21
-460.747406
  0
LINE
  8
0
 62
     5
 10
583.398193
 20
-465.171234
 11
586.218201
 21
-465.171234
  0
LINE
  8
0
 62
     5
 10
583.398193
 20
-460.747406
 11
583.398193
 21
-465.171234
  0
LINE
  8
0
 62
     5
 10
586.218201
 20
-460.747406
 11
586.218201
 21
-465.171234
  0
LINE
  8
0
 62
     5
 10
587.877319
 20
-460.747406
 11
587.877319
 21
-465.171234
  0
LINE
  8
0
 62
     5
 10
591.029297
 20
-460.747406
 11
591.029297
 21
-465.171234
  0
LINE
  8
0
 62
     5
 10
587.877319
 20
-460.747406
 11
591.029297
 21
-460.747406
  0
LINE
  8
0
 62
     5
 10
587.877319
 20
-465.171234
 11
591.029297
 21
-465.171234
  0
LINE
  8
0
 62
     3
 10
436.659546
 20
-451.914154
 11
436.659546
 21
-509.118408
  0
LINE
  8
0
 62
     3
 10
436.659546
 20
-451.914154
 11
741.749207
 21
-451.914154
  0
LINE
  8
0
 62
     3
 10
436.659546
 20
509.118408
 11
436.659546
 21
451.914032
  0
LINE
  8
0
 62
     3
 10
436.659546
 20
451.914032
 11
741.749207
 21
451.914032
  0
LINE
  8
0
 62
     3
 10
-317.483978
 20
451.914032
 11
-317.483978
 21
509.118408
  0
LINE
  8
0
 62
     3
 10
-741.749207
 20
451.914032
 11
-317.483978
 21
451.914032
  0
LINE
  8
0
 10
0.000000
 20
509.114990
 11
0.000000
 21
-0.000061
  0
LINE
  8
0
 10
-741.750000
 20
-0.000061
 11
741.749207
 21
-0.000061
  0
LINE
  8
0
  6
PHANTOM
 10
-586.750000
 20
69.999962
 11
-396.750000
 21
69.999962
  0
LINE
  8
0
  6
PHANTOM
 10
-573.750000
 20
128.999969
 11
-409.750000
 21
128.999969
  0
LINE
  8
0
  6
PHANTOM
 10
-571.750000
 20
159.999969
 11
-521.750000
 21
159.999969
  0
LINE
  8
0
  6
PHANTOM
 10
-571.750000
 20
153.999969
 11
-517.250061
 21
153.999969
  0
LINE
  8
0
  6
PHANTOM
 10
-571.750000
 20
159.999969
 11
-571.750000
 21
128.999969
  0
LINE
  8
0
  6
PHANTOM
 10
-411.750000
 20
159.999969
 11
-411.750000
 21
128.999969
  0
LINE
  8
0
  6
PHANTOM
 10
-466.249939
 20
153.999969
 11
-411.750000
 21
153.999969
  0
LINE
  8
0
  6
CENTER
 10
-561.750000
 20
145.999969
 11
-541.750000
 21
145.999969
  0
LINE
  8
0
  6
CENTER
 10
-551.750000
 20
155.999969
 11
-551.750000
 21
135.999969
  0
LINE
  8
0
  6
CENTER
 10
-521.750000
 20
153.499969
 11
-521.750000
 21
138.499969
  0
LINE
  8
0
  6
CENTER
 10
-529.250000
 20
145.999969
 11
-514.250000
 21
145.999969
  0
LINE
  8
0
  6
PHANTOM
 10
-554.250061
 20
144.556549
 11
-551.750122
 21
143.113190
  0
LINE
  8
0
  6
PHANTOM
 10
-551.750061
 20
143.113297
 11
-549.250061
 21
144.556686
  0
LINE
  8
0
  6
PHANTOM
 10
-549.250000
 20
144.556580
 11
-549.250000
 21
147.443329
  0
LINE
  8
0
  6
PHANTOM
 10
-549.250061
 20
147.443329
 11
-551.750061
 21
148.886688
  0
LINE
  8
0
  6
PHANTOM
 10
-551.750122
 20
148.886917
 11
-554.250122
 21
147.443527
  0
LINE
  8
0
  6
PHANTOM
 10
-554.250000
 20
147.443359
 11
-554.250000
 21
144.556580
  0
LINE
  8
0
  6
CENTER
 10
-421.750000
 20
145.999969
 11
-441.750000
 21
145.999969
  0
LINE
  8
0
  6
CENTER
 10
-431.750000
 20
155.999969
 11
-431.750000
 21
135.999969
  0
LINE
  8
0
  6
CENTER
 10
-461.750000
 20
153.499969
 11
-461.750000
 21
138.499969
  0
LINE
  8
0
  6
CENTER
 10
-454.250000
 20
145.999969
 11
-469.250000
 21
145.999969
  0
LINE
  8
0
  6
PHANTOM
 10
-429.250031
 20
144.556656
 11
-431.750000
 21
143.113297
  0
LINE
  8
0
  6
PHANTOM
 10
-431.749969
 20
143.113144
 11
-434.250000
 21
144.556534
  0
LINE
  8
0
  6
PHANTOM
 10
-434.250000
 20
144.556580
 11
-434.250000
 21
147.443329
  0
LINE
  8
0
  6
PHANTOM
 10
-434.249817
 20
147.443192
 11
-431.749847
 21
148.886551
  0
LINE
  8
0
  6
PHANTOM
 10
-431.749969
 20
148.886719
 11
-429.249939
 21
147.443329
  0
LINE
  8
0
  6
PHANTOM
 10
-429.250000
 20
147.443359
 11
-429.250000
 21
144.556580
  0
LINE
  8
0
  6
CENTER
 10
-491.750000
 20
174.999893
 11
-491.750000
 21
64.999962
  0
LINE
  8
0
  6
CENTER
 10
-591.750000
 20
99.999939
 11
-391.750000
 21
99.999939
  0
LINE
  8
0
  6
CENTER
 10
-591.750000
 20
299.999939
 11
-391.750000
 21
299.999939
  0
LINE
  8
0
  6
PHANTOM
 10
-546.750000
 20
280.499939
 11
-546.750000
 21
286.499939
  0
LINE
  8
0
  6
PHANTOM
 10
-556.750000
 20
280.499939
 11
-556.750000
 21
286.499939
  0
LINE
  8
0
  6
PHANTOM
 10
-556.750000
 20
280.499939
 11
-546.750000
 21
280.499939
  0
LINE
  8
0
  6
PHANTOM
 10
-436.750000
 20
318.499939
 11
-436.750000
 21
313.499939
  0
LINE
  8
0
  6
PHANTOM
 10
-436.750000
 20
318.499939
 11
-426.750000
 21
318.499939
  0
LINE
  8
0
  6
PHANTOM
 10
-426.750000
 20
318.499939
 11
-426.750000
 21
313.499939
  0
LINE
  8
0
  6
PHANTOM
 10
-586.750000
 20
275.999939
 11
-495.750000
 21
275.999939
  0
LINE
  8
0
  6
PHANTOM
 10
-586.750000
 20
323.999939
 11
-495.750000
 21
323.999939
  0
LINE
  8
0
  6
PHANTOM
 10
-571.750000
 20
313.499939
 11
-571.750000
 21
286.499939
  0
LINE
  8
0
  6
PHANTOM
 10
-411.750000
 20
313.499939
 11
-411.750000
 21
286.499939
  0
LINE
  8
0
  6
PHANTOM
 10
-571.750000
 20
313.499939
 11
-521.750000
 21
313.499939
  0
LINE
  8
0
  6
PHANTOM
 10
-571.750000
 20
286.499939
 11
-521.750000
 21
286.499939
  0
LINE
  8
0
  6
PHANTOM
 10
-571.750000
 20
290.999939
 11
-521.750000
 21
290.999939
  0
LINE
  8
0
  6
PHANTOM
 10
-571.750000
 20
308.999939
 11
-521.750000
 21
308.999939
  0
LINE
  8
0
  6
CENTER
 10
-551.750000
 20
328.999939
 11
-551.750000
 21
270.999939
  0
LINE
  8
0
  6
CENTER
 10
-536.750000
 20
305.999939
 11
-536.750000
 21
293.999939
  0
LINE
  8
0
  6
PHANTOM
 10
-436.749969
 20
280.499939
 11
-436.749969
 21
286.499939
  0
LINE
  8
0
  6
PHANTOM
 10
-426.749969
 20
280.499939
 11
-426.749969
 21
286.499939
  0
LINE
  8
0
  6
PHANTOM
 10
-426.750000
 20
280.499939
 11
-436.750000
 21
280.499939
  0
LINE
  8
0
  6
CENTER
 10
-431.750000
 20
328.999939
 11
-431.750000
 21
270.999939
  0
LINE
  8
0
  6
CENTER
 10
-446.750000
 20
305.999939
 11
-446.750000
 21
293.999939
  0
LINE
  8
0
  6
PHANTOM
 10
-570.250000
 20
316.999939
 11
-556.750000
 21
316.999939
  0
LINE
  8
0
  6
PHANTOM
 10
-570.250000
 20
282.999939
 11
-556.750000
 21
282.999939
  0
LINE
  8
0
  6
PHANTOM
 10
-576.250000
 20
310.999939
 11
-576.250000
 21
288.999939
  0
LINE
  8
0
  6
PHANTOM
 10
-407.250000
 20
310.999939
 11
-407.250000
 21
288.999939
  0
LINE
  8
0
  6
PHANTOM
 10
-546.750000
 20
316.999939
 11
-521.750000
 21
316.999939
  0
LINE
  8
0
  6
PHANTOM
 10
-546.750000
 20
282.999939
 11
-521.750000
 21
282.999939
  0
LINE
  8
0
  6
PHANTOM
 10
-426.750000
 20
316.999939
 11
-413.250000
 21
316.999939
  0
LINE
  8
0
  6
PHANTOM
 10
-426.749969
 20
282.999939
 11
-413.250000
 21
282.999939
  0
LINE
  8
0
  6
PHANTOM
 10
-578.750000
 20
308.499939
 11
-578.750000
 21
291.499939
  0
LINE
  8
0
  6
PHANTOM
 10
-584.450317
 20
291.499939
 11
-578.750000
 21
291.499939
  0
LINE
  8
0
  6
PHANTOM
 10
-589.049683
 20
308.499939
 11
-578.750000
 21
308.499939
  0
LINE
  8
0
  6
PHANTOM
 10
-399.049683
 20
308.499939
 11
-404.750000
 21
308.499939
  0
LINE
  8
0
  6
PHANTOM
 10
-404.750000
 20
308.499939
 11
-404.750000
 21
291.499939
  0
LINE
  8
0
  6
PHANTOM
 10
-394.450317
 20
291.499939
 11
-404.750000
 21
291.499939
  0
LINE
  8
0
  6
CENTER
 10
-491.750000
 20
332.499939
 11
-491.750000
 21
267.499939
  0
LINE
  8
0
  6
PHANTOM
 10
-431.750000
 20
313.499939
 11
-431.750000
 21
318.499939
  0
LINE
  8
0
  6
PHANTOM
 10
-546.750000
 20
318.499939
 11
-546.750000
 21
313.499939
  0
LINE
  8
0
  6
PHANTOM
 10
-551.750000
 20
313.499939
 11
-551.750000
 21
318.499939
  0
LINE
  8
0
  6
PHANTOM
 10
-556.750000
 20
318.499939
 11
-556.750000
 21
313.499939
  0
LINE
  8
0
  6
PHANTOM
 10
-546.750000
 20
318.499939
 11
-556.750000
 21
318.499939
  0
LINE
  8
0
  6
PHANTOM
 10
-428.500000
 20
320.999939
 11
-435.000000
 21
320.999939
  0
LINE
  8
0
  6
PHANTOM
 10
-436.250000
 20
319.749939
 11
-436.250000
 21
318.499939
  0
LINE
  8
0
  6
PHANTOM
 10
-427.250000
 20
319.749939
 11
-427.250000
 21
318.499939
  0
LINE
  8
0
  6
PHANTOM
 10
-556.250000
 20
319.749939
 11
-556.250000
 21
318.499939
  0
LINE
  8
0
  6
PHANTOM
 10
-548.500000
 20
320.999939
 11
-555.000000
 21
320.999939
  0
LINE
  8
0
  6
PHANTOM
 10
-547.250000
 20
319.749939
 11
-547.250000
 21
318.499939
  0
LINE
  8
0
  6
PHANTOM
 10
-163.249969
 20
151.773437
 11
-163.249969
 21
140.226410
  0
LINE
  8
0
  6
CENTER
 10
-212.749939
 20
99.999893
 11
-150.749939
 21
99.999893
  0
LINE
  8
0
  6
CENTER
 10
-181.749939
 20
174.999893
 11
-181.749939
 21
64.999893
  0
LINE
  8
0
  6
PHANTOM
 10
-194.749878
 20
69.999893
 11
-184.999878
 21
69.999893
  0
LINE
  8
0
  6
PHANTOM
 10
-168.749939
 20
75.999939
 11
-168.749939
 21
69.999924
  0
LINE
  8
0
  6
PHANTOM
 10
-194.749939
 20
75.999939
 11
-194.749939
 21
69.999863
  0
LINE
  8
0
  6
PHANTOM
 10
-176.499939
 20
76.299911
 11
-176.499939
 21
71.999908
  0
LINE
  8
0
  6
PHANTOM
 10
-186.999939
 20
76.299881
 11
-186.999939
 21
71.999878
  0
LINE
  8
0
  6
PHANTOM
 10
-178.499939
 20
71.999901
 11
-178.499939
 21
69.999901
  0
LINE
  8
0
  6
PHANTOM
 10
-184.999939
 20
71.999886
 11
-184.999939
 21
69.999886
  0
LINE
  8
0
  6
PHANTOM
 10
-178.499878
 20
69.999893
 11
-168.749878
 21
69.999893
  0
LINE
  8
0
  6
PHANTOM
 10
-178.499878
 20
71.999893
 11
-176.499878
 21
71.999893
  0
LINE
  8
0
  6
PHANTOM
 10
-186.999878
 20
71.999893
 11
-184.999878
 21
71.999893
  0
LINE
  8
0
  6
PHANTOM
 10
-186.999878
 20
76.299896
 11
-176.499878
 21
76.299896
  0
LINE
  8
0
  6
PHANTOM
 10
-190.750092
 20
159.999893
 11
-172.750092
 21
159.999893
  0
LINE
  8
0
  6
PHANTOM
 10
-172.749939
 20
159.999908
 11
-172.749939
 21
128.999908
  0
LINE
  8
0
  6
PHANTOM
 10
-190.749939
 20
159.999878
 11
-190.749939
 21
128.999878
  0
LINE
  8
0
  6
PHANTOM
 10
-196.250031
 20
128.999893
 11
-167.249969
 21
128.999893
  0
LINE
  8
0
  6
PHANTOM
 10
-195.250061
 20
153.999893
 11
-190.750061
 21
153.999893
  0
LINE
  8
0
  6
PHANTOM
 10
-168.249939
 20
153.999924
 11
-168.249939
 21
128.999924
  0
LINE
  8
0
  6
PHANTOM
 10
-195.249939
 20
153.999863
 11
-195.249939
 21
128.999863
  0
LINE
  8
0
  6
PHANTOM
 10
-172.750061
 20
153.999893
 11
-168.250061
 21
153.999893
  0
LINE
  8
0
  6
PHANTOM
 10
-201.250031
 20
140.999893
 11
-195.250031
 21
140.999893
  0
LINE
  8
0
  6
PHANTOM
 10
-201.250061
 20
150.999893
 11
-195.250061
 21
150.999893
  0
LINE
  8
0
  6
PHANTOM
 10
-201.249939
 20
150.999847
 11
-201.249939
 21
140.999847
  0
LINE
  8
0
  6
PHANTOM
 10
-163.250092
 20
151.773407
 11
-168.250061
 21
151.773407
  0
LINE
  8
0
  6
PHANTOM
 10
-163.250092
 20
148.886658
 11
-168.250061
 21
148.886658
  0
LINE
  8
0
  6
PHANTOM
 10
-163.250061
 20
143.113159
 11
-168.250031
 21
143.113159
  0
LINE
  8
0
  6
PHANTOM
 10
-163.250061
 20
140.226379
 11
-168.250031
 21
140.226379
  0
LINE
  8
0
  6
CENTER
 10
-206.250061
 20
145.999893
 11
-155.250092
 21
145.999893
  0
LINE
  8
0
  6
PHANTOM
 10
-160.749969
 20
149.249939
 11
-160.749969
 21
142.749939
  0
LINE
  8
0
  6
PHANTOM
 10
-163.250061
 20
141.499893
 11
-162.000061
 21
141.499893
  0
LINE
  8
0
  6
PHANTOM
 10
-163.250092
 20
150.499893
 11
-162.000092
 21
150.499893
  0
LINE
  8
0
  6
PHANTOM
 10
-205.749939
 20
119.999962
 11
-205.749939
 21
79.999939
  0
LINE
  8
0
  6
PHANTOM
 10
-157.749939
 20
119.999962
 11
-157.749939
 21
79.999939
  0
LINE
  8
0
  6
PHANTOM
 10
-201.749939
 20
123.999962
 11
-161.749939
 21
123.999962
  0
LINE
  8
0
  6
PHANTOM
 10
-201.749939
 20
75.999939
 11
-194.749939
 21
75.999939
  0
LINE
  8
0
  6
PHANTOM
 10
-168.749939
 20
75.999939
 11
-161.749939
 21
75.999939
  0
LINE
  8
0
  6
PHANTOM
 10
-461.750000
 20
159.999969
 11
-411.750000
 21
159.999969
  0
LINE
  8
0
  6
PHANTOM
 10
-461.750000
 20
316.999939
 11
-436.750000
 21
316.999939
  0
LINE
  8
0
  6
PHANTOM
 10
-461.750000
 20
313.499939
 11
-411.750000
 21
313.499939
  0
LINE
  8
0
  6
PHANTOM
 10
-461.750000
 20
308.999939
 11
-411.750000
 21
308.999939
  0
LINE
  8
0
  6
PHANTOM
 10
-461.750000
 20
290.999939
 11
-411.750000
 21
290.999939
  0
LINE
  8
0
  6
PHANTOM
 10
-461.750000
 20
286.499939
 11
-411.750000
 21
286.499939
  0
LINE
  8
0
  6
PHANTOM
 10
-461.750000
 20
282.999939
 11
-436.749969
 21
282.999939
  0
LINE
  8
0
  6
PHANTOM
 10
-487.750000
 20
275.999939
 11
-396.750000
 21
275.999939
  0
LINE
  8
0
  6
PHANTOM
 10
-487.750000
 20
323.999939
 11
-396.750000
 21
323.999939
  0
LINE
  8
0
  6
PHANTOM
 10
145.000000
 20
64.999908
 11
375.000000
 21
64.999908
  0
LINE
  8
0
  6
CENTER
 10
260.000000
 20
179.999939
 11
260.000000
 21
59.999908
  0
LINE
  8
0
  6
PHANTOM
 10
163.000000
 20
133.999954
 11
357.000000
 21
133.999954
  0
LINE
  8
0
  6
PHANTOM
 10
171.000000
 20
160.999954
 11
239.944443
 21
160.999954
  0
LINE
  8
0
  6
PHANTOM
 10
165.000000
 20
156.999954
 11
240.574081
 21
156.999954
  0
LINE
  8
0
  6
PHANTOM
 10
165.000000
 20
156.999954
 11
165.000000
 21
133.999954
  0
LINE
  8
0
  6
PHANTOM
 10
355.000000
 20
156.999954
 11
355.000000
 21
133.999954
  0
LINE
  8
0
  6
PHANTOM
 10
171.000000
 20
160.999954
 11
171.000000
 21
156.999954
  0
LINE
  8
0
  6
PHANTOM
 10
349.000000
 20
160.999954
 11
349.000000
 21
156.999954
  0
LINE
  8
0
  6
CENTER
 10
225.000000
 20
148.999954
 11
240.000000
 21
148.999954
  0
LINE
  8
0
  6
CENTER
 10
232.500000
 20
156.499954
 11
232.500000
 21
141.499954
  0
LINE
  8
0
  6
CENTER
 10
196.000000
 20
148.999954
 11
214.000000
 21
148.999954
  0
LINE
  8
0
  6
CENTER
 10
205.000000
 20
157.999954
 11
205.000000
 21
139.999954
  0
LINE
  8
0
  6
PHANTOM
 10
202.500015
 20
147.556595
 11
205.000015
 21
146.113220
  0
LINE
  8
0
  6
PHANTOM
 10
204.999969
 20
146.113190
 11
207.499969
 21
147.556564
  0
LINE
  8
0
  6
PHANTOM
 10
207.500031
 20
147.556564
 11
207.500031
 21
150.443314
  0
LINE
  8
0
  6
PHANTOM
 10
207.500000
 20
150.443359
 11
205.000000
 21
151.886734
  0
LINE
  8
0
  6
PHANTOM
 10
204.999954
 20
151.886780
 11
202.499954
 21
150.443405
  0
LINE
  8
0
  6
PHANTOM
 10
202.500031
 20
150.443344
 11
202.500031
 21
147.556595
  0
LINE
  8
0
  6
CENTER
 10
295.000000
 20
148.999954
 11
280.000000
 21
148.999954
  0
LINE
  8
0
  6
CENTER
 10
287.500000
 20
156.499954
 11
287.500000
 21
141.499954
  0
LINE
  8
0
  6
CENTER
 10
324.000000
 20
148.999954
 11
306.000000
 21
148.999954
  0
LINE
  8
0
  6
CENTER
 10
315.000000
 20
157.999954
 11
315.000000
 21
139.999954
  0
LINE
  8
0
  6
PHANTOM
 10
317.500000
 20
147.556610
 11
314.999969
 21
146.113220
  0
LINE
  8
0
  6
PHANTOM
 10
315.000000
 20
146.113190
 11
312.500000
 21
147.556564
  0
LINE
  8
0
  6
PHANTOM
 10
312.499969
 20
147.556564
 11
312.499969
 21
150.443314
  0
LINE
  8
0
  6
PHANTOM
 10
312.499908
 20
150.443329
 11
314.999908
 21
151.886688
  0
LINE
  8
0
  6
PHANTOM
 10
315.000031
 20
151.886719
 11
317.500031
 21
150.443329
  0
LINE
  8
0
  6
PHANTOM
 10
317.499969
 20
150.443344
 11
317.499969
 21
147.556595
  0
LINE
  8
0
  6
PHANTOM
 10
279.425934
 20
156.999954
 11
355.000000
 21
156.999954
  0
LINE
  8
0
  6
CENTER
 10
140.000000
 20
99.999939
 11
380.000000
 21
99.999939
  0
LINE
  8
0
  6
CENTER
 10
205.000000
 20
294.999939
 11
205.000000
 21
346.999939
  0
LINE
  8
0
  6
PHANTOM
 10
210.000000
 20
299.999939
 11
210.000000
 21
305.999939
  0
LINE
  8
0
  6
PHANTOM
 10
200.000000
 20
299.999939
 11
200.000000
 21
305.999939
  0
LINE
  8
0
  6
PHANTOM
 10
200.000061
 20
299.999939
 11
210.000061
 21
299.999939
  0
LINE
  8
0
  6
PHANTOM
 10
200.000000
 20
338.999939
 11
210.000000
 21
338.999939
  0
LINE
  8
0
  6
CENTER
 10
140.000000
 20
319.999939
 11
380.000000
 21
319.999939
  0
LINE
  8
0
  6
CENTER
 10
260.000000
 20
359.999939
 11
260.000000
 21
279.999939
  0
LINE
  8
0
  6
PHANTOM
 10
145.000000
 20
290.999939
 11
215.000000
 21
290.999939
  0
LINE
  8
0
  6
PHANTOM
 10
145.000000
 20
348.999939
 11
215.000000
 21
348.999939
  0
LINE
  8
0
  6
PHANTOM
 10
165.000000
 20
333.999939
 11
165.000000
 21
305.999939
  0
LINE
  8
0
  6
PHANTOM
 10
355.000000
 20
333.999939
 11
355.000000
 21
305.999939
  0
LINE
  8
0
  6
PHANTOM
 10
165.000000
 20
333.999939
 11
215.000000
 21
333.999939
  0
LINE
  8
0
  6
PHANTOM
 10
165.000000
 20
328.999939
 11
215.000000
 21
328.999939
  0
LINE
  8
0
  6
PHANTOM
 10
165.000000
 20
310.999939
 11
215.000000
 21
310.999939
  0
LINE
  8
0
  6
PHANTOM
 10
165.000000
 20
305.999939
 11
215.000000
 21
305.999939
  0
LINE
  8
0
  6
PHANTOM
 10
349.000000
 20
328.999939
 11
349.000000
 21
310.999939
  0
LINE
  8
0
  6
PHANTOM
 10
171.000000
 20
328.999939
 11
171.000000
 21
310.999939
  0
LINE
  8
0
  6
PHANTOM
 10
160.000000
 20
330.999939
 11
160.000000
 21
308.999939
  0
LINE
  8
0
  6
PHANTOM
 10
360.000000
 20
330.999939
 11
360.000000
 21
308.999939
  0
LINE
  8
0
  6
PHANTOM
 10
165.000000
 20
335.999939
 11
200.000000
 21
335.999939
  0
LINE
  8
0
  6
PHANTOM
 10
165.000000
 20
303.999939
 11
200.000000
 21
303.999939
  0
LINE
  8
0
  6
PHANTOM
 10
210.000000
 20
303.999939
 11
215.000000
 21
303.999939
  0
LINE
  8
0
  6
PHANTOM
 10
210.000000
 20
335.999939
 11
215.000000
 21
335.999939
  0
LINE
  8
0
  6
PHANTOM
 10
205.000000
 20
338.999939
 11
205.000000
 21
333.999939
  0
LINE
  8
0
  6
PHANTOM
 10
210.000000
 20
338.999939
 11
210.000000
 21
333.999939
  0
LINE
  8
0
  6
PHANTOM
 10
200.000000
 20
338.999939
 11
200.000000
 21
333.999939
  0
LINE
  8
0
  6
PHANTOM
 10
310.000000
 20
299.999939
 11
310.000000
 21
305.999939
  0
LINE
  8
0
  6
PHANTOM
 10
320.000000
 20
299.999939
 11
320.000000
 21
305.999939
  0
LINE
  8
0
  6
PHANTOM
 10
320.000000
 20
338.999939
 11
310.000000
 21
338.999939
  0
LINE
  8
0
  6
PHANTOM
 10
310.000000
 20
338.999939
 11
310.000000
 21
333.999939
  0
LINE
  8
0
  6
PHANTOM
 10
320.000000
 20
338.999939
 11
320.000000
 21
333.999939
  0
LINE
  8
0
  6
PHANTOM
 10
319.999939
 20
299.999939
 11
309.999939
 21
299.999939
  0
LINE
  8
0
  6
PHANTOM
 10
315.000000
 20
338.999939
 11
315.000000
 21
333.999939
  0
LINE
  8
0
  6
CENTER
 10
315.000000
 20
294.999939
 11
315.000000
 21
346.999939
  0
LINE
  8
0
  6
PHANTOM
 10
320.000000
 20
303.999939
 11
355.000000
 21
303.999939
  0
LINE
  8
0
  6
PHANTOM
 10
320.000000
 20
335.999939
 11
355.000000
 21
335.999939
  0
LINE
  8
0
  6
PHANTOM
 10
155.000000
 20
328.999939
 11
155.000000
 21
310.999939
  0
LINE
  8
0
  6
PHANTOM
 10
147.340714
 20
310.999939
 11
155.000000
 21
310.999939
  0
LINE
  8
0
  6
PHANTOM
 10
142.659286
 20
328.999939
 11
155.000000
 21
328.999939
  0
LINE
  8
0
  6
PHANTOM
 10
157.000000
 20
308.999939
 11
160.000000
 21
308.999939
  0
LINE
  8
0
  6
PHANTOM
 10
157.000000
 20
330.999939
 11
160.000000
 21
330.999939
  0
LINE
  8
0
  6
PHANTOM
 10
365.000000
 20
328.999939
 11
365.000000
 21
310.999939
  0
LINE
  8
0
  6
PHANTOM
 10
377.340729
 20
310.999939
 11
365.000000
 21
310.999939
  0
LINE
  8
0
  6
PHANTOM
 10
372.659271
 20
328.999939
 11
365.000000
 21
328.999939
  0
LINE
  8
0
  6
PHANTOM
 10
363.000000
 20
308.999939
 11
360.000000
 21
308.999939
  0
LINE
  8
0
  6
PHANTOM
 10
363.000000
 20
330.999939
 11
360.000000
 21
330.999939
  0
LINE
  8
0
  6
PHANTOM
 10
319.500000
 20
338.999939
 11
319.500000
 21
340.249939
  0
LINE
  8
0
  6
PHANTOM
 10
310.500000
 20
338.999939
 11
310.500000
 21
340.249939
  0
LINE
  8
0
  6
PHANTOM
 10
311.750000
 20
341.499939
 11
318.250000
 21
341.499939
  0
LINE
  8
0
  6
PHANTOM
 10
200.500000
 20
338.999939
 11
200.500000
 21
340.249939
  0
LINE
  8
0
  6
PHANTOM
 10
201.750000
 20
341.499939
 11
208.250000
 21
341.499939
  0
LINE
  8
0
  6
PHANTOM
 10
209.500000
 20
338.999939
 11
209.500000
 21
340.249939
  0
LINE
  8
0
  6
PHANTOM
 10
545.000061
 20
64.999863
 11
556.750061
 21
64.999863
  0
LINE
  8
0
  6
PHANTOM
 10
554.750061
 20
66.999863
 11
556.750061
 21
66.999863
  0
LINE
  8
0
  6
PHANTOM
 10
554.750000
 20
71.299866
 11
565.250000
 21
71.299866
  0
LINE
  8
0
  6
PHANTOM
 10
554.750000
 20
71.299866
 11
554.750000
 21
66.999863
  0
LINE
  8
0
  6
PHANTOM
 10
565.250000
 20
71.299866
 11
565.250000
 21
66.999863
  0
LINE
  8
0
  6
PHANTOM
 10
563.250000
 20
66.999863
 11
563.250000
 21
64.999863
  0
LINE
  8
0
  6
PHANTOM
 10
556.750000
 20
66.999863
 11
556.750000
 21
64.999863
  0
LINE
  8
0
  6
PHANTOM
 10
563.250061
 20
66.999863
 11
565.250061
 21
66.999863
  0
LINE
  8
0
  6
PHANTOM
 10
563.250061
 20
64.999863
 11
575.000061
 21
64.999863
  0
LINE
  8
0
  6
PHANTOM
 10
545.000000
 20
70.999939
 11
545.000000
 21
64.999855
  0
LINE
  8
0
  6
PHANTOM
 10
575.000000
 20
70.999939
 11
575.000000
 21
64.999870
  0
LINE
  8
0
  6
CENTER
 10
560.000000
 20
179.999939
 11
560.000000
 21
59.999863
  0
LINE
  8
0
  6
PHANTOM
 10
551.000000
 20
160.999908
 11
569.000000
 21
160.999908
  0
LINE
  8
0
  6
PHANTOM
 10
546.000000
 20
133.999908
 11
574.000000
 21
133.999908
  0
LINE
  8
0
  6
PHANTOM
 10
574.000000
 20
156.999878
 11
574.000000
 21
133.999908
  0
LINE
  8
0
  6
PHANTOM
 10
546.000000
 20
156.999847
 11
546.000000
 21
133.999908
  0
LINE
  8
0
  6
PHANTOM
 10
569.000000
 20
160.999878
 11
569.000000
 21
133.999878
  0
LINE
  8
0
  6
PHANTOM
 10
551.000000
 20
160.999847
 11
551.000000
 21
133.999847
  0
LINE
  8
0
  6
PHANTOM
 10
546.000000
 20
156.999908
 11
574.000000
 21
156.999908
  0
LINE
  8
0
  6
CENTER
 10
535.000000
 20
148.999908
 11
587.000000
 21
148.999908
  0
LINE
  8
0
  6
PHANTOM
 10
540.000000
 20
143.999908
 11
546.000000
 21
143.999908
  0
LINE
  8
0
  6
PHANTOM
 10
540.000000
 20
153.999908
 11
546.000000
 21
153.999908
  0
LINE
  8
0
  6
PHANTOM
 10
540.000000
 20
153.999847
 11
540.000000
 21
143.999847
  0
LINE
  8
0
  6
PHANTOM
 10
579.000000
 20
154.773407
 11
579.000000
 21
143.226379
  0
LINE
  8
0
  6
PHANTOM
 10
578.999939
 20
154.773407
 11
574.000000
 21
154.773407
  0
LINE
  8
0
  6
PHANTOM
 10
578.999939
 20
151.886658
 11
574.000000
 21
151.886658
  0
LINE
  8
0
  6
PHANTOM
 10
578.999939
 20
146.113159
 11
574.000000
 21
146.113159
  0
LINE
  8
0
  6
PHANTOM
 10
578.999939
 20
143.226379
 11
574.000000
 21
143.226379
  0
LINE
  8
0
  6
PHANTOM
 10
578.999939
 20
153.499908
 11
580.250000
 21
153.499908
  0
LINE
  8
0
  6
PHANTOM
 10
578.999939
 20
144.499908
 11
580.250000
 21
144.499908
  0
LINE
  8
0
  6
PHANTOM
 10
589.000000
 20
119.999939
 11
589.000000
 21
78.999939
  0
LINE
  8
0
  6
PHANTOM
 10
531.000000
 20
119.999939
 11
531.000000
 21
78.999939
  0
LINE
  8
0
  6
CENTER
 10
525.000000
 20
99.999939
 11
595.000000
 21
99.999939
  0
LINE
  8
0
  6
PHANTOM
 10
305.000000
 20
348.999939
 11
375.000000
 21
348.999939
  0
LINE
  8
0
  6
PHANTOM
 10
305.000000
 20
335.999939
 11
310.000000
 21
335.999939
  0
LINE
  8
0
  6
PHANTOM
 10
305.000000
 20
333.999939
 11
355.000000
 21
333.999939
  0
LINE
  8
0
  6
PHANTOM
 10
305.000000
 20
328.999939
 11
355.000000
 21
328.999939
  0
LINE
  8
0
  6
PHANTOM
 10
305.000000
 20
310.999939
 11
355.000000
 21
310.999939
  0
LINE
  8
0
  6
PHANTOM
 10
305.000000
 20
305.999939
 11
355.000000
 21
305.999939
  0
LINE
  8
0
  6
PHANTOM
 10
305.000000
 20
303.999939
 11
310.000000
 21
303.999939
  0
LINE
  8
0
  6
PHANTOM
 10
305.000000
 20
290.999939
 11
375.000000
 21
290.999939
  0
LINE
  8
0
  6
PHANTOM
 10
256.000000
 20
160.999954
 11
264.000000
 21
160.999954
  0
LINE
  8
0
  6
PHANTOM
 10
280.055542
 20
160.999954
 11
349.000000
 21
160.999954
  0
LINE
  8
0
  6
PHANTOM
 10
581.500000
 20
152.249908
 11
581.500000
 21
145.749908
  0
LINE
  8
0
  6
PHANTOM
 10
-495.661499
 20
159.999969
 11
-487.838501
 21
159.999969
  0
LINE
  8
0
  6
PHANTOM
 10
-311.750000
 20
-439.114960
 11
-71.750000
 21
-439.114960
  0
LINE
  8
0
  6
PHANTOM
 10
-311.750000
 20
-364.114960
 11
-71.750000
 21
-364.114960
  0
LINE
  8
0
  6
PHANTOM
 10
-309.878784
 20
-434.114960
 11
-69.878784
 21
-434.114960
  0
LINE
  8
0
  6
PHANTOM
 10
-285.750000
 20
-330.114960
 11
-211.805511
 21
-330.114960
  0
LINE
  8
0
  6
PHANTOM
 10
-291.750000
 20
-334.114960
 11
-211.175903
 21
-334.114960
  0
LINE
  8
0
  6
PHANTOM
 10
-294.250000
 20
-359.114960
 11
-89.250000
 21
-359.114960
  0
LINE
  8
0
  6
CENTER
 10
-191.750000
 20
-311.114990
 11
-191.750000
 21
-444.114960
  0
LINE
  8
0
  6
PHANTOM
 10
-291.750000
 20
-334.114960
 11
-291.750000
 21
-359.114960
  0
LINE
  8
0
  6
PHANTOM
 10
-285.750000
 20
-330.114960
 11
-285.750000
 21
-334.114960
  0
LINE
  8
0
  6
PHANTOM
 10
-97.750000
 20
-330.114960
 11
-97.750000
 21
-334.114960
  0
LINE
  8
0
  6
PHANTOM
 10
-91.750000
 20
-334.114960
 11
-91.750000
 21
-359.114960
  0
LINE
  8
0
  6
CENTER
 10
-200.750000
 20
-340.114960
 11
-182.750000
 21
-340.114960
  0
LINE
  8
0
  6
PHANTOM
 10
-172.324005
 20
-334.114960
 11
-91.750000
 21
-334.114960
  0
LINE
  8
0
  6
CENTER
 10
-239.250000
 20
-342.114960
 11
-224.250000
 21
-342.114960
  0
LINE
  8
0
  6
CENTER
 10
-231.750000
 20
-334.614960
 11
-231.750000
 21
-349.614960
  0
LINE
  8
0
  6
CENTER
 10
-271.750000
 20
-333.114960
 11
-271.750000
 21
-351.114960
  0
LINE
  8
0
  6
CENTER
 10
-280.750000
 20
-342.114960
 11
-262.750000
 21
-342.114960
  0
LINE
  8
0
  6
PHANTOM
 10
-274.250031
 20
-343.558380
 11
-271.750000
 21
-345.001770
  0
LINE
  8
0
  6
PHANTOM
 10
-271.750031
 20
-345.001740
 11
-269.250000
 21
-343.558350
  0
LINE
  8
0
  6
PHANTOM
 10
-269.249939
 20
-343.558380
 11
-269.249939
 21
-340.671600
  0
LINE
  8
0
  6
PHANTOM
 10
-269.250000
 20
-340.671600
 11
-271.750000
 21
-339.228210
  0
LINE
  8
0
  6
PHANTOM
 10
-271.749969
 20
-339.228149
 11
-274.250000
 21
-340.671539
  0
LINE
  8
0
  6
PHANTOM
 10
-274.249939
 20
-340.671600
 11
-274.249939
 21
-343.558380
  0
LINE
  8
0
  6
CENTER
 10
-144.250000
 20
-342.114960
 11
-159.250000
 21
-342.114960
  0
LINE
  8
0
  6
CENTER
 10
-151.750000
 20
-334.614960
 11
-151.750000
 21
-349.614960
  0
LINE
  8
0
  6
CENTER
 10
-111.750000
 20
-333.114960
 11
-111.750000
 21
-351.114960
  0
LINE
  8
0
  6
CENTER
 10
-102.750000
 20
-342.114960
 11
-120.750000
 21
-342.114960
  0
LINE
  8
0
  6
PHANTOM
 10
-109.249985
 20
-343.558258
 11
-111.750015
 21
-345.001648
  0
LINE
  8
0
  6
PHANTOM
 10
-111.749924
 20
-345.001678
 11
-114.249985
 21
-343.558319
  0
LINE
  8
0
  6
PHANTOM
 10
-114.250061
 20
-343.558380
 11
-114.250061
 21
-340.671600
  0
LINE
  8
0
  6
PHANTOM
 10
-114.250046
 20
-340.671600
 11
-111.749985
 21
-339.228210
  0
LINE
  8
0
  6
PHANTOM
 10
-111.749908
 20
-339.228058
 11
-109.249886
 21
-340.671448
  0
LINE
  8
0
  6
PHANTOM
 10
-109.250061
 20
-340.671600
 11
-109.250061
 21
-343.558380
  0
LINE
  8
0
  6
CENTER
 10
-316.750000
 20
-399.114990
 11
-66.750000
 21
-399.114990
  0
LINE
  8
0
  6
CENTER
 10
-316.750000
 20
-149.114990
 11
-66.750000
 21
-149.114990
  0
LINE
  8
0
  6
PHANTOM
 10
-311.750000
 20
-184.114990
 11
-231.750000
 21
-184.114990
  0
LINE
  8
0
  6
PHANTOM
 10
-311.750000
 20
-114.114990
 11
-231.750000
 21
-114.114990
  0
LINE
  8
0
  6
CENTER
 10
-191.750000
 20
-109.114990
 11
-191.750000
 21
-189.114990
  0
LINE
  8
0
  6
PHANTOM
 10
-91.750000
 20
-135.115005
 11
-91.750000
 21
-163.115005
  0
LINE
  8
0
  6
PHANTOM
 10
-291.750000
 20
-135.115005
 11
-291.750000
 21
-163.115005
  0
LINE
  8
0
  6
PHANTOM
 10
-291.750000
 20
-135.115005
 11
-236.750000
 21
-135.115005
  0
LINE
  8
0
  6
PHANTOM
 10
-291.750000
 20
-140.114990
 11
-236.750000
 21
-140.114990
  0
LINE
  8
0
  6
PHANTOM
 10
-291.750000
 20
-158.115005
 11
-236.750000
 21
-158.115005
  0
LINE
  8
0
  6
PHANTOM
 10
-291.750000
 20
-163.115005
 11
-236.750000
 21
-163.115005
  0
LINE
  8
0
  6
PHANTOM
 10
-285.750000
 20
-140.114990
 11
-285.750000
 21
-158.115005
  0
LINE
  8
0
  6
PHANTOM
 10
-97.750000
 20
-140.114990
 11
-97.750000
 21
-158.115005
  0
LINE
  8
0
  6
CENTER
 10
-271.750000
 20
-122.115036
 11
-271.750000
 21
-174.115005
  0
LINE
  8
0
  6
PHANTOM
 10
-266.750000
 20
-163.115005
 11
-266.750000
 21
-169.115005
  0
LINE
  8
0
  6
PHANTOM
 10
-276.750000
 20
-163.115005
 11
-276.750000
 21
-169.115005
  0
LINE
  8
0
  6
PHANTOM
 10
-276.750000
 20
-169.115005
 11
-266.750000
 21
-169.115005
  0
LINE
  8
0
  6
PHANTOM
 10
-276.750000
 20
-130.115036
 11
-266.750000
 21
-130.115036
  0
LINE
  8
0
  6
PHANTOM
 10
-271.750000
 20
-130.115036
 11
-271.750000
 21
-135.115005
  0
LINE
  8
0
  6
PHANTOM
 10
-276.750000
 20
-130.115036
 11
-276.750000
 21
-135.115005
  0
LINE
  8
0
  6
PHANTOM
 10
-266.750000
 20
-130.115036
 11
-266.750000
 21
-135.115005
  0
LINE
  8
0
  6
CENTER
 10
-251.750000
 20
-143.114990
 11
-251.750000
 21
-155.114990
  0
LINE
  8
0
  6
PHANTOM
 10
-296.750000
 20
-138.114990
 11
-296.750000
 21
-160.114990
  0
LINE
  8
0
  6
PHANTOM
 10
-86.750000
 20
-138.114990
 11
-86.750000
 21
-160.114990
  0
LINE
  8
0
  6
PHANTOM
 10
-291.750000
 20
-165.114990
 11
-276.750000
 21
-165.114990
  0
LINE
  8
0
  6
PHANTOM
 10
-291.750000
 20
-133.114990
 11
-276.750000
 21
-133.114990
  0
LINE
  8
0
  6
PHANTOM
 10
-266.750000
 20
-165.114990
 11
-236.750000
 21
-165.114990
  0
LINE
  8
0
  6
PHANTOM
 10
-266.750000
 20
-133.114990
 11
-236.750000
 21
-133.114990
  0
LINE
  8
0
  6
CENTER
 10
-111.750000
 20
-122.115036
 11
-111.750000
 21
-174.115005
  0
LINE
  8
0
  6
PHANTOM
 10
-116.750000
 20
-163.115005
 11
-116.750000
 21
-169.115005
  0
LINE
  8
0
  6
PHANTOM
 10
-106.750000
 20
-163.115005
 11
-106.750000
 21
-169.115005
  0
LINE
  8
0
  6
PHANTOM
 10
-106.750000
 20
-169.115005
 11
-116.750000
 21
-169.115005
  0
LINE
  8
0
  6
PHANTOM
 10
-106.750000
 20
-130.115036
 11
-116.750000
 21
-130.115036
  0
LINE
  8
0
  6
PHANTOM
 10
-111.750000
 20
-130.115036
 11
-111.750000
 21
-135.115005
  0
LINE
  8
0
  6
PHANTOM
 10
-106.750000
 20
-130.115036
 11
-106.750000
 21
-135.115005
  0
LINE
  8
0
  6
PHANTOM
 10
-116.750000
 20
-130.115036
 11
-116.750000
 21
-135.115005
  0
LINE
  8
0
  6
CENTER
 10
-131.750000
 20
-143.114990
 11
-131.750000
 21
-155.114990
  0
LINE
  8
0
  6
PHANTOM
 10
-301.750000
 20
-141.114990
 11
-301.750000
 21
-157.114990
  0
LINE
  8
0
  6
PHANTOM
 10
-299.750000
 20
-139.114990
 11
-296.750000
 21
-139.114990
  0
LINE
  8
0
  6
PHANTOM
 10
-299.750000
 20
-159.114990
 11
-296.750000
 21
-159.114990
  0
LINE
  8
0
  6
PHANTOM
 10
-309.498291
 20
-157.114990
 11
-301.750000
 21
-157.114990
  0
LINE
  8
0
  6
PHANTOM
 10
-314.001709
 20
-141.114990
 11
-301.750000
 21
-141.114990
  0
LINE
  8
0
  6
PHANTOM
 10
-81.750000
 20
-141.114990
 11
-81.750000
 21
-157.114990
  0
LINE
  8
0
  6
PHANTOM
 10
-83.750000
 20
-139.114990
 11
-86.750000
 21
-139.114990
  0
LINE
  8
0
  6
PHANTOM
 10
-83.750000
 20
-159.114990
 11
-86.750000
 21
-159.114990
  0
LINE
  8
0
  6
PHANTOM
 10
-69.498291
 20
-157.114990
 11
-81.750000
 21
-157.114990
  0
LINE
  8
0
  6
PHANTOM
 10
-74.001709
 20
-141.114990
 11
-81.750000
 21
-141.114990
  0
LINE
  8
0
  6
PHANTOM
 10
-106.750000
 20
-133.114990
 11
-91.750000
 21
-133.114990
  0
LINE
  8
0
  6
PHANTOM
 10
-106.750000
 20
-165.114990
 11
-91.750000
 21
-165.114990
  0
LINE
  8
0
  6
PHANTOM
 10
-268.500000
 20
-127.615036
 11
-275.000000
 21
-127.615036
  0
LINE
  8
0
  6
PHANTOM
 10
-267.250000
 20
-128.865036
 11
-267.250000
 21
-130.115036
  0
LINE
  8
0
  6
PHANTOM
 10
-276.250000
 20
-128.865036
 11
-276.250000
 21
-130.115036
  0
LINE
  8
0
  6
PHANTOM
 10
-116.250000
 20
-128.865036
 11
-116.250000
 21
-130.115036
  0
LINE
  8
0
  6
PHANTOM
 10
-108.500000
 20
-127.615036
 11
-115.000000
 21
-127.615036
  0
LINE
  8
0
  6
PHANTOM
 10
-107.250000
 20
-128.865036
 11
-107.250000
 21
-130.115036
  0
LINE
  8
0
  6
CENTER
 10
116.249908
 20
-399.114960
 11
200.249908
 21
-399.114960
  0
LINE
  8
0
  6
CENTER
 10
158.249908
 20
-311.114990
 11
158.249908
 21
-444.114960
  0
LINE
  8
0
  6
PHANTOM
 10
138.249832
 20
-439.114960
 11
153.999832
 21
-439.114960
  0
LINE
  8
0
  6
PHANTOM
 10
151.499832
 20
-437.114960
 11
153.999832
 21
-437.114960
  0
LINE
  8
0
  6
PHANTOM
 10
153.999908
 20
-437.114960
 11
153.999908
 21
-439.114960
  0
LINE
  8
0
  6
PHANTOM
 10
162.499908
 20
-437.114960
 11
162.499908
 21
-439.114960
  0
LINE
  8
0
  6
PHANTOM
 10
151.499908
 20
-431.814972
 11
151.499908
 21
-437.114960
  0
LINE
  8
0
  6
PHANTOM
 10
164.999908
 20
-431.814972
 11
164.999908
 21
-437.114960
  0
LINE
  8
0
  6
PHANTOM
 10
162.499832
 20
-439.114960
 11
178.249832
 21
-439.114960
  0
LINE
  8
0
  6
PHANTOM
 10
162.499832
 20
-437.114960
 11
164.999832
 21
-437.114960
  0
LINE
  8
0
  6
PHANTOM
 10
178.249908
 20
-434.114960
 11
178.249908
 21
-439.114990
  0
LINE
  8
0
  6
PHANTOM
 10
138.249908
 20
-434.114960
 11
138.249908
 21
-439.114929
  0
LINE
  8
0
  6
PHANTOM
 10
149.250046
 20
-330.114960
 11
167.250046
 21
-330.114960
  0
LINE
  8
0
  6
PHANTOM
 10
144.250046
 20
-334.114960
 11
172.250046
 21
-334.114960
  0
LINE
  8
0
  6
CENTER
 10
133.250031
 20
-342.114960
 11
185.250031
 21
-342.114960
  0
LINE
  8
0
  6
PHANTOM
 10
149.249908
 20
-330.114929
 11
149.249908
 21
-359.114929
  0
LINE
  8
0
  6
PHANTOM
 10
167.249908
 20
-330.114990
 11
167.249908
 21
-359.114990
  0
LINE
  8
0
  6
PHANTOM
 10
172.249908
 20
-334.114990
 11
172.249908
 21
-359.114960
  0
LINE
  8
0
  6
PHANTOM
 10
144.249908
 20
-334.114929
 11
144.249908
 21
-359.114960
  0
LINE
  8
0
  6
PHANTOM
 10
144.249908
 20
-359.114960
 11
172.249908
 21
-359.114960
  0
LINE
  8
0
  6
PHANTOM
 10
138.249908
 20
-337.114929
 11
138.249908
 21
-347.114929
  0
LINE
  8
0
  6
PHANTOM
 10
138.250015
 20
-347.114960
 11
144.250015
 21
-347.114960
  0
LINE
  8
0
  6
PHANTOM
 10
138.250031
 20
-337.114960
 11
144.250031
 21
-337.114960
  0
LINE
  8
0
  6
PHANTOM
 10
177.249908
 20
-336.341492
 11
177.249908
 21
-347.888519
  0
LINE
  8
0
  6
PHANTOM
 10
177.250031
 20
-336.341461
 11
172.250031
 21
-336.341461
  0
LINE
  8
0
  6
PHANTOM
 10
177.250031
 20
-339.228210
 11
172.250031
 21
-339.228210
  0
LINE
  8
0
  6
PHANTOM
 10
177.250015
 20
-345.001709
 11
172.250015
 21
-345.001709
  0
LINE
  8
0
  6
PHANTOM
 10
177.250015
 20
-347.888489
 11
172.250015
 21
-347.888489
  0
LINE
  8
0
  6
PHANTOM
 10
177.250031
 20
-342.114960
 11
172.250031
 21
-342.114960
  0
LINE
  8
0
  6
PHANTOM
 10
151.499847
 20
-431.814972
 11
164.999847
 21
-431.814972
  0
LINE
  8
0
  6
PHANTOM
 10
179.749908
 20
-338.864990
 11
179.749908
 21
-345.364990
  0
LINE
  8
0
  6
PHANTOM
 10
177.250015
 20
-346.614960
 11
178.500015
 21
-346.614960
  0
LINE
  8
0
  6
PHANTOM
 10
177.250031
 20
-337.614960
 11
178.500031
 21
-337.614960
  0
LINE
  8
0
  6
PHANTOM
 10
193.249908
 20
-372.114960
 11
193.249908
 21
-426.114960
  0
LINE
  8
0
  6
PHANTOM
 10
123.249908
 20
-372.114960
 11
123.249908
 21
-426.114960
  0
LINE
  8
0
  6
PHANTOM
 10
131.249908
 20
-364.114960
 11
185.249908
 21
-364.114960
  0
LINE
  8
0
  6
PHANTOM
 10
131.249908
 20
-434.114960
 11
138.249908
 21
-434.114960
  0
LINE
  8
0
  6
PHANTOM
 10
178.249908
 20
-434.114960
 11
185.249908
 21
-434.114960
  0
LINE
  8
0
  6
PHANTOM
 10
-195.750000
 20
-330.114960
 11
-188.627472
 21
-330.114960
  0
LINE
  8
0
  6
PHANTOM
 10
-171.694382
 20
-330.114960
 11
-97.750000
 21
-330.114960
  0
LINE
  8
0
  6
PHANTOM
 10
-151.749893
 20
-114.114990
 11
-71.750000
 21
-114.114990
  0
LINE
  8
0
  6
PHANTOM
 10
-151.750000
 20
-184.114990
 11
-71.750000
 21
-184.114990
  0
LINE
  8
0
  6
PHANTOM
 10
-146.750000
 20
-133.114990
 11
-116.750000
 21
-133.114990
  0
LINE
  8
0
  6
PHANTOM
 10
-146.750000
 20
-135.115005
 11
-91.750000
 21
-135.115005
  0
LINE
  8
0
  6
PHANTOM
 10
-146.750000
 20
-140.114990
 11
-91.750000
 21
-140.114990
  0
LINE
  8
0
  6
PHANTOM
 10
-146.750000
 20
-158.115005
 11
-91.750000
 21
-158.115005
  0
LINE
  8
0
  6
PHANTOM
 10
-146.750000
 20
-163.115005
 11
-91.750000
 21
-163.115005
  0
LINE
  8
0
  6
PHANTOM
 10
-146.750000
 20
-165.114990
 11
-116.750000
 21
-165.114990
  0
LINE
  8
0
  6
PHANTOM
 10
-584.112610
 20
75.999939
 11
-394.112610
 21
75.999939
  0
LINE
  8
0
  6
PHANTOM
 10
-586.313477
 20
123.999939
 11
-396.313477
 21
123.999939
  0
LINE
  8
0
  6
PHANTOM
 10
145.000015
 20
127.999939
 11
375.000031
 21
127.999939
  0
LINE
  8
0
  6
PHANTOM
 10
147.342514
 20
70.999939
 11
377.342499
 21
70.999939
  0
LINE
  8
0
  6
PHANTOM
 10
539.000000
 20
70.999939
 11
545.000000
 21
70.999939
  0
LINE
  8
0
  6
PHANTOM
 10
539.000000
 20
127.999939
 11
581.000000
 21
127.999939
  0
LINE
  8
0
  6
PHANTOM
 10
575.000000
 20
70.999939
 11
581.000000
 21
70.999939
  0
LINE
  8
0
 10
-521.750183
 20
159.999802
 11
-506.750153
 21
139.999802
  0
LINE
  8
0
 10
-487.700012
 20
139.999893
 11
-476.750000
 21
139.999893
  0
LINE
  8
0
 10
-521.750000
 20
169.999893
 11
-461.750000
 21
169.999893
  0
LINE
  8
0
 10
-495.799988
 20
158.949905
 11
-495.799988
 21
139.999893
  0
LINE
  8
0
 10
-461.750122
 20
160.000000
 11
-476.750122
 21
140.000000
  0
LINE
  8
0
 10
-487.700012
 20
158.949905
 11
-487.700012
 21
139.999893
  0
LINE
  8
0
 10
-506.750000
 20
139.999893
 11
-495.799988
 21
139.999893
  0
LINE
  8
0
 10
-461.750000
 20
169.999893
 11
-461.750000
 21
159.999893
  0
LINE
  8
0
 10
-521.750000
 20
169.999893
 11
-521.750000
 21
159.999893
  0
LINE
  8
0
  6
CENTER
 10
-501.250000
 20
148.499893
 11
-482.250000
 21
148.499893
  0
LINE
  8
0
 10
-521.750000
 20
321.999908
 11
-461.750000
 21
321.999908
  0
LINE
  8
0
 10
-521.750000
 20
321.999908
 11
-521.750000
 21
277.999908
  0
LINE
  8
0
 10
-461.750000
 20
321.999908
 11
-461.750000
 21
277.999908
  0
LINE
  8
0
 10
-487.750000
 20
277.999908
 11
-487.750000
 21
272.499908
  0
LINE
  8
0
 10
-495.750000
 20
277.999908
 11
-495.750000
 21
272.499908
  0
LINE
  8
0
 10
-495.750000
 20
327.499908
 11
-495.750000
 21
321.999908
  0
LINE
  8
0
 10
-487.750000
 20
327.499908
 11
-487.750000
 21
321.999908
  0
LINE
  8
0
 10
-495.750000
 20
327.499908
 11
-487.750000
 21
327.499908
  0
LINE
  8
0
 10
-495.750000
 20
272.499908
 11
-487.750000
 21
272.499908
  0
LINE
  8
0
 10
-521.750000
 20
277.999908
 11
-461.750000
 21
277.999908
  0
LINE
  8
0
  6
CENTER
 10
-511.750000
 20
307.499908
 11
-511.750000
 21
292.499908
  0
LINE
  8
0
  6
CENTER
 10
-471.750000
 20
307.499908
 11
-471.750000
 21
292.499908
  0
LINE
  8
0
 10
-199.749985
 20
161.999878
 11
-199.749985
 21
150.999878
  0
LINE
  8
0
 10
-163.749985
 20
139.999878
 11
-159.749985
 21
139.999878
  0
LINE
  8
0
 10
-203.749985
 20
159.999878
 11
-199.749985
 21
159.999878
  0
LINE
  8
0
 10
-163.749985
 20
159.999878
 11
-159.749985
 21
159.999878
  0
LINE
  8
0
 10
-199.749985
 20
140.999878
 11
-199.749985
 21
139.999878
  0
LINE
  8
0
 10
-163.749985
 20
140.226379
 11
-163.749985
 21
139.999878
  0
LINE
  8
0
 10
-163.749985
 20
161.999878
 11
-163.749985
 21
151.773407
  0
LINE
  8
0
 10
-159.749985
 20
152.972015
 11
-154.249985
 21
152.972015
  0
LINE
  8
0
 10
-159.749985
 20
154.499878
 11
-154.249985
 21
154.499878
  0
LINE
  8
0
 10
-199.749985
 20
152.972015
 11
-195.249985
 21
152.972015
  0
LINE
  8
0
 10
-199.749985
 20
154.499878
 11
-190.749985
 21
154.499878
  0
LINE
  8
0
 10
-159.749985
 20
142.499878
 11
-154.249985
 21
142.499878
  0
LINE
  8
0
 10
-159.749985
 20
144.027740
 11
-154.249985
 21
144.027740
  0
LINE
  8
0
 10
-168.249985
 20
152.972015
 11
-163.749985
 21
152.972015
  0
LINE
  8
0
 10
-172.749985
 20
154.499878
 11
-163.749985
 21
154.499878
  0
LINE
  8
0
 10
-209.249985
 20
144.027740
 11
-203.749985
 21
144.027740
  0
LINE
  8
0
 10
-209.249985
 20
152.972015
 11
-203.749985
 21
152.972015
  0
LINE
  8
0
 10
-209.249985
 20
154.499878
 11
-203.749985
 21
154.499878
  0
LINE
  8
0
 10
-209.249985
 20
142.499878
 11
-203.749985
 21
142.499878
  0
LINE
  8
0
 10
-154.249985
 20
154.499878
 11
-154.249985
 21
142.499878
  0
LINE
  8
0
 10
-195.749985
 20
169.999878
 11
-167.749985
 21
169.999878
  0
LINE
  8
0
 10
-159.749985
 20
161.999878
 11
-159.749985
 21
139.999878
  0
LINE
  8
0
 10
-203.749985
 20
161.999878
 11
-203.749985
 21
139.999878
  0
LINE
  8
0
 10
-209.249985
 20
154.499878
 11
-209.249985
 21
142.499878
  0
LINE
  8
0
 10
-203.749985
 20
139.999878
 11
-199.749985
 21
139.999878
  0
LINE
  8
0
 10
-195.749985
 20
165.999878
 11
-167.749985
 21
165.999878
  0
LINE
  8
0
  6
CENTER
 10
-214.249985
 20
148.499878
 11
-149.249985
 21
148.499878
  0
LINE
  8
0
 10
214.999969
 20
169.999924
 11
304.999969
 21
169.999924
  0
LINE
  8
0
 10
304.999969
 20
174.999924
 11
304.999969
 21
169.999924
  0
LINE
  8
0
 10
299.999969
 20
174.999924
 11
299.999969
 21
169.999924
  0
LINE
  8
0
 10
214.999969
 20
174.999924
 11
304.999969
 21
174.999924
  0
LINE
  8
0
 10
219.999954
 20
174.999924
 11
219.999954
 21
169.999924
  0
LINE
  8
0
 10
238.999969
 20
166.999924
 11
258.063477
 21
166.999924
  0
LINE
  8
0
 10
261.936462
 20
166.999924
 11
280.999969
 21
166.999924
  0
LINE
  8
0
 10
263.999969
 20
139.999924
 11
271.944244
 21
139.999924
  0
LINE
  8
0
 10
255.999969
 20
163.499924
 11
255.999969
 21
139.999924
  0
LINE
  8
0
 10
263.999969
 20
163.499924
 11
263.999969
 21
139.999924
  0
LINE
  8
0
 10
277.371948
 20
143.951279
 11
271.944275
 21
139.999939
  0
LINE
  8
0
 10
242.628036
 20
143.951294
 11
248.055695
 21
139.999954
  0
LINE
  8
0
 10
281.000122
 20
166.999924
 11
277.372101
 21
143.951279
  0
LINE
  8
0
 10
239.000061
 20
166.999954
 11
242.628098
 21
143.951309
  0
LINE
  8
0
 10
248.055679
 20
139.999924
 11
255.999969
 21
139.999924
  0
LINE
  8
0
 10
239.000107
 20
167.000061
 11
236.000107
 21
170.000061
  0
LINE
  8
0
 10
281.000000
 20
166.999939
 11
284.000031
 21
169.999939
  0
LINE
  8
0
 10
214.999969
 20
174.999924
 11
214.999969
 21
169.999924
  0
LINE
  8
0
  6
CENTER
 10
250.999969
 20
150.999939
 11
268.999969
 21
150.999939
  0
LINE
  8
0
 10
305.000000
 20
349.999969
 11
305.000000
 21
289.999969
  0
LINE
  8
0
 10
219.999985
 20
284.999969
 11
300.000000
 21
284.999969
  0
LINE
  8
0
 10
220.000000
 20
354.999969
 11
300.000000
 21
354.999969
  0
LINE
  8
0
 10
215.000000
 20
349.999939
 11
220.000031
 21
354.999969
  0
LINE
  8
0
 10
215.000000
 20
349.999969
 11
215.000000
 21
289.999969
  0
LINE
  8
0
 10
215.000031
 20
290.000031
 11
220.000015
 21
285.000031
  0
LINE
  8
0
 10
305.000092
 20
350.000092
 11
300.000092
 21
355.000092
  0
LINE
  8
0
 10
305.000031
 20
290.000000
 11
300.000000
 21
284.999969
  0
LINE
  8
0
  6
CENTER
 10
222.500000
 20
284.999969
 11
222.500000
 21
299.999969
  0
LINE
  8
0
  6
CENTER
 10
215.000000
 20
292.499969
 11
230.000000
 21
292.499969
  0
LINE
  8
0
  6
CENTER
 10
222.500000
 20
354.999969
 11
222.500000
 21
339.999969
  0
LINE
  8
0
  6
CENTER
 10
215.000000
 20
347.499969
 11
230.000000
 21
347.499969
  0
LINE
  8
0
  6
CENTER
 10
305.000000
 20
347.499969
 11
290.000000
 21
347.499969
  0
LINE
  8
0
  6
CENTER
 10
297.500000
 20
354.999969
 11
297.500000
 21
339.999969
  0
LINE
  8
0
  6
CENTER
 10
297.500000
 20
284.999969
 11
297.500000
 21
299.999969
  0
LINE
  8
0
  6
CENTER
 10
305.000000
 20
292.499969
 11
290.000000
 21
292.499969
  0
LINE
  8
0
 10
539.466309
 20
155.472061
 11
546.000000
 21
155.472061
  0
LINE
  8
0
 10
539.537048
 20
156.999924
 11
546.000000
 21
156.999924
  0
LINE
  8
0
 10
525.000000
 20
156.999924
 11
530.463013
 21
156.999924
  0
LINE
  8
0
 10
525.000000
 20
144.999924
 11
531.018555
 21
144.999924
  0
LINE
  8
0
 10
525.000000
 20
146.527786
 11
530.947754
 21
146.527786
  0
LINE
  8
0
 10
525.000000
 20
155.472061
 11
530.533691
 21
155.472061
  0
LINE
  8
0
 10
525.000000
 20
174.999924
 11
595.000000
 21
174.999924
  0
LINE
  8
0
 10
525.000000
 20
169.999924
 11
595.000000
 21
169.999924
  0
LINE
  8
0
 10
525.000000
 20
174.999924
 11
525.000000
 21
169.999924
  0
LINE
  8
0
 10
581.028992
 20
144.772339
 11
581.249939
 21
139.999908
  0
LINE
  8
0
 10
595.000000
 20
174.999924
 11
595.000000
 21
169.999924
  0
LINE
  8
0
 10
531.250122
 20
139.999908
 11
530.000122
 21
166.999924
  0
LINE
  8
0
 10
539.999939
 20
166.999924
 11
538.749939
 21
139.999908
  0
LINE
  8
0
 10
579.999939
 20
166.999924
 11
580.627686
 21
153.441467
  0
LINE
  8
0
 10
588.750000
 20
139.999924
 11
590.000000
 21
166.999924
  0
LINE
  8
0
 10
590.000244
 20
166.999741
 11
593.000244
 21
169.999756
  0
LINE
  8
0
 10
540.000183
 20
166.999802
 11
543.000183
 21
169.999802
  0
LINE
  8
0
 10
579.999695
 20
166.999649
 11
576.999695
 21
169.999649
  0
LINE
  8
0
 10
530.000366
 20
167.000259
 11
527.000366
 21
170.000259
  0
LINE
  8
0
 10
580.000000
 20
166.999924
 11
590.000000
 21
166.999924
  0
LINE
  8
0
 10
581.250000
 20
139.999924
 11
588.750000
 21
139.999924
  0
LINE
  8
0
 10
531.250000
 20
139.999924
 11
538.750000
 21
139.999924
  0
LINE
  8
0
 10
531.067078
 20
143.951279
 11
538.932922
 21
143.951279
  0
LINE
  8
0
 10
539.052246
 20
146.527786
 11
540.000000
 21
146.527786
  0
LINE
  8
0
 10
530.000000
 20
166.999924
 11
540.000000
 21
166.999924
  0
LINE
  8
0
 10
530.000000
 20
174.999924
 11
530.000000
 21
169.999924
  0
LINE
  8
0
 10
595.000000
 20
156.999924
 11
595.000000
 21
144.999924
  0
LINE
  8
0
 10
525.000000
 20
156.999924
 11
525.000000
 21
144.999924
  0
LINE
  8
0
 10
590.000000
 20
174.999924
 11
590.000000
 21
169.999924
  0
LINE
  8
0
 10
588.981445
 20
144.999924
 11
595.000000
 21
144.999924
  0
LINE
  8
0
 10
574.000000
 20
155.472061
 11
580.533691
 21
155.472061
  0
LINE
  8
0
 10
574.000000
 20
156.999924
 11
580.463013
 21
156.999924
  0
LINE
  8
0
 10
581.067078
 20
143.951279
 11
588.932922
 21
143.951279
  0
LINE
  8
0
 10
589.052246
 20
146.527786
 11
595.000000
 21
146.527786
  0
LINE
  8
0
 10
589.466309
 20
155.472061
 11
595.000000
 21
155.472061
  0
LINE
  8
0
 10
589.537048
 20
156.999924
 11
595.000000
 21
156.999924
  0
LINE
  8
0
 10
538.981445
 20
144.999924
 11
540.000000
 21
144.999924
  0
LINE
  8
0
  6
CENTER
 10
520.000000
 20
150.999924
 11
600.000000
 21
150.999924
  0
LINE
  8
0
 10
-187.750046
 20
-327.614990
 11
-187.750046
 21
-351.114990
  0
LINE
  8
0
 10
-174.378098
 20
-347.163666
 11
-179.805771
 21
-351.114990
  0
LINE
  8
0
 10
-195.750046
 20
-327.614990
 11
-195.750046
 21
-351.114990
  0
LINE
  8
0
 10
-209.122086
 20
-347.163696
 11
-203.694412
 21
-351.115051
  0
LINE
  8
0
 10
-170.750122
 20
-324.114990
 11
-174.378143
 21
-347.163635
  0
LINE
  8
0
 10
-212.750229
 20
-324.115112
 11
-209.122208
 21
-347.163696
  0
LINE
  8
0
 10
-236.750061
 20
-316.114990
 11
-236.750061
 21
-321.114990
  0
LINE
  8
0
 10
-170.750061
 20
-324.115051
 11
-167.750061
 21
-321.115051
  0
LINE
  8
0
 10
-212.750214
 20
-324.115173
 11
-215.750214
 21
-321.115173
  0
LINE
  8
0
 10
-203.694336
 20
-351.114990
 11
-195.750046
 21
-351.114990
  0
LINE
  8
0
 10
-236.750061
 20
-321.114990
 11
-146.750046
 21
-321.114990
  0
LINE
  8
0
 10
-146.750046
 20
-316.114990
 11
-146.750046
 21
-321.114990
  0
LINE
  8
0
 10
-151.750046
 20
-316.114990
 11
-151.750046
 21
-321.114990
  0
LINE
  8
0
 10
-236.750061
 20
-316.114990
 11
-146.750046
 21
-316.114990
  0
LINE
  8
0
 10
-231.750061
 20
-316.114990
 11
-231.750061
 21
-321.114990
  0
LINE
  8
0
 10
-212.750061
 20
-324.114990
 11
-193.686539
 21
-324.114990
  0
LINE
  8
0
 10
-189.813553
 20
-324.114990
 11
-170.750046
 21
-324.114990
  0
LINE
  8
0
 10
-187.750046
 20
-351.114990
 11
-179.805771
 21
-351.114990
  0
LINE
  8
0
  6
CENTER
 10
-200.750046
 20
-340.114960
 11
-182.750046
 21
-340.114960
  0
LINE
  8
0
 10
-146.750092
 20
-179.115005
 11
-151.750122
 21
-184.115036
  0
LINE
  8
0
 10
-146.750122
 20
-119.115036
 11
-146.750122
 21
-179.115036
  0
LINE
  8
0
 10
-231.750122
 20
-184.115036
 11
-151.750122
 21
-184.115036
  0
LINE
  8
0
 10
-231.750122
 20
-114.115036
 11
-151.750107
 21
-114.115036
  0
LINE
  8
0
 10
-236.750137
 20
-119.115051
 11
-231.750107
 21
-114.115028
  0
LINE
  8
0
 10
-236.750122
 20
-119.115036
 11
-236.750122
 21
-179.115036
  0
LINE
  8
0
 10
-236.750198
 20
-179.115051
 11
-231.750198
 21
-184.115051
  0
LINE
  8
0
 10
-146.750137
 20
-119.115028
 11
-151.750122
 21
-114.115028
  0
LINE
  8
0
  6
CENTER
 10
-229.250122
 20
-114.115036
 11
-229.250122
 21
-129.115036
  0
LINE
  8
0
  6
CENTER
 10
-236.750122
 20
-121.615036
 11
-221.750122
 21
-121.615036
  0
LINE
  8
0
  6
CENTER
 10
-236.750122
 20
-176.615036
 11
-221.750122
 21
-176.615036
  0
LINE
  8
0
  6
CENTER
 10
-229.250122
 20
-184.115036
 11
-229.250122
 21
-169.115036
  0
LINE
  8
0
  6
CENTER
 10
-146.750122
 20
-121.615036
 11
-161.750122
 21
-121.615036
  0
LINE
  8
0
  6
CENTER
 10
-154.250122
 20
-114.115036
 11
-154.250122
 21
-129.115036
  0
LINE
  8
0
  6
CENTER
 10
-154.250122
 20
-184.115036
 11
-154.250122
 21
-169.115036
  0
LINE
  8
0
  6
CENTER
 10
-146.750122
 20
-176.615036
 11
-161.750122
 21
-176.615036
  0
LINE
  8
0
 10
138.249786
 20
-324.114868
 11
136.999786
 21
-351.114868
  0
LINE
  8
0
 10
178.249802
 20
-324.114716
 11
178.877502
 21
-337.673157
  0
LINE
  8
0
 10
186.999802
 20
-351.114807
 11
188.249802
 21
-324.114838
  0
LINE
  8
0
 10
188.250320
 20
-324.115295
 11
191.250336
 21
-321.115295
  0
LINE
  8
0
 10
138.250290
 20
-324.115265
 11
141.250290
 21
-321.115265
  0
LINE
  8
0
 10
178.249725
 20
-324.114960
 11
175.249680
 21
-321.114960
  0
LINE
  8
0
 10
129.499924
 20
-351.114716
 11
128.249924
 21
-324.114746
  0
LINE
  8
0
 10
128.250015
 20
-324.114624
 11
125.250023
 21
-321.114624
  0
LINE
  8
0
 10
137.231308
 20
-346.114777
 11
138.249863
 21
-346.114777
  0
LINE
  8
0
 10
187.786911
 20
-334.114777
 11
193.249863
 21
-334.114777
  0
LINE
  8
0
 10
187.716171
 20
-335.642639
 11
193.249863
 21
-335.642639
  0
LINE
  8
0
 10
187.302109
 20
-344.586914
 11
193.249863
 21
-344.586914
  0
LINE
  8
0
 10
179.316940
 20
-347.163422
 11
187.182785
 21
-347.163422
  0
LINE
  8
0
 10
172.249863
 20
-334.114777
 11
178.712875
 21
-334.114777
  0
LINE
  8
0
 10
172.249863
 20
-335.642639
 11
178.783554
 21
-335.642639
  0
LINE
  8
0
 10
187.231308
 20
-346.114777
 11
193.249863
 21
-346.114777
  0
LINE
  8
0
 10
188.249863
 20
-316.114777
 11
188.249863
 21
-321.114777
  0
LINE
  8
0
 10
123.249863
 20
-334.114777
 11
123.249863
 21
-346.114777
  0
LINE
  8
0
 10
193.249863
 20
-334.114777
 11
193.249863
 21
-346.114777
  0
LINE
  8
0
 10
128.249863
 20
-316.114777
 11
128.249863
 21
-321.114777
  0
LINE
  8
0
 10
128.249863
 20
-324.114777
 11
138.249863
 21
-324.114777
  0
LINE
  8
0
 10
137.302109
 20
-344.586914
 11
138.249863
 21
-344.586914
  0
LINE
  8
0
 10
129.316940
 20
-347.163422
 11
137.182785
 21
-347.163422
  0
LINE
  8
0
 10
129.499863
 20
-351.114777
 11
136.999863
 21
-351.114777
  0
LINE
  8
0
 10
179.499863
 20
-351.114777
 11
186.999863
 21
-351.114777
  0
LINE
  8
0
 10
178.249863
 20
-324.114777
 11
188.249863
 21
-324.114777
  0
LINE
  8
0
 10
137.716171
 20
-335.642639
 11
144.249863
 21
-335.642639
  0
LINE
  8
0
 10
137.786911
 20
-334.114777
 11
144.249863
 21
-334.114777
  0
LINE
  8
0
 10
123.249863
 20
-334.114777
 11
128.712875
 21
-334.114777
  0
LINE
  8
0
 10
123.249863
 20
-346.114777
 11
129.268417
 21
-346.114777
  0
LINE
  8
0
 10
123.249863
 20
-344.586914
 11
129.197617
 21
-344.586914
  0
LINE
  8
0
 10
123.249863
 20
-335.642639
 11
128.783554
 21
-335.642639
  0
LINE
  8
0
 10
123.249863
 20
-316.114777
 11
193.249863
 21
-316.114777
  0
LINE
  8
0
 10
123.249863
 20
-321.114777
 11
193.249863
 21
-321.114777
  0
LINE
  8
0
 10
123.249863
 20
-316.114777
 11
123.249863
 21
-321.114777
  0
LINE
  8
0
 10
179.278854
 20
-346.342316
 11
179.499802
 21
-351.114746
  0
LINE
  8
0
 10
193.249863
 20
-316.114777
 11
193.249863
 21
-321.114777
  0
LINE
  8
0
  6
CENTER
 10
118.249863
 20
-340.114777
 11
198.249863
 21
-340.114777
  0
ARC
  8
0
 62
     5
 10
655.008484
 20
-465.668823
 40
6.635708
 50
291.688293
 51
0.000000
  0
ARC
  8
0
 62
     5
 10
652.796448
 20
-464.168060
 40
2.211920
 50
291.688660
 51
0.000000
  0
ARC
  8
0
 62
     5
 10
546.072388
 20
-470.092651
 40
4.423828
 50
0.000000
 51
90.000000
  0
ARC
  8
0
 62
     5
 10
582.568787
 20
-493.870697
 40
4.423798
 50
270.000000
 51
0.000000
  0
ARC
  8
0
 62
     5
 10
580.356750
 20
-472.304474
 40
6.635681
 50
0.000000
 51
90.000000
  0
ARC
  8
0
 62
     5
 10
620.723999
 20
-470.092651
 40
4.423828
 50
0.000000
 51
90.000000
  0
ARC
  8
0
 62
     5
 10
620.723999
 20
-473.626892
 40
4.423808
 50
294.999786
 51
0.000000
  0
CIRCLE
  8
0
  6
PHANTOM
 10
-551.750000
 20
145.999969
 40
5.000000
  0
CIRCLE
  8
0
  6
PHANTOM
 10
-521.750000
 20
145.999969
 40
3.500000
  0
CIRCLE
  8
0
  6
PHANTOM
 10
-431.750000
 20
145.999969
 40
5.000000
  0
CIRCLE
  8
0
  6
PHANTOM
 10
-461.750000
 20
145.999969
 40
3.500000
  0
ARC
  8
0
  6
PHANTOM
 10
-559.041687
 20
111.499954
 40
29.999996
 50
155.375748
 51
202.540283
  0
ARC
  8
0
  6
PHANTOM
 10
-612.730774
 20
84.999954
 40
30.000002
 50
330.000031
 51
29.999964
  0
ARC
  8
0
  6
PHANTOM
 10
-369.041687
 20
111.499954
 40
29.999996
 50
155.375748
 51
202.540283
  0
ARC
  8
0
  6
PHANTOM
 10
-422.730774
 20
84.999954
 40
30.000002
 50
330.000031
 51
29.999964
  0
ARC
  8
0
  6
PHANTOM
 10
-576.250000
 20
291.499939
 40
2.500000
 50
180.000000
 51
270.000000
  0
ARC
  8
0
  6
PHANTOM
 10
-413.250000
 20
310.999939
 40
6.000000
 50
0.000000
 51
90.000000
  0
ARC
  8
0
  6
PHANTOM
 10
-576.250000
 20
308.499939
 40
2.500000
 50
90.000000
 51
180.000000
  0
ARC
  8
0
  6
PHANTOM
 10
-413.250000
 20
288.999939
 40
6.000000
 50
270.000000
 51
0.000000
  0
ARC
  8
0
  6
PHANTOM
 10
-407.250000
 20
308.499939
 40
2.500000
 50
0.000000
 51
90.000000
  0
ARC
  8
0
  6
PHANTOM
 10
-407.250000
 20
291.499939
 40
2.500000
 50
270.000000
 51
0.000000
  0
CIRCLE
  8
0
  6
PHANTOM
 10
-536.750000
 20
299.999939
 40
3.000000
  0
CIRCLE
  8
0
  6
PHANTOM
 10
-536.750000
 20
299.999939
 40
2.458500
  0
CIRCLE
  8
0
  6
PHANTOM
 10
-446.750000
 20
299.999939
 40
2.458500
  0
CIRCLE
  8
0
  6
PHANTOM
 10
-446.750000
 20
299.999939
 40
3.000000
  0
ARC
  8
0
  6
PHANTOM
 10
-570.250000
 20
288.999939
 40
6.000000
 50
180.000000
 51
270.000000
  0
ARC
  8
0
  6
PHANTOM
 10
-570.250000
 20
310.999939
 40
6.000000
 50
90.000000
 51
180.000000
  0
ARC
  8
0
  6
PHANTOM
 10
-435.000000
 20
319.749939
 40
1.250000
 50
90.000000
 51
180.000000
  0
ARC
  8
0
  6
PHANTOM
 10
-428.500000
 20
319.749939
 40
1.250000
 50
0.000000
 51
90.000000
  0
ARC
  8
0
  6
PHANTOM
 10
-555.000000
 20
319.749939
 40
1.250000
 50
90.000000
 51
180.000000
  0
ARC
  8
0
  6
PHANTOM
 10
-548.500000
 20
319.749939
 40
1.250000
 50
0.000000
 51
90.000000
  0
ARC
  8
0
  6
PHANTOM
 10
-369.254547
 20
311.999939
 40
29.999998
 50
156.421814
 51
203.578125
  0
ARC
  8
0
  6
PHANTOM
 10
-424.245453
 20
287.999939
 40
29.999998
 50
336.421814
 51
23.578180
  0
ARC
  8
0
  6
PHANTOM
 10
-559.254517
 20
311.999939
 40
30.000027
 50
156.421844
 51
203.578110
  0
ARC
  8
0
  6
PHANTOM
 10
-614.245483
 20
287.999939
 40
30.000027
 50
336.421844
 51
23.578156
  0
ARC
  8
0
  6
PHANTOM
 10
-162.000076
 20
142.749939
 40
1.250000
 50
270.000000
 51
0.000000
  0
ARC
  8
0
  6
PHANTOM
 10
-162.000092
 20
149.249939
 40
1.250000
 50
0.000000
 51
90.000000
  0
CIRCLE
  8
0
  6
PHANTOM
 10
315.000000
 20
148.999954
 40
5.000000
  0
CIRCLE
  8
0
  6
PHANTOM
 10
232.500000
 20
148.999954
 40
3.500000
  0
CIRCLE
  8
0
  6
PHANTOM
 10
205.000000
 20
148.999954
 40
5.000000
  0
CIRCLE
  8
0
  6
PHANTOM
 10
287.500000
 20
148.999954
 40
3.500000
  0
ARC
  8
0
  6
PHANTOM
 10
182.470001
 20
113.999924
 40
40.000000
 50
159.512680
 51
200.487259
  0
ARC
  8
0
  6
PHANTOM
 10
109.031281
 20
82.499924
 40
40.000004
 50
334.055511
 51
25.944500
  0
ARC
  8
0
  6
PHANTOM
 10
412.470001
 20
113.999924
 40
39.999985
 50
159.512665
 51
200.487259
  0
ARC
  8
0
  6
PHANTOM
 10
339.031281
 20
82.499924
 40
39.999992
 50
334.055481
 51
25.944510
  0
ARC
  8
0
  6
PHANTOM
 10
355.000000
 20
330.999939
 40
5.000000
 50
0.000000
 51
90.000000
  0
ARC
  8
0
  6
PHANTOM
 10
355.000000
 20
308.999939
 40
5.000000
 50
270.000000
 51
0.000000
  0
ARC
  8
0
  6
PHANTOM
 10
165.000000
 20
308.999939
 40
5.000000
 50
180.000000
 51
270.000000
  0
ARC
  8
0
  6
PHANTOM
 10
165.000000
 20
330.999939
 40
5.000000
 50
90.000000
 51
180.000000
  0
ARC
  8
0
  6
PHANTOM
 10
215.000000
 20
319.999939
 40
3.000000
 50
90.000000
 51
270.000000
  0
ARC
  8
0
  6
PHANTOM
 10
215.000000
 20
319.999939
 40
2.458496
 50
90.000000
 51
270.000000
  0
ARC
  8
0
  6
PHANTOM
 10
305.000000
 20
319.999939
 40
2.458496
 50
270.000000
 51
90.000000
  0
ARC
  8
0
  6
PHANTOM
 10
305.000000
 20
319.999939
 40
3.000000
 50
270.000000
 51
90.000000
  0
ARC
  8
0
  6
PHANTOM
 10
157.000000
 20
328.999939
 40
2.000000
 50
90.000000
 51
180.000000
  0
ARC
  8
0
  6
PHANTOM
 10
157.000000
 20
310.999939
 40
2.000000
 50
180.000000
 51
270.000000
  0
ARC
  8
0
  6
PHANTOM
 10
363.000000
 20
310.999939
 40
2.000000
 50
270.000000
 51
0.000000
  0
ARC
  8
0
  6
PHANTOM
 10
363.000000
 20
328.999939
 40
2.000000
 50
0.000000
 51
90.000000
  0
ARC
  8
0
  6
PHANTOM
 10
311.750000
 20
340.249939
 40
1.250000
 50
90.000000
 51
180.000000
  0
ARC
  8
0
  6
PHANTOM
 10
318.250000
 20
340.249939
 40
1.250000
 50
0.000000
 51
90.000000
  0
ARC
  8
0
  6
PHANTOM
 10
201.750000
 20
340.249939
 40
1.250000
 50
90.000000
 51
180.000000
  0
ARC
  8
0
  6
PHANTOM
 10
208.250000
 20
340.249939
 40
1.250000
 50
0.000000
 51
90.000000
  0
ARC
  8
0
  6
PHANTOM
 10
182.279358
 20
334.499939
 40
39.999996
 50
158.746231
 51
201.253769
  0
ARC
  8
0
  6
PHANTOM
 10
107.720642
 20
305.499939
 40
40.000008
 50
338.746185
 51
21.253805
  0
ARC
  8
0
  6
PHANTOM
 10
412.279358
 20
334.499939
 40
39.999996
 50
158.746231
 51
201.253769
  0
ARC
  8
0
  6
PHANTOM
 10
337.720642
 20
305.499939
 40
40.000008
 50
338.746185
 51
21.253805
  0
ARC
  8
0
  6
PHANTOM
 10
580.249939
 20
152.249924
 40
1.250006
 50
72.407524
 51
90.000000
  0
ARC
  8
0
  6
PHANTOM
 10
580.250000
 20
152.249908
 40
1.250000
 50
0.000000
 51
90.000000
  0
ARC
  8
0
  6
PHANTOM
 10
580.250000
 20
145.749908
 40
1.250000
 50
270.000000
 51
0.000000
  0
CIRCLE
  8
0
  6
PHANTOM
 10
-111.750000
 20
-342.114960
 40
5.000000
  0
CIRCLE
  8
0
  6
PHANTOM
 10
-151.750000
 20
-342.114960
 40
3.500000
  0
CIRCLE
  8
0
  6
PHANTOM
 10
-231.750000
 20
-342.114960
 40
3.500000
  0
ARC
  8
0
  6
PHANTOM
 10
-89.250000
 20
-361.614960
 40
2.500000
 50
270.000000
 51
90.000000
  0
ARC
  8
0
  6
PHANTOM
 10
-294.250000
 20
-361.614960
 40
2.500000
 50
90.000000
 51
270.000000
  0
CIRCLE
  8
0
  6
PHANTOM
 10
-271.750000
 20
-342.114960
 40
5.000000
  0
ARC
  8
0
  6
PHANTOM
 10
-264.912537
 20
-381.614960
 40
50.000008
 50
159.512695
 51
200.487305
  0
ARC
  8
0
  6
PHANTOM
 10
-357.575745
 20
-419.114960
 40
50.000004
 50
336.421875
 51
23.578138
  0
ARC
  8
0
  6
PHANTOM
 10
-24.912537
 20
-381.614960
 40
49.999992
 50
159.512680
 51
200.487320
  0
ARC
  8
0
  6
PHANTOM
 10
-117.575760
 20
-419.114960
 40
49.999996
 50
336.421844
 51
23.578142
  0
ARC
  8
0
  6
PHANTOM
 10
-299.750000
 20
-157.114990
 40
2.000000
 50
180.000000
 51
270.000000
  0
ARC
  8
0
  6
PHANTOM
 10
-83.750000
 20
-157.114990
 40
2.000000
 50
270.000000
 51
0.000000
  0
ARC
  8
0
  6
PHANTOM
 10
-299.750000
 20
-141.114990
 40
2.000000
 50
90.000000
 51
180.000000
  0
ARC
  8
0
  6
PHANTOM
 10
-83.750000
 20
-141.114990
 40
2.000000
 50
0.000000
 51
90.000000
  0
CIRCLE
  8
0
  6
PHANTOM
 10
-251.750000
 20
-149.114990
 40
3.000000
  0
CIRCLE
  8
0
  6
PHANTOM
 10
-251.750000
 20
-149.114990
 40
2.098500
  0
ARC
  8
0
  6
PHANTOM
 10
-291.750000
 20
-138.114990
 40
5.000000
 50
90.000000
 51
180.000000
  0
ARC
  8
0
  6
PHANTOM
 10
-291.750000
 20
-160.114990
 40
5.000000
 50
180.000000
 51
270.000000
  0
ARC
  8
0
  6
PHANTOM
 10
-91.750000
 20
-138.114990
 40
5.000000
 50
0.000000
 51
90.000000
  0
ARC
  8
0
  6
PHANTOM
 10
-91.750000
 20
-160.114990
 40
5.000000
 50
270.000000
 51
0.000000
  0
CIRCLE
  8
0
  6
PHANTOM
 10
-131.750000
 20
-149.114990
 40
3.000000
  0
CIRCLE
  8
0
  6
PHANTOM
 10
-131.750000
 20
-149.114990
 40
2.098500
  0
ARC
  8
0
  6
PHANTOM
 10
-275.000000
 20
-128.865036
 40
1.250000
 50
90.000000
 51
180.000000
  0
ARC
  8
0
  6
PHANTOM
 10
-268.500000
 20
-128.865036
 40
1.250000
 50
0.000000
 51
90.000000
  0
ARC
  8
0
  6
PHANTOM
 10
-115.000000
 20
-128.865036
 40
1.250000
 50
90.000000
 51
180.000000
  0
ARC
  8
0
  6
PHANTOM
 10
-108.500000
 20
-128.865036
 40
1.250000
 50
0.000000
 51
90.000000
  0
ARC
  8
0
  6
PHANTOM
 10
-264.912506
 20
-131.614990
 40
50.000004
 50
159.512711
 51
200.487274
  0
ARC
  8
0
  6
PHANTOM
 10
-358.587494
 20
-166.614990
 40
50.000008
 50
339.512695
 51
20.487312
  0
ARC
  8
0
  6
PHANTOM
 10
-24.912506
 20
-131.614990
 40
50.000004
 50
159.512711
 51
200.487274
  0
ARC
  8
0
  6
PHANTOM
 10
-118.587494
 20
-166.614990
 40
50.000000
 50
339.512695
 51
20.487314
  0
ARC
  8
0
  6
PHANTOM
 10
178.500031
 20
-338.864990
 40
1.250000
 50
0.000000
 51
90.000000
  0
ARC
  8
0
  6
PHANTOM
 10
178.500015
 20
-345.364990
 40
1.250000
 50
270.000000
 51
0.000000
  0
ARC
  8
0
  6
PHANTOM
 10
131.249908
 20
-426.114960
 40
8.000000
 50
180.000000
 51
270.000000
  0
ARC
  8
0
  6
PHANTOM
 10
131.249908
 20
-372.114960
 40
8.000000
 50
90.000000
 51
180.000000
  0
ARC
  8
0
  6
PHANTOM
 10
185.249908
 20
-372.114960
 40
8.000000
 50
0.000000
 51
90.000000
  0
ARC
  8
0
  6
PHANTOM
 10
185.249908
 20
-426.114960
 40
8.000000
 50
270.000000
 51
0.000000
  0
ARC
  8
0
  6
PHANTOM
 10
-573.750000
 20
126.499954
 40
2.500015
 50
90.000000
 51
270.000000
  0
ARC
  8
0
  6
PHANTOM
 10
-409.750000
 20
126.499954
 40
2.500015
 50
270.000000
 51
90.000000
  0
ARC
  8
0
  6
PHANTOM
 10
-201.749939
 20
79.999939
 40
4.000000
 50
180.000000
 51
270.000000
  0
ARC
  8
0
  6
PHANTOM
 10
-161.749939
 20
79.999939
 40
4.000000
 50
270.000000
 51
0.000000
  0
ARC
  8
0
  6
PHANTOM
 10
-167.249969
 20
126.499924
 40
2.499969
 50
270.000000
 51
90.000000
  0
ARC
  8
0
  6
PHANTOM
 10
-196.250031
 20
126.499924
 40
2.499969
 50
90.000000
 51
270.000000
  0
ARC
  8
0
  6
PHANTOM
 10
-161.749939
 20
119.999962
 40
4.000000
 50
0.000000
 51
90.000000
  0
ARC
  8
0
  6
PHANTOM
 10
-201.749939
 20
119.999962
 40
4.000000
 50
90.000000
 51
180.000000
  0
ARC
  8
0
  6
PHANTOM
 10
581.000000
 20
119.999939
 40
8.000000
 50
0.000000
 51
90.000000
  0
ARC
  8
0
  6
PHANTOM
 10
539.000000
 20
119.999939
 40
8.000000
 50
90.000000
 51
179.999939
  0
ARC
  8
0
  6
PHANTOM
 10
539.000000
 20
78.999939
 40
8.000000
 50
180.000000
 51
270.000000
  0
ARC
  8
0
  6
PHANTOM
 10
581.000000
 20
78.999939
 40
8.000000
 50
270.000000
 51
0.000000
  0
ARC
  8
0
  6
PHANTOM
 10
171.749908
 20
-361.614960
 40
2.500000
 50
270.000000
 51
90.000000
  0
ARC
  8
0
  6
PHANTOM
 10
144.749908
 20
-361.614960
 40
2.500000
 50
90.000000
 51
270.000000
  0
ARC
  8
0
  6
PHANTOM
 10
163.000000
 20
130.999939
 40
3.000015
 50
90.000000
 51
270.000000
  0
ARC
  8
0
  6
PHANTOM
 10
357.000000
 20
130.999939
 40
3.000015
 50
270.000000
 51
90.000000
  0
ARC
  8
0
  6
PHANTOM
 10
547.000000
 20
130.999924
 40
2.999985
 50
90.000000
 51
270.000000
  0
ARC
  8
0
  6
PHANTOM
 10
573.000000
 20
130.999924
 40
2.999985
 50
270.000000
 51
90.000000
  0
ARC
  8
0
 10
-491.750000
 20
158.949905
 40
4.049988
 50
0.000000
 51
180.000000
  0
ARC
  8
0
 10
-491.750000
 20
148.499893
 40
5.999995
 50
47.545963
 51
132.454041
  0
ARC
  8
0
 10
-491.750000
 20
148.499893
 40
5.999995
 50
227.545959
 51
312.454041
  0
CIRCLE
  8
0
 10
-471.750000
 20
299.999908
 40
3.300000
  0
CIRCLE
  8
0
 10
-511.750000
 20
299.999908
 40
3.300000
  0
ARC
  8
0
 10
-195.749985
 20
161.999878
 40
8.000000
 50
90.000000
 51
180.000000
  0
ARC
  8
0
 10
-167.749985
 20
161.999878
 40
8.000000
 50
0.000000
 51
90.000000
  0
ARC
  8
0
 10
-195.749985
 20
161.999878
 40
4.000000
 50
90.000000
 51
180.000000
  0
ARC
  8
0
 10
-167.749985
 20
161.999878
 40
4.000000
 50
0.000000
 51
90.000000
  0
ARC
  8
0
 10
259.999969
 20
150.999939
 40
6.000001
 50
228.189697
 51
311.810303
  0
ARC
  8
0
 10
259.999969
 20
150.999939
 40
6.000001
 50
48.189693
 51
131.810303
  0
ARC
  8
0
 10
259.999969
 20
163.499924
 40
4.000000
 50
0.000000
 51
180.000000
  0
CIRCLE
  8
0
 10
297.500000
 20
292.499969
 40
3.500000
  0
CIRCLE
  8
0
 10
222.500000
 20
292.499969
 40
3.500000
  0
CIRCLE
  8
0
 10
297.500000
 20
347.499969
 40
3.500000
  0
CIRCLE
  8
0
 10
222.500000
 20
347.499969
 40
3.500000
  0
ARC
  8
0
 10
-191.750046
 20
-327.614990
 40
4.000000
 50
0.000000
 51
180.000000
  0
ARC
  8
0
 10
-191.750046
 20
-340.114960
 40
6.000001
 50
48.189693
 51
131.810303
  0
ARC
  8
0
 10
-191.750046
 20
-340.114960
 40
6.000001
 50
228.189697
 51
311.810303
  0
CIRCLE
  8
0
 10
-229.250122
 20
-121.615036
 40
3.500000
  0
CIRCLE
  8
0
 10
-154.250122
 20
-121.615036
 40
3.500000
  0
CIRCLE
  8
0
 10
-229.250122
 20
-176.615036
 40
3.500000
  0
CIRCLE
  8
0
 10
-154.250122
 20
-176.615036
 40
3.500000
  0
TEXT
  8
0
 10
452.676331
 20
466.216309
 40
17.000000
  1
DATE : MAY ,1991
 50
0.000000
 41
1.052631
 51
0.000000
  7
STANDARD
  0
TEXT
  8
0
 10
-652.223755
 20
463.516205
 40
20.000000
  1
ORCA M MOUNT
 50
0.000000
 41
1.052632
 51
0.000000
  7
STANDARD
  0
TEXT
  8
0
 10
-704.357117
 20
384.914032
 40
20.000000
  1
BORE : 32
 50
0.000000
 41
1.052632
 51
0.000000
  7
STANDARD
  0
TEXT
  8
0
 10
37.392860
 20
434.914032
 40
20.000000
  1
BORE : 40
 50
0.000000
 41
1.052632
 51
0.000000
  7
STANDARD
  0
TEXT
  8
0
 10
-704.357117
 20
-67.000061
 40
20.000000
  1
BORE : 50
 50
0.000000
 41
1.052632
 51
0.000000
  7
STANDARD
  0
ENDSEC
  0
EOF
