  0
SECTION
  2
HEADER
  0
ENDSEC
  0
SECTION
  2
TABLES
  0
TABLE
  2
LTYPE
 70
     4
  0
LTYPE
  2
CONTINUOUS
 70
    64
  3
Solid line
 72
    65
 73
     0
 40
0.000000
  0
LTYPE
  2
DASHED
 70
    64
  3
__ __ __ __ __ __ __ __ __ __ __ __ __ __ __
 72
    65
 73
     2
 40
3.500000
 49
2.000000
 49
-1.500000
  0
LTYPE
  2
CENTER
 70
    64
  3
____ _ ____ _ ____ _ ____ _ ____ _ ____ _ ____
 72
    65
 73
     4
 40
17.500000
 49
13.000000
 49
-1.500000
 49
1.500000
 49
-1.500000
  0
LTYPE
  2
PHANTOM
 70
    64
  3
_____ _ _ _____ _ _ _____ _ _ _____ _ _ ____  
 72
    65
 73
     6
 40
15.500000
 49
8.000000
 49
-1.500000
 49
1.500000
 49
-1.500000
 49
1.500000
 49
-1.500000
  0
LTYPE
  2
DASHED1
 70
    64
  3
__ __ __ __ __ __ __ __ __ __ __ __ __ __ __
 72
    65
 73
     2
 40
1.500000
 49
1.000000
 49
-0.500000
  0
LTYPE
  2
DASHED2
 70
    64
  3
__ __ __ __ __ __ __ __ __ __ __ __ __ __ __
 72
    65
 73
     2
 40
3.500000
 49
2.500000
 49
-1.000000
  0
LTYPE
  2
DASHED3
 70
    64
  3
__ __ __ __ __ __ __ __ __ __ __ __ __ __ __
 72
    65
 73
     2
 40
6.000000
 49
4.000000
 49
-2.000000
  0
LTYPE
  2
DASHED4
 70
    64
  3
__ __ __ __ __ __ __ __ __ __ __ __ __ __ __
 72
    65
 73
     2
 40
12.000000
 49
10.000000
 49
-2.000000
  0
LTYPE
  2
DASHED5
 70
    64
  3
__ __ __ __ __ __ __ __ __ __ __ __ __ __ __
 72
    65
 73
     2
 40
17.000000
 49
15.000000
 49
-2.000000
  0
LTYPE
  2
DASHED6
 70
    64
  3
__ __ __ __ __ __ __ __ __ __ __ __ __ __ __
 72
    65
 73
     2
 40
29.000000
 49
27.000000
 49
-2.000000
  0
LTYPE
  2
PHANTOM1
 70
    64
  3
_____ _ _ _____ _ _ _____ _ _ _____ _ _ ____  
 72
    65
 73
     6
 40
31.000000
 49
25.000000
 49
-1.500000
 49
1.000000
 49
-1.000000
 49
1.000000
 49
-1.500000
  0
LTYPE
  2
PHANTOM2
 70
    64
  3
_____ _ _ _____ _ _ _____ _ _ _____ _ _ ____  
 72
    65
 73
     6
 40
36.000000
 49
27.000000
 49
-1.500000
 49
2.500000
 49
-1.000000
 49
2.500000
 49
-1.500000
  0
LTYPE
  2
PHANTOM3
 70
    64
  3
_____ _ _ _____ _ _ _____ _ _ _____ _ _ ____  
 72
    65
 73
     6
 40
78.000000
 49
64.000000
 49
-2.000000
 49
4.000000
 49
-2.000000
 49
4.000000
 49
-2.000000
  0
LTYPE
  2
CENTER1
 70
    64
  3
____ _ ____ _ ____ _ ____ _ ____ _ ____ _ ____
 72
    65
 73
     4
 40
19.000000
 49
14.000000
 49
-1.000000
 49
3.000000
 49
-1.000000
  0
LTYPE
  2
CENTER2
 70
    64
  3
____ _ ____ _ ____ _ ____ _ ____ _ ____ _ ____
 72
    65
 73
     4
 40
28.500000
 49
25.000000
 49
-1.000000
 49
1.500000
 49
-1.000000
  0
LTYPE
  2
CENTER3
 70
    64
  3
____ _ ____ _ ____ _ ____ _ ____ _ ____ _ ____
 72
    65
 73
     4
 40
31.500000
 49
27.000000
 49
-1.000000
 49
2.500000
 49
-1.000000
  0
LTYPE
  2
CENTER4
 70
    64
  3
____ _ ____ _ ____ _ ____ _ ____ _ ____ _ ____
 72
    65
 73
     4
 40
50.000000
 49
45.000000
 49
-1.000000
 49
3.000000
 49
-1.000000
  0
LTYPE
  2
CENTER5
 70
    64
  3
____ _ ____ _ ____ _ ____ _ ____ _ ____ _ ____
 72
    65
 73
     4
 40
100.000000
 49
92.000000
 49
-2.000000
 49
4.000000
 49
-2.000000
  0
LTYPE
  2
SBK1
 70
    64
  3
______ _ _ _ ______ _ _ _ ______ _ _ _ _____  
 72
    65
 73
     8
 40
60.500000
 49
45.000000
 49
-2.000000
 49
2.500000
 49
-2.000000
 49
2.500000
 49
-2.000000
 49
2.500000
 49
-2.000000
  0
LTYPE
  2
SBK2
 70
    64
  3
______ _ _ _ ______ _ _ _ ______ _ _ _ _____  
 72
    65
 73
     8
 40
84.000000
 49
64.000000
 49
-2.000000
 49
4.000000
 49
-2.000000
 49
4.000000
 49
-2.000000
 49
4.000000
 49
-2.000000
  0
LTYPE
  2
STCH
 70
    64
  3
__ __ __ __ __ __ __ __ __ __ __ __ __ __ __
 72
    65
 73
     2
 40
3.000000
 49
1.000000
 49
-2.000000
  0
LTYPE
  2
MTCH
 70
    64
  3
_____ _ _ _____ _ _ _____ _ _ _____ _ _ ____  
 72
    65
 73
     6
 40
80.000000
 49
66.000000
 49
-2.000000
 49
4.000000
 49
-2.000000
 49
4.000000
 49
-2.000000
  0
ENDTAB
  0
TABLE
  2
LAYER
 70
     1
  0
LAYER
  2
0
 70
     0
 62
     7
  6
CONTINUOUS
  0
ENDTAB
  0
TABLE
  2
STYLE
 70
     1
  0
STYLE
  2
STANDARD
 70
     0
 40
0.000000
 41
1.000000
 50
0.000000
 71
     0
 42
0.200000
  3
txt
  4
BIGFONT
  0
ENDTAB
  0
TABLE
  2
VIEW
 70
     0
  0
ENDTAB
  0
ENDSEC
  0
SECTION
  2
BLOCKS
  0
ENDSEC
  0
SECTION
  2
ENTITIES
  0
POINT
  8
0
 10
-68.000069
 20
-55.000046
  0
POINT
  8
0
 10
-67.999969
 20
40.510727
  0
POINT
  8
0
 10
-67.999931
 20
45.510723
  0
POINT
  8
0
 10
-67.999931
 20
51.510735
  0
POINT
  8
0
 10
60.499950
 20
-55.000015
  0
POINT
  8
0
 10
65.499985
 20
-55.000008
  0
POINT
  8
0
 10
71.499962
 20
-54.999992
  0
POINT
  8
0
 10
-44.000046
 20
-55.000046
  0
POINT
  8
0
 10
-43.999969
 20
40.510727
  0
POINT
  8
0
 10
86.499939
 20
-55.000015
  0
LINE
  8
0
 62
     3
 10
-185.436783
 20
-127.279236
 11
-185.436783
 21
127.279236
  0
LINE
  8
0
 62
     3
 10
185.436783
 20
127.279236
 11
185.436783
 21
-127.279236
  0
LINE
  8
0
 62
     3
 10
-185.436783
 20
-127.279236
 11
185.436783
 21
-127.279236
  0
LINE
  8
0
 62
     3
 10
-185.436783
 20
127.279236
 11
185.436783
 21
127.279236
  0
LINE
  8
0
 62
     3
 10
-185.436783
 20
112.978195
 11
-109.164589
 21
112.978195
  0
LINE
  8
0
 62
     3
 10
-109.164589
 20
112.978195
 11
-109.164589
 21
127.279236
  0
LINE
  8
0
 62
     3
 10
109.164581
 20
-112.978210
 11
185.436783
 21
-112.978210
  0
LINE
  8
0
 62
     5
 10
129.190811
 20
-116.416870
 11
136.517700
 21
-116.416870
  0
LINE
  8
0
 62
     5
 10
129.190811
 20
-122.914322
 11
135.411774
 21
-122.914322
  0
LINE
  8
0
 62
     5
 10
129.190811
 20
-124.573227
 11
137.623672
 21
-124.573227
  0
LINE
  8
0
 62
     5
 10
129.190811
 20
-118.075790
 11
135.411774
 21
-118.075790
  0
LINE
  8
0
 62
     5
 10
129.190811
 20
-116.416870
 11
129.190811
 21
-118.075790
  0
LINE
  8
0
 62
     5
 10
137.623672
 20
-117.522827
 11
137.623672
 21
-124.573227
  0
LINE
  8
0
 62
     5
 10
135.411774
 20
-118.075790
 11
135.411774
 21
-122.914322
  0
LINE
  8
0
 62
     5
 10
138.867828
 20
-116.416870
 11
138.867828
 21
-118.075790
  0
LINE
  8
0
 62
     5
 10
146.747696
 20
-118.075790
 11
146.747696
 21
-123.467316
  0
LINE
  8
0
 62
     5
 10
144.535812
 20
-118.075790
 11
144.535812
 21
-122.914322
  0
LINE
  8
0
 62
     5
 10
129.190811
 20
-122.914322
 11
129.190811
 21
-124.573227
  0
LINE
  8
0
 62
     5
 10
138.867828
 20
-116.416870
 11
141.053345
 21
-116.416870
  0
LINE
  8
0
 62
     5
 10
138.867828
 20
-124.573227
 11
140.585297
 21
-124.573227
  0
LINE
  8
0
 62
     5
 10
138.867752
 20
-124.573166
 11
140.608795
 21
-118.075737
  0
LINE
  8
0
 62
     5
 10
138.867828
 20
-118.075790
 11
140.608841
 21
-118.075790
  0
LINE
  8
0
 62
     5
 10
140.585434
 20
-124.573364
 11
142.326385
 21
-118.075928
  0
LINE
  8
0
 62
     5
 10
142.876877
 20
-122.914322
 11
144.535812
 21
-122.914322
  0
LINE
  8
0
 62
     5
 10
142.876907
 20
-122.914337
 11
143.321396
 21
-124.573227
  0
LINE
  8
0
 62
     5
 10
143.321426
 20
-124.573227
 11
145.641785
 21
-124.573227
  0
LINE
  8
0
 62
     5
 10
142.326279
 20
-118.075790
 11
144.535812
 21
-118.075790
  0
LINE
  8
0
 62
     5
 10
142.770782
 20
-116.416870
 11
145.088776
 21
-116.416870
  0
LINE
  8
0
 62
     5
 10
141.053421
 20
-116.416908
 11
141.383072
 21
-115.186577
  0
LINE
  8
0
 62
     5
 10
142.770691
 20
-116.416794
 11
143.100342
 21
-115.186401
  0
LINE
  8
0
 62
     5
 10
148.130142
 20
-116.416870
 11
150.756775
 21
-116.416870
  0
LINE
  8
0
 62
     5
 10
148.130142
 20
-118.075790
 11
154.581039
 21
-118.075790
  0
LINE
  8
0
 62
     5
 10
150.756775
 20
-124.573227
 11
152.968643
 21
-124.573227
  0
LINE
  8
0
 62
     5
 10
148.130142
 20
-116.416870
 11
148.130142
 21
-118.075790
  0
LINE
  8
0
 62
     5
 10
156.286499
 20
-121.083908
 11
156.286499
 21
-122.914322
  0
LINE
  8
0
 62
     5
 10
148.130035
 20
-122.914253
 11
150.756714
 21
-121.689400
  0
LINE
  8
0
 62
     5
 10
148.130325
 20
-121.084061
 11
154.581238
 21
-118.075935
  0
LINE
  8
0
 62
     5
 10
148.130142
 20
-121.083908
 11
148.130142
 21
-122.914322
  0
LINE
  8
0
 62
     5
 10
152.968597
 20
-121.367157
 11
156.286514
 21
-122.914276
  0
LINE
  8
0
 62
     5
 10
154.171204
 20
-120.097549
 11
156.286728
 21
-121.084045
  0
LINE
  8
0
 62
     5
 10
156.286499
 20
-117.522827
 11
156.286499
 21
-118.406387
  0
LINE
  8
0
 62
     5
 10
150.756775
 20
-115.186523
 11
150.756775
 21
-116.416870
  0
LINE
  8
0
 62
     5
 10
152.968643
 20
-115.186523
 11
152.968643
 21
-116.416870
  0
LINE
  8
0
 62
     5
 10
152.968643
 20
-116.416870
 11
155.180557
 21
-116.416870
  0
LINE
  8
0
 62
     5
 10
150.756775
 20
-121.689514
 11
150.756775
 21
-124.573227
  0
LINE
  8
0
 62
     5
 10
152.968643
 20
-121.367203
 11
152.968643
 21
-124.573227
  0
LINE
  8
0
 62
     5
 10
154.171204
 20
-120.097557
 11
155.648163
 21
-119.408852
  0
LINE
  8
0
 62
     5
 10
163.751663
 20
-115.684204
 11
165.410553
 21
-115.684204
  0
LINE
  8
0
 62
     5
 10
156.977722
 20
-119.110947
 11
156.977722
 21
-120.896240
  0
LINE
  8
0
 62
     5
 10
165.410553
 20
-115.684204
 11
165.410553
 21
-116.416870
  0
LINE
  8
0
 62
     5
 10
163.751663
 20
-115.684204
 11
163.751663
 21
-116.041687
  0
LINE
  8
0
 62
     5
 10
161.539749
 20
-119.081879
 11
161.539749
 21
-124.573227
  0
LINE
  8
0
 62
     5
 10
156.977844
 20
-119.111031
 11
163.403137
 21
-116.555603
  0
LINE
  8
0
 62
     5
 10
156.977783
 20
-120.896362
 11
161.539810
 21
-119.081955
  0
LINE
  8
0
 62
     5
 10
161.539749
 20
-124.573227
 11
163.751663
 21
-124.573227
  0
LINE
  8
0
 62
     5
 10
163.751663
 20
-118.202194
 11
163.751663
 21
-124.573227
  0
LINE
  8
0
 62
     5
 10
163.751831
 20
-118.202301
 11
164.364929
 21
-117.958435
  0
LINE
  8
0
 62
     5
 10
141.383057
 20
-115.186523
 11
143.100449
 21
-115.186523
  0
LINE
  8
0
 62
     5
 10
145.849136
 20
-115.186523
 11
146.554138
 21
-115.186523
  0
LINE
  8
0
 62
     5
 10
150.756775
 20
-115.186523
 11
152.968643
 21
-115.186523
  0
LINE
  8
0
 62
     5
 10
145.849136
 20
-116.292480
 11
146.554138
 21
-116.292480
  0
LINE
  8
0
 62
     5
 10
145.849136
 20
-115.186523
 11
145.849136
 21
-116.292480
  0
LINE
  8
0
 62
     5
 10
146.554138
 20
-115.186523
 11
146.554138
 21
-116.292480
  0
LINE
  8
0
 62
     5
 10
146.968918
 20
-115.186523
 11
146.968918
 21
-116.292480
  0
LINE
  8
0
 62
     5
 10
147.756912
 20
-115.186523
 11
147.756912
 21
-116.292480
  0
LINE
  8
0
 62
     5
 10
146.968918
 20
-115.186523
 11
147.756912
 21
-115.186523
  0
LINE
  8
0
 62
     5
 10
146.968918
 20
-116.292480
 11
147.756912
 21
-116.292480
  0
LINE
  8
0
 62
     3
 10
109.164581
 20
112.978195
 11
185.436783
 21
112.978195
  0
LINE
  8
0
 62
     3
 10
109.164581
 20
127.279236
 11
109.164581
 21
112.978195
  0
LINE
  8
0
 62
     3
 10
109.164581
 20
-112.978210
 11
109.164581
 21
-127.279236
  0
LINE
  8
0
  6
CENTER
 10
-98.000061
 20
-55.000038
 11
-29.000057
 21
-55.000038
  0
LINE
  8
0
  6
PHANTOM
 10
36.799965
 20
-51.500000
 11
36.799965
 21
-51.999992
  0
LINE
  8
0
  6
PHANTOM
 10
-93.000061
 20
-85.000015
 11
-34.000061
 21
-85.000015
  0
LINE
  8
0
  6
PHANTOM
 10
-95.500443
 20
-42.500015
 11
-36.500435
 21
-42.500015
  0
LINE
  8
0
  6
PHANTOM
 10
-89.085175
 20
-67.500015
 11
-65.000061
 21
-67.500015
  0
LINE
  8
0
  6
PHANTOM
 10
-95.400261
 20
-45.500015
 11
-36.400253
 21
-45.500015
  0
LINE
  8
0
  6
PHANTOM
 10
-89.489304
 20
-64.500015
 11
-65.000061
 21
-64.500015
  0
LINE
  8
0
  6
PHANTOM
 10
-90.210190
 20
-61.500015
 11
-65.000061
 21
-61.500015
  0
LINE
  8
0
  6
PHANTOM
 10
-94.996140
 20
-48.500015
 11
-35.996132
 21
-48.500015
  0
LINE
  8
0
  6
PHANTOM
 10
-90.362656
 20
-79.000038
 11
-31.362656
 21
-79.000038
  0
LINE
  8
0
  6
PHANTOM
 10
-93.000061
 20
-31.000038
 11
-34.000061
 21
-31.000038
  0
LINE
  8
0
  6
PHANTOM
 10
-50.000061
 20
-61.500015
 11
-31.210190
 21
-61.500015
  0
LINE
  8
0
  6
PHANTOM
 10
-50.000061
 20
-64.500015
 11
-30.489304
 21
-64.500015
  0
LINE
  8
0
  6
PHANTOM
 10
-50.000061
 20
-67.500015
 11
-30.085175
 21
-67.500015
  0
LINE
  8
0
  6
CENTER
 10
21.499969
 20
-54.999992
 11
91.499962
 21
-54.999992
  0
LINE
  8
0
  6
CENTER
 10
60.499962
 20
-25.999924
 11
60.499962
 21
-89.999992
  0
LINE
  8
0
  6
PHANTOM
 10
47.500023
 20
-84.999992
 11
57.250023
 21
-84.999992
  0
LINE
  8
0
  6
PHANTOM
 10
47.499962
 20
-78.999947
 11
47.499962
 21
-85.000023
  0
LINE
  8
0
  6
PHANTOM
 10
55.249962
 20
-78.700005
 11
55.249962
 21
-83.000008
  0
LINE
  8
0
  6
PHANTOM
 10
57.249962
 20
-83.000000
 11
57.249962
 21
-85.000000
  0
LINE
  8
0
  6
PHANTOM
 10
55.250023
 20
-82.999992
 11
57.250023
 21
-82.999992
  0
LINE
  8
0
  6
PHANTOM
 10
55.250023
 20
-78.699989
 11
60.499962
 21
-78.699989
  0
LINE
  8
0
  6
PHANTOM
 10
36.499962
 20
-34.999924
 11
36.499962
 21
-41.699982
  0
LINE
  8
0
  6
PHANTOM
 10
40.499962
 20
-30.999924
 11
60.499962
 21
-30.999924
  0
LINE
  8
0
  6
PHANTOM
 10
40.499962
 20
-78.999947
 11
47.499962
 21
-78.999947
  0
LINE
  8
0
  6
PHANTOM
 10
39.699959
 20
-64.199997
 11
39.699959
 21
-68.300003
  0
LINE
  8
0
  6
PHANTOM
 10
36.799969
 20
-58.500000
 11
36.499966
 21
-59.019623
  0
LINE
  8
0
  6
PHANTOM
 10
36.799957
 20
-51.499989
 11
36.499954
 21
-50.980370
  0
LINE
  8
0
  6
PHANTOM
 10
36.499962
 20
-59.019623
 11
36.499962
 21
-64.199997
  0
LINE
  8
0
  6
PHANTOM
 10
36.499962
 20
-68.300003
 11
36.499962
 21
-70.999992
  0
LINE
  8
0
  6
PHANTOM
 10
36.499962
 20
-45.799988
 11
36.499962
 21
-50.980377
  0
LINE
  8
0
  6
PHANTOM
 10
36.799965
 20
-58.000023
 11
36.799965
 21
-58.500000
  0
LINE
  8
0
  6
PHANTOM
 10
36.799965
 20
-53.000000
 11
36.799965
 21
-57.000000
  0
LINE
  8
0
  6
PHANTOM
 10
36.499962
 20
-72.999969
 11
36.499962
 21
-74.999947
  0
LINE
  8
0
  6
PHANTOM
 10
39.699959
 20
-45.799988
 11
39.699959
 21
-41.699982
  0
LINE
  8
0
  6
CENTER
 10
-98.000061
 20
40.510746
 11
-29.000053
 21
40.510746
  0
LINE
  8
0
  6
PHANTOM
 10
-93.000061
 20
16.510746
 11
-65.999954
 21
16.510746
  0
LINE
  8
0
  6
PHANTOM
 10
-31.700378
 20
32.010746
 11
-90.700378
 21
32.010746
  0
LINE
  8
0
  6
PHANTOM
 10
-43.999954
 20
16.510746
 11
-34.000053
 21
16.510746
  0
LINE
  8
0
 10
-65.000069
 20
-53.500046
 11
-50.000069
 21
-53.500046
  0
LINE
  8
0
 10
-65.000069
 20
-74.500046
 11
-50.000069
 21
-74.500046
  0
LINE
  8
0
 10
-50.000069
 20
-74.500046
 11
-50.000069
 21
-51.500046
  0
LINE
  8
0
 10
-65.000069
 20
-74.500046
 11
-65.000069
 21
-53.500046
  0
LINE
  8
0
  6
CENTER
 10
-57.500069
 20
-69.000046
 11
-57.500069
 21
-75.000046
  0
LINE
  8
0
  6
CENTER
 10
-60.500069
 20
-72.000046
 11
-54.500069
 21
-72.000046
  0
LINE
  8
0
 10
-57.500053
 20
-72.866104
 11
-56.750053
 21
-72.433090
  0
LINE
  8
0
 10
-56.750061
 20
-72.433052
 11
-56.750061
 21
-71.567032
  0
LINE
  8
0
 10
-56.750080
 20
-71.567062
 11
-57.500080
 21
-71.134048
  0
LINE
  8
0
 10
-57.500053
 20
-71.134048
 11
-58.250050
 21
-71.567062
  0
LINE
  8
0
 10
-58.250061
 20
-71.567039
 11
-58.250061
 21
-72.433060
  0
LINE
  8
0
 10
-58.250076
 20
-72.433075
 11
-57.500072
 21
-72.866089
  0
LINE
  8
0
 10
-44.000069
 20
-58.500046
 11
-44.000069
 21
-51.500046
  0
LINE
  8
0
 10
-66.000069
 20
-58.500046
 11
-66.000069
 21
-51.500046
  0
LINE
  8
0
 10
-68.000069
 20
-57.500046
 11
-68.000069
 21
-52.500046
  0
LINE
  8
0
 10
-66.000069
 20
-51.500046
 11
-44.000069
 21
-51.500046
  0
LINE
  8
0
 10
-66.000069
 20
-58.500046
 11
-65.000069
 21
-58.500046
  0
LINE
  8
0
 10
-50.000069
 20
-58.500046
 11
-44.000069
 21
-58.500046
  0
LINE
  8
0
 10
-60.000069
 20
-53.500046
 11
-60.000069
 21
-51.500046
  0
LINE
  8
0
 10
-68.000069
 20
-57.500046
 11
-66.000069
 21
-57.500046
  0
LINE
  8
0
 10
-68.000069
 20
-52.500046
 11
-66.000069
 21
-52.500046
  0
LINE
  8
0
  6
CENTER
 10
-47.000069
 20
-51.000046
 11
-47.000069
 21
-59.000046
  0
LINE
  8
0
 10
-83.000069
 20
-53.300041
 11
-68.000069
 21
-53.300041
  0
LINE
  8
0
 10
-83.000069
 20
-56.700050
 11
-68.000069
 21
-56.700050
  0
LINE
  8
0
 10
-64.999969
 20
6.510729
 11
-49.999969
 21
6.510729
  0
LINE
  8
0
 10
-64.999969
 20
9.510729
 11
-64.999969
 21
6.510729
  0
LINE
  8
0
 10
-82.999969
 20
11.460728
 11
-67.999969
 21
11.460728
  0
LINE
  8
0
 10
-82.999969
 20
14.860731
 11
-67.999969
 21
14.860731
  0
LINE
  8
0
 10
-65.999969
 20
9.510729
 11
-43.999969
 21
9.510729
  0
LINE
  8
0
 10
-65.999969
 20
16.810728
 11
-43.999969
 21
16.810728
  0
LINE
  8
0
 10
-65.999969
 20
16.810728
 11
-65.999969
 21
9.510729
  0
LINE
  8
0
 10
-67.999969
 20
15.660727
 11
-67.999969
 21
10.660728
  0
LINE
  8
0
 10
-43.999969
 20
16.810728
 11
-43.999969
 21
9.510729
  0
LINE
  8
0
 10
-67.999969
 20
10.660728
 11
-65.999969
 21
10.660728
  0
LINE
  8
0
 10
-67.999969
 20
15.660727
 11
-65.999969
 21
15.660727
  0
LINE
  8
0
 10
-49.999969
 20
16.810728
 11
-49.999969
 21
6.510729
  0
LINE
  8
0
 10
-59.999969
 20
16.810728
 11
-59.999969
 21
9.510729
  0
LINE
  8
0
  6
CENTER
 10
-46.999969
 20
12.510729
 11
-46.999969
 21
5.310728
  0
LINE
  8
0
 10
31.522743
 20
-74.500023
 11
29.824081
 21
-74.500023
  0
LINE
  8
0
 10
36.299950
 20
-58.500023
 11
29.499956
 21
-58.500023
  0
LINE
  8
0
 10
28.867279
 20
-53.500023
 11
28.100979
 21
-53.500023
  0
LINE
  8
0
 10
29.222752
 20
-58.800011
 11
29.222752
 21
-56.825325
  0
LINE
  8
0
 10
31.522753
 20
-58.800018
 11
29.222750
 21
-58.800018
  0
LINE
  8
0
 10
31.522755
 20
-58.800011
 11
31.522755
 21
-58.500008
  0
LINE
  8
0
 10
32.522755
 20
-73.500008
 11
32.522755
 21
-70.675117
  0
LINE
  8
0
 10
34.022755
 20
-62.427132
 11
34.022755
 21
-61.572884
  0
LINE
  8
0
 10
34.022755
 20
-58.927132
 11
34.022755
 21
-58.500008
  0
LINE
  8
0
 10
36.799953
 20
-52.000000
 11
36.799953
 21
-53.000008
  0
LINE
  8
0
 10
29.499958
 20
-51.500008
 11
29.499958
 21
-58.500008
  0
LINE
  8
0
 10
36.299957
 20
-51.500023
 11
29.499960
 21
-51.500023
  0
LINE
  8
0
 10
36.299946
 20
-51.500011
 11
36.799946
 21
-52.000011
  0
LINE
  8
0
 10
36.299988
 20
-58.500053
 11
36.799988
 21
-58.000053
  0
LINE
  8
0
 10
35.999939
 20
-73.500023
 11
32.522743
 21
-73.500023
  0
LINE
  8
0
 10
35.999939
 20
-70.500023
 11
32.538193
 21
-70.500023
  0
LINE
  8
0
 10
36.499947
 20
-71.000008
 11
35.999947
 21
-70.500008
  0
LINE
  8
0
 10
36.499924
 20
-72.999992
 11
35.999920
 21
-73.499992
  0
LINE
  8
0
 10
35.999958
 20
-70.500008
 11
35.999958
 21
-73.500008
  0
LINE
  8
0
 10
36.270439
 20
-73.229515
 11
32.522743
 21
-73.229515
  0
LINE
  8
0
 10
36.270439
 20
-70.770515
 11
32.522743
 21
-70.770515
  0
LINE
  8
0
 10
36.499950
 20
-71.000008
 11
36.499950
 21
-73.000000
  0
LINE
  8
0
 10
36.824951
 20
-67.613892
 11
33.022747
 21
-69.809097
  0
LINE
  8
0
 10
36.799953
 20
-57.000008
 11
36.799953
 21
-58.000031
  0
LINE
  8
0
  6
CENTER
 10
39.622742
 20
-72.000023
 11
24.499941
 21
-72.000023
  0
ARC
  8
0
 62
     5
 10
136.517700
 20
-117.522827
 40
1.105942
 50
0.000000
 51
90.000000
  0
ARC
  8
0
 62
     5
 10
145.641785
 20
-123.467316
 40
1.105949
 50
270.000000
 51
0.000000
  0
ARC
  8
0
 62
     5
 10
145.088776
 20
-118.075790
 40
1.658920
 50
0.000000
 51
90.000000
  0
ARC
  8
0
 62
     5
 10
155.180557
 20
-117.522827
 40
1.105942
 50
0.000000
 51
90.000000
  0
ARC
  8
0
 62
     5
 10
155.180557
 20
-118.406387
 40
1.105945
 50
294.999969
 51
0.000000
  0
ARC
  8
0
 62
     5
 10
163.751663
 20
-116.416870
 40
1.658920
 50
291.688385
 51
0.000000
  0
ARC
  8
0
 62
     5
 10
163.198654
 20
-116.041687
 40
0.552973
 50
291.688965
 51
0.000000
  0
ARC
  8
0
  6
PHANTOM
 10
-6.504601
 20
-43.000038
 40
30.000000
 50
156.421829
 51
203.578140
  0
ARC
  8
0
  6
PHANTOM
 10
-59.980827
 20
-70.000031
 40
30.000000
 50
330.000031
 51
29.999983
  0
ARC
  8
0
  6
PHANTOM
 10
-65.504608
 20
-43.000038
 40
30.000002
 50
156.421844
 51
203.578140
  0
ARC
  8
0
  6
PHANTOM
 10
-118.980835
 20
-70.000031
 40
30.000002
 50
330.000031
 51
29.999983
  0
ARC
  8
0
  6
PHANTOM
 10
40.499962
 20
-34.999924
 40
4.000000
 50
90.000000
 51
179.999939
  0
ARC
  8
0
  6
PHANTOM
 10
40.499962
 20
-74.999947
 40
4.000000
 50
180.000000
 51
270.000000
  0
ARC
  8
0
  6
PHANTOM
 10
37.299957
 20
-64.199997
 40
0.799999
 50
180.000000
 51
0.000000
  0
ARC
  8
0
  6
PHANTOM
 10
38.899963
 20
-64.199997
 40
0.799999
 50
0.000000
 51
180.000000
  0
ARC
  8
0
  6
PHANTOM
 10
38.899963
 20
-45.799988
 40
0.799999
 50
180.000000
 51
0.000000
  0
ARC
  8
0
  6
PHANTOM
 10
37.299957
 20
-45.799988
 40
0.799999
 50
0.000000
 51
180.000000
  0
ARC
  8
0
  6
PHANTOM
 10
37.299957
 20
-41.699982
 40
0.799999
 50
180.000000
 51
0.000000
  0
ARC
  8
0
  6
PHANTOM
 10
38.899963
 20
-41.699982
 40
0.799999
 50
0.000000
 51
180.000000
  0
ARC
  8
0
  6
PHANTOM
 10
37.299957
 20
-68.300003
 40
0.799998
 50
91.757553
 51
180.000000
  0
ARC
  8
0
  6
PHANTOM
 10
-61.495514
 20
28.510746
 40
29.999998
 50
336.421814
 51
23.578180
  0
ARC
  8
0
  6
PHANTOM
 10
-120.495514
 20
28.510746
 40
30.000000
 50
336.421814
 51
23.578180
  0
CIRCLE
  8
0
 10
-57.500069
 20
-72.000046
 40
1.500000
  0
ARC
  8
0
 10
-84.810455
 20
-55.850044
 40
1.999999
 50
334.849365
 51
25.150625
  0
CIRCLE
  8
0
 10
-47.000069
 20
-55.000046
 40
2.000000
  0
ARC
  8
0
 10
-81.189682
 20
-54.150047
 40
1.999999
 50
154.849380
 51
205.150620
  0
CIRCLE
  8
0
 10
-57.500069
 20
-72.000046
 40
1.229500
  0
ARC
  8
0
 10
-81.189590
 20
14.010729
 40
2.000000
 50
154.849350
 51
205.150650
  0
ARC
  8
0
 10
-46.999969
 20
10.577394
 40
2.266667
 50
208.072479
 51
331.927490
  0
ARC
  8
0
 10
-84.810364
 20
12.310728
 40
2.000000
 50
334.849335
 51
25.150673
  0
ARC
  8
0
 10
31.522743
 20
-73.500008
 40
1.000000
 50
270.000000
 51
0.000000
  0
ARC
  8
0
 10
29.824081
 20
-72.900009
 40
1.600000
 50
191.334579
 51
270.000000
  0
ARC
  8
0
 10
34.922752
 20
-60.250008
 40
1.600001
 50
124.228905
 51
235.771088
  0
ARC
  8
0
 10
34.922752
 20
-63.750008
 40
1.600001
 50
124.228905
 51
273.972076
  0
ARC
  8
0
 10
28.100979
 20
-55.100006
 40
1.599998
 50
90.000000
 51
179.723923
  0
ARC
  8
0
 10
38.899944
 20
-68.300011
 40
0.799996
 50
181.735138
 51
1.145916
  0
ARC
  8
0
 10
37.249950
 20
-68.350006
 40
0.849999
 50
1.735938
 51
119.999939
  0
ARC
  8
0
 10
33.522743
 20
-70.675117
 40
1.000002
 50
119.999931
 51
180.000000
  0
ARC
  8
0
 10
36.399937
 20
-68.350006
 40
3.299999
 50
1.145628
 51
114.459312
  0
ARC
  8
0
 10
116.499969
 20
-55.526031
 40
90.000000
 50
179.723907
 51
191.334625
  0
ARC
  8
0
 10
40.549953
 20
-55.000008
 40
4.250000
 50
151.927505
 51
208.072449
  0
ARC
  8
0
 10
30.566624
 20
-55.000008
 40
2.266666
 50
118.072464
 51
241.927490
  0
TEXT
  8
0
 10
113.360985
 20
117.310349
 40
4.242641
  1
DATE : MAY ,1991
 50
0.000000
 41
1.052631
 51
0.000000
  7
STANDARD
  0
TEXT
  8
0
 10
-182.764969
 20
116.628723
 40
5.000000
  1
ORCA SENSOR SW
 50
0.000000
 41
1.052632
 51
0.000000
  7
STANDARD
  0
TEXT
  8
0
 10
21.598932
 20
104.478195
 40
5.000000
  1
SW : ZG530
 50
0.000000
 41
1.052632
 51
0.000000
  7
STANDARD
  0
TEXT
  8
0
 10
21.598932
 20
95.478195
 40
5.000000
  1
     ZG553
 50
0.000000
 41
1.052632
 51
0.000000
  7
STANDARD
  0
TEXT
  8
0
 10
-78.401070
 20
104.478195
 40
5.000000
  1
MODEL : ORCA 32
 50
0.000000
 41
1.052632
 51
0.000000
  7
STANDARD
  0
TEXT
  8
0
 10
-78.401070
 20
95.478195
 40
5.000000
  1
        ORCA 40
 50
0.000000
 41
1.052632
 51
0.000000
  7
STANDARD
  0
TEXT
  8
0
 10
-78.401070
 20
86.478195
 40
5.000000
  1
        ORCA 50
 50
0.000000
 41
1.052632
 51
0.000000
  7
STANDARD
  0
TEXT
  8
0
 10
21.598932
 20
68.478195
 40
5.000000
  1
     CS5M
 50
0.000000
 41
1.052632
 51
0.000000
  7
STANDARD
  0
TEXT
  8
0
 10
21.598932
 20
86.478195
 40
5.000000
  1
     CS3M
 50
0.000000
 41
1.052632
 51
0.000000
  7
STANDARD
  0
TEXT
  8
0
 10
21.598932
 20
77.478195
 40
5.000000
  1
     CS4M
 50
0.000000
 41
1.052632
 51
0.000000
  7
STANDARD
  0
ENDSEC
  0
EOF
