  0
SECTION
  2
HEADER
  0
ENDSEC
  0
SECTION
  2
TABLES
  0
TABLE
  2
LTYPE
 70
     4
  0
LTYPE
  2
CONTINUOUS
 70
    64
  3
Solid line
 72
    65
 73
     0
 40
0.000000
  0
LTYPE
  2
DASHED
 70
    64
  3
__ __ __ __ __ __ __ __ __ __ __ __ __ __ __
 72
    65
 73
     2
 40
3.500000
 49
2.000000
 49
-1.500000
  0
LTYPE
  2
CENTER
 70
    64
  3
____ _ ____ _ ____ _ ____ _ ____ _ ____ _ ____
 72
    65
 73
     4
 40
17.500000
 49
13.000000
 49
-1.500000
 49
1.500000
 49
-1.500000
  0
LTYPE
  2
PHANTOM
 70
    64
  3
_____ _ _ _____ _ _ _____ _ _ _____ _ _ ____  
 72
    65
 73
     6
 40
15.500000
 49
8.000000
 49
-1.500000
 49
1.500000
 49
-1.500000
 49
1.500000
 49
-1.500000
  0
LTYPE
  2
DASHED1
 70
    64
  3
__ __ __ __ __ __ __ __ __ __ __ __ __ __ __
 72
    65
 73
     2
 40
1.500000
 49
1.000000
 49
-0.500000
  0
LTYPE
  2
DASHED2
 70
    64
  3
__ __ __ __ __ __ __ __ __ __ __ __ __ __ __
 72
    65
 73
     2
 40
3.500000
 49
2.500000
 49
-1.000000
  0
LTYPE
  2
DASHED3
 70
    64
  3
__ __ __ __ __ __ __ __ __ __ __ __ __ __ __
 72
    65
 73
     2
 40
6.000000
 49
4.000000
 49
-2.000000
  0
LTYPE
  2
DASHED4
 70
    64
  3
__ __ __ __ __ __ __ __ __ __ __ __ __ __ __
 72
    65
 73
     2
 40
12.000000
 49
10.000000
 49
-2.000000
  0
LTYPE
  2
DASHED5
 70
    64
  3
__ __ __ __ __ __ __ __ __ __ __ __ __ __ __
 72
    65
 73
     2
 40
17.000000
 49
15.000000
 49
-2.000000
  0
LTYPE
  2
DASHED6
 70
    64
  3
__ __ __ __ __ __ __ __ __ __ __ __ __ __ __
 72
    65
 73
     2
 40
29.000000
 49
27.000000
 49
-2.000000
  0
LTYPE
  2
PHANTOM1
 70
    64
  3
_____ _ _ _____ _ _ _____ _ _ _____ _ _ ____  
 72
    65
 73
     6
 40
31.000000
 49
25.000000
 49
-1.500000
 49
1.000000
 49
-1.000000
 49
1.000000
 49
-1.500000
  0
LTYPE
  2
PHANTOM2
 70
    64
  3
_____ _ _ _____ _ _ _____ _ _ _____ _ _ ____  
 72
    65
 73
     6
 40
36.000000
 49
27.000000
 49
-1.500000
 49
2.500000
 49
-1.000000
 49
2.500000
 49
-1.500000
  0
LTYPE
  2
PHANTOM3
 70
    64
  3
_____ _ _ _____ _ _ _____ _ _ _____ _ _ ____  
 72
    65
 73
     6
 40
78.000000
 49
64.000000
 49
-2.000000
 49
4.000000
 49
-2.000000
 49
4.000000
 49
-2.000000
  0
LTYPE
  2
CENTER1
 70
    64
  3
____ _ ____ _ ____ _ ____ _ ____ _ ____ _ ____
 72
    65
 73
     4
 40
19.000000
 49
14.000000
 49
-1.000000
 49
3.000000
 49
-1.000000
  0
LTYPE
  2
CENTER2
 70
    64
  3
____ _ ____ _ ____ _ ____ _ ____ _ ____ _ ____
 72
    65
 73
     4
 40
28.500000
 49
25.000000
 49
-1.000000
 49
1.500000
 49
-1.000000
  0
LTYPE
  2
CENTER3
 70
    64
  3
____ _ ____ _ ____ _ ____ _ ____ _ ____ _ ____
 72
    65
 73
     4
 40
31.500000
 49
27.000000
 49
-1.000000
 49
2.500000
 49
-1.000000
  0
LTYPE
  2
CENTER4
 70
    64
  3
____ _ ____ _ ____ _ ____ _ ____ _ ____ _ ____
 72
    65
 73
     4
 40
50.000000
 49
45.000000
 49
-1.000000
 49
3.000000
 49
-1.000000
  0
LTYPE
  2
CENTER5
 70
    64
  3
____ _ ____ _ ____ _ ____ _ ____ _ ____ _ ____
 72
    65
 73
     4
 40
100.000000
 49
92.000000
 49
-2.000000
 49
4.000000
 49
-2.000000
  0
LTYPE
  2
SBK1
 70
    64
  3
______ _ _ _ ______ _ _ _ ______ _ _ _ _____  
 72
    65
 73
     8
 40
60.500000
 49
45.000000
 49
-2.000000
 49
2.500000
 49
-2.000000
 49
2.500000
 49
-2.000000
 49
2.500000
 49
-2.000000
  0
LTYPE
  2
SBK2
 70
    64
  3
______ _ _ _ ______ _ _ _ ______ _ _ _ _____  
 72
    65
 73
     8
 40
84.000000
 49
64.000000
 49
-2.000000
 49
4.000000
 49
-2.000000
 49
4.000000
 49
-2.000000
 49
4.000000
 49
-2.000000
  0
LTYPE
  2
STCH
 70
    64
  3
__ __ __ __ __ __ __ __ __ __ __ __ __ __ __
 72
    65
 73
     2
 40
3.000000
 49
1.000000
 49
-2.000000
  0
LTYPE
  2
MTCH
 70
    64
  3
_____ _ _ _____ _ _ _____ _ _ _____ _ _ ____  
 72
    65
 73
     6
 40
80.000000
 49
66.000000
 49
-2.000000
 49
4.000000
 49
-2.000000
 49
4.000000
 49
-2.000000
  0
ENDTAB
  0
TABLE
  2
LAYER
 70
     1
  0
LAYER
  2
0
 70
     0
 62
     7
  6
CONTINUOUS
  0
ENDTAB
  0
TABLE
  2
STYLE
 70
     1
  0
STYLE
  2
STANDARD
 70
     0
 40
0.000000
 41
1.000000
 50
0.000000
 71
     0
 42
0.200000
  3
txt
  4
BIGFONT
  0
ENDTAB
  0
TABLE
  2
VIEW
 70
     0
  0
ENDTAB
  0
ENDSEC
  0
SECTION
  2
BLOCKS
  0
ENDSEC
  0
SECTION
  2
ENTITIES
  0
POINT
  8
0
 10
-191.750031
 20
330.000000
  0
POINT
  8
0
 10
-191.750076
 20
99.999962
  0
POINT
  8
0
 10
178.249939
 20
99.999916
  0
POINT
  8
0
 10
-191.750137
 20
-139.115051
  0
POINT
  8
0
 10
-191.750015
 20
-389.115021
  0
POINT
  8
0
 10
178.250000
 20
-389.114990
  0
POINT
  8
0
 10
-76.750076
 20
99.999962
  0
POINT
  8
0
 10
-76.750031
 20
330.000000
  0
POINT
  8
0
 10
208.249969
 20
99.999916
  0
POINT
  8
0
 10
-71.750015
 20
-389.115021
  0
POINT
  8
0
 10
-71.750137
 20
-139.115051
  0
POINT
  8
0
 10
215.249969
 20
-389.114990
  0
LINE
  8
0
 62
     3
 10
-741.750000
 20
-509.114990
 11
741.750000
 21
-509.114990
  0
LINE
  8
0
 62
     3
 10
-741.750000
 20
509.114990
 11
741.750000
 21
509.114990
  0
LINE
  8
0
 62
     3
 10
741.750000
 20
509.114990
 11
741.750000
 21
-509.114990
  0
LINE
  8
0
 62
     3
 10
-741.750000
 20
509.114990
 11
-741.750000
 21
-509.114990
  0
LINE
  8
0
 62
     5
 10
516.764709
 20
-465.668823
 11
546.072388
 21
-465.668823
  0
LINE
  8
0
 62
     5
 10
516.764709
 20
-491.658691
 11
541.648621
 21
-491.658691
  0
LINE
  8
0
 62
     5
 10
516.764709
 20
-498.294342
 11
550.496216
 21
-498.294342
  0
LINE
  8
0
 62
     5
 10
516.764709
 20
-472.304474
 11
541.648621
 21
-472.304474
  0
LINE
  8
0
 62
     5
 10
516.764709
 20
-465.668823
 11
516.764709
 21
-472.304474
  0
LINE
  8
0
 62
     5
 10
550.496216
 20
-470.092651
 11
550.496216
 21
-498.294342
  0
LINE
  8
0
 62
     5
 10
541.648621
 20
-472.304474
 11
541.648621
 21
-491.658691
  0
LINE
  8
0
 62
     5
 10
555.472900
 20
-465.668823
 11
555.472900
 21
-472.304474
  0
LINE
  8
0
 62
     5
 10
586.992432
 20
-472.304474
 11
586.992432
 21
-493.870697
  0
LINE
  8
0
 62
     5
 10
578.144897
 20
-472.304474
 11
578.144897
 21
-491.658691
  0
LINE
  8
0
 62
     5
 10
516.764709
 20
-491.658691
 11
516.764709
 21
-498.294342
  0
LINE
  8
0
 62
     5
 10
555.472900
 20
-465.668823
 11
564.214966
 21
-465.668823
  0
LINE
  8
0
 62
     5
 10
555.472900
 20
-498.294342
 11
562.342773
 21
-498.294342
  0
LINE
  8
0
 62
     5
 10
555.472717
 20
-498.294098
 11
562.436890
 21
-472.304413
  0
LINE
  8
0
 62
     5
 10
555.472900
 20
-472.304474
 11
562.436951
 21
-472.304474
  0
LINE
  8
0
 62
     5
 10
562.343140
 20
-498.294647
 11
569.307007
 21
-472.304871
  0
LINE
  8
0
 62
     5
 10
571.509094
 20
-491.658691
 11
578.144897
 21
-491.658691
  0
LINE
  8
0
 62
     5
 10
571.508972
 20
-491.658600
 11
573.286804
 21
-498.294128
  0
LINE
  8
0
 62
     5
 10
573.287354
 20
-498.294342
 11
582.568787
 21
-498.294342
  0
LINE
  8
0
 62
     5
 10
569.306763
 20
-472.304474
 11
578.144897
 21
-472.304474
  0
LINE
  8
0
 62
     5
 10
571.084717
 20
-465.668823
 11
580.356750
 21
-465.668823
  0
LINE
  8
0
 62
     5
 10
564.215088
 20
-465.668854
 11
565.533630
 21
-460.747498
  0
LINE
  8
0
 62
     5
 10
571.084290
 20
-465.668488
 11
572.402893
 21
-460.746979
  0
LINE
  8
0
 62
     5
 10
592.522278
 20
-465.668823
 11
603.028809
 21
-465.668823
  0
LINE
  8
0
 62
     5
 10
592.522278
 20
-472.304474
 11
618.325867
 21
-472.304474
  0
LINE
  8
0
 62
     5
 10
603.028809
 20
-498.294342
 11
611.876221
 21
-498.294342
  0
LINE
  8
0
 62
     5
 10
592.522278
 20
-465.668823
 11
592.522278
 21
-472.304474
  0
LINE
  8
0
 62
     5
 10
625.147827
 20
-484.336975
 11
625.147827
 21
-491.658691
  0
LINE
  8
0
 62
     5
 10
592.521790
 20
-491.658447
 11
603.028564
 21
-486.759003
  0
LINE
  8
0
 62
     5
 10
592.522827
 20
-484.337433
 11
618.326355
 21
-472.304932
  0
LINE
  8
0
 62
     5
 10
592.522278
 20
-484.336975
 11
592.522278
 21
-491.658691
  0
LINE
  8
0
 62
     5
 10
611.876038
 20
-485.469879
 11
625.147766
 21
-491.658478
  0
LINE
  8
0
 62
     5
 10
616.686646
 20
-480.391724
 11
625.148682
 21
-484.337585
  0
LINE
  8
0
 62
     5
 10
625.147827
 20
-470.092651
 11
625.147827
 21
-473.626892
  0
LINE
  8
0
 62
     5
 10
603.028809
 20
-460.747406
 11
603.028809
 21
-465.668823
  0
LINE
  8
0
 62
     5
 10
611.876221
 20
-460.747406
 11
611.876221
 21
-465.668823
  0
LINE
  8
0
 62
     5
 10
611.876221
 20
-465.668823
 11
620.723999
 21
-465.668823
  0
LINE
  8
0
 62
     5
 10
603.028809
 20
-486.759460
 11
603.028809
 21
-498.294342
  0
LINE
  8
0
 62
     5
 10
611.876221
 20
-485.470184
 11
611.876221
 21
-498.294342
  0
LINE
  8
0
 62
     5
 10
616.686707
 20
-480.391937
 11
622.594543
 21
-477.637115
  0
LINE
  8
0
 62
     5
 10
655.008484
 20
-462.738159
 11
661.644043
 21
-462.738159
  0
LINE
  8
0
 62
     5
 10
627.912720
 20
-476.445160
 11
627.912720
 21
-483.586365
  0
LINE
  8
0
 62
     5
 10
661.644043
 20
-462.738159
 11
661.644043
 21
-465.668823
  0
LINE
  8
0
 62
     5
 10
655.008484
 20
-462.738159
 11
655.008484
 21
-464.168060
  0
LINE
  8
0
 62
     5
 10
646.160828
 20
-476.328888
 11
646.160828
 21
-498.294342
  0
LINE
  8
0
 62
     5
 10
627.912903
 20
-476.445496
 11
653.614319
 21
-466.223785
  0
LINE
  8
0
 62
     5
 10
627.912598
 20
-483.586365
 11
646.160706
 21
-476.328796
  0
LINE
  8
0
 62
     5
 10
646.160828
 20
-498.294342
 11
655.008484
 21
-498.294342
  0
LINE
  8
0
 62
     5
 10
655.008484
 20
-472.810120
 11
655.008484
 21
-498.294342
  0
LINE
  8
0
 62
     5
 10
655.009155
 20
-472.810547
 11
657.461609
 21
-471.835114
  0
LINE
  8
0
 62
     5
 10
565.533691
 20
-460.747406
 11
572.403381
 21
-460.747406
  0
LINE
  8
0
 62
     5
 10
583.398193
 20
-460.747406
 11
586.218201
 21
-460.747406
  0
LINE
  8
0
 62
     5
 10
603.028809
 20
-460.747406
 11
611.876221
 21
-460.747406
  0
LINE
  8
0
 62
     5
 10
583.398193
 20
-465.171234
 11
586.218201
 21
-465.171234
  0
LINE
  8
0
 62
     5
 10
583.398193
 20
-460.747406
 11
583.398193
 21
-465.171234
  0
LINE
  8
0
 62
     5
 10
586.218201
 20
-460.747406
 11
586.218201
 21
-465.171234
  0
LINE
  8
0
 62
     5
 10
587.877319
 20
-460.747406
 11
587.877319
 21
-465.171234
  0
LINE
  8
0
 62
     5
 10
591.029297
 20
-460.747406
 11
591.029297
 21
-465.171234
  0
LINE
  8
0
 62
     5
 10
587.877319
 20
-460.747406
 11
591.029297
 21
-460.747406
  0
LINE
  8
0
 62
     5
 10
587.877319
 20
-465.171234
 11
591.029297
 21
-465.171234
  0
LINE
  8
0
 62
     3
 10
436.659546
 20
-451.914154
 11
436.659546
 21
-509.118408
  0
LINE
  8
0
 62
     3
 10
436.659546
 20
-451.914154
 11
741.749207
 21
-451.914154
  0
LINE
  8
0
 62
     3
 10
436.659546
 20
509.118408
 11
436.659546
 21
451.914032
  0
LINE
  8
0
 62
     3
 10
436.659546
 20
451.914032
 11
741.749207
 21
451.914032
  0
LINE
  8
0
 62
     3
 10
-317.483978
 20
451.914032
 11
-317.483978
 21
509.118408
  0
LINE
  8
0
 62
     3
 10
-741.749207
 20
451.914032
 11
-317.483978
 21
451.914032
  0
LINE
  8
0
 10
-741.749207
 20
-0.000061
 11
741.750000
 21
-0.000061
  0
LINE
  8
0
  6
PHANTOM
 10
-306.750000
 20
64.999908
 11
-76.750000
 21
64.999908
  0
LINE
  8
0
  6
CENTER
 10
-191.750000
 20
170.999908
 11
-191.750000
 21
59.999908
  0
LINE
  8
0
  6
PHANTOM
 10
-288.750000
 20
133.999954
 11
-94.750000
 21
133.999954
  0
LINE
  8
0
  6
PHANTOM
 10
-286.750000
 20
156.999954
 11
-196.750000
 21
156.999954
  0
LINE
  8
0
  6
PHANTOM
 10
-286.750000
 20
156.999954
 11
-286.750000
 21
133.999954
  0
LINE
  8
0
  6
PHANTOM
 10
-96.750000
 20
156.999954
 11
-96.750000
 21
133.999954
  0
LINE
  8
0
  6
CENTER
 10
-226.750000
 20
148.999954
 11
-211.750000
 21
148.999954
  0
LINE
  8
0
  6
CENTER
 10
-219.250000
 20
156.499954
 11
-219.250000
 21
141.499954
  0
LINE
  8
0
  6
CENTER
 10
-255.750000
 20
148.999954
 11
-237.750000
 21
148.999954
  0
LINE
  8
0
  6
CENTER
 10
-246.750000
 20
157.999954
 11
-246.750000
 21
139.999954
  0
LINE
  8
0
  6
PHANTOM
 10
-249.250046
 20
147.556595
 11
-246.750076
 21
146.113235
  0
LINE
  8
0
  6
PHANTOM
 10
-246.750046
 20
146.113281
 11
-244.250046
 21
147.556656
  0
LINE
  8
0
  6
PHANTOM
 10
-244.249969
 20
147.556564
 11
-244.249969
 21
150.443314
  0
LINE
  8
0
  6
PHANTOM
 10
-244.250076
 20
150.443359
 11
-246.750046
 21
151.886719
  0
LINE
  8
0
  6
PHANTOM
 10
-246.750092
 20
151.886902
 11
-249.250122
 21
150.443512
  0
LINE
  8
0
  6
PHANTOM
 10
-249.249969
 20
150.443344
 11
-249.249969
 21
147.556595
  0
LINE
  8
0
  6
CENTER
 10
-156.750000
 20
148.999954
 11
-171.750000
 21
148.999954
  0
LINE
  8
0
  6
CENTER
 10
-164.250000
 20
156.499954
 11
-164.250000
 21
141.499954
  0
LINE
  8
0
  6
CENTER
 10
-127.750000
 20
148.999954
 11
-145.750000
 21
148.999954
  0
LINE
  8
0
  6
CENTER
 10
-136.750000
 20
157.999954
 11
-136.750000
 21
139.999954
  0
LINE
  8
0
  6
PHANTOM
 10
-134.249908
 20
147.556488
 11
-136.749908
 21
146.113113
  0
LINE
  8
0
  6
PHANTOM
 10
-136.749969
 20
146.113251
 11
-139.249939
 21
147.556610
  0
LINE
  8
0
  6
PHANTOM
 10
-139.250031
 20
147.556564
 11
-139.250031
 21
150.443314
  0
LINE
  8
0
  6
PHANTOM
 10
-139.249969
 20
150.443176
 11
-136.749969
 21
151.886551
  0
LINE
  8
0
  6
PHANTOM
 10
-136.749954
 20
151.886780
 11
-134.249924
 21
150.443390
  0
LINE
  8
0
  6
PHANTOM
 10
-134.250031
 20
150.443344
 11
-134.250031
 21
147.556595
  0
LINE
  8
0
  6
PHANTOM
 10
-196.750000
 20
156.999954
 11
-196.750000
 21
148.999954
  0
LINE
  8
0
  6
PHANTOM
 10
-186.750000
 20
156.999954
 11
-186.750000
 21
148.999954
  0
LINE
  8
0
  6
PHANTOM
 10
-186.750000
 20
156.999954
 11
-96.750000
 21
156.999954
  0
LINE
  8
0
  6
CENTER
 10
-311.750000
 20
99.999939
 11
-71.750000
 21
99.999939
  0
LINE
  8
0
  6
CENTER
 10
-311.750000
 20
329.999939
 11
-71.750000
 21
329.999939
  0
LINE
  8
0
  6
CENTER
 10
-191.750000
 20
364.999939
 11
-191.750000
 21
294.999939
  0
LINE
  8
0
  6
PHANTOM
 10
-306.750000
 20
300.999939
 11
-280.750000
 21
300.999939
  0
LINE
  8
0
  6
PHANTOM
 10
-306.750000
 20
358.999939
 11
-280.750000
 21
358.999939
  0
LINE
  8
0
  6
PHANTOM
 10
-286.750000
 20
343.999939
 11
-286.750000
 21
315.999939
  0
LINE
  8
0
  6
PHANTOM
 10
-96.750000
 20
343.999939
 11
-96.750000
 21
315.999939
  0
LINE
  8
0
  6
PHANTOM
 10
-286.750000
 20
343.999939
 11
-280.750000
 21
343.999939
  0
LINE
  8
0
  6
PHANTOM
 10
-286.750000
 20
338.999939
 11
-280.750000
 21
338.999939
  0
LINE
  8
0
  6
PHANTOM
 10
-286.750000
 20
320.999939
 11
-280.750000
 21
320.999939
  0
LINE
  8
0
  6
PHANTOM
 10
-286.750000
 20
315.999939
 11
-280.750000
 21
315.999939
  0
LINE
  8
0
  6
PHANTOM
 10
-291.750000
 20
340.999939
 11
-291.750000
 21
318.999939
  0
LINE
  8
0
  6
PHANTOM
 10
-91.750000
 20
340.999939
 11
-91.750000
 21
318.999939
  0
LINE
  8
0
  6
PHANTOM
 10
-286.750000
 20
345.999939
 11
-280.750000
 21
345.999939
  0
LINE
  8
0
  6
PHANTOM
 10
-286.750000
 20
313.999939
 11
-280.750000
 21
313.999939
  0
LINE
  8
0
  6
PHANTOM
 10
-102.750000
 20
313.999939
 11
-96.750000
 21
313.999939
  0
LINE
  8
0
  6
PHANTOM
 10
-102.750000
 20
345.999939
 11
-96.750000
 21
345.999939
  0
LINE
  8
0
  6
PHANTOM
 10
-296.750000
 20
338.999939
 11
-296.750000
 21
320.999939
  0
LINE
  8
0
  6
PHANTOM
 10
-304.409302
 20
320.999939
 11
-296.750000
 21
320.999939
  0
LINE
  8
0
  6
PHANTOM
 10
-309.090698
 20
338.999939
 11
-296.750000
 21
338.999939
  0
LINE
  8
0
  6
PHANTOM
 10
-294.750000
 20
318.999939
 11
-291.750000
 21
318.999939
  0
LINE
  8
0
  6
PHANTOM
 10
-294.750000
 20
340.999939
 11
-291.750000
 21
340.999939
  0
LINE
  8
0
  6
PHANTOM
 10
-86.750000
 20
338.999939
 11
-86.750000
 21
320.999939
  0
LINE
  8
0
  6
PHANTOM
 10
-74.409271
 20
320.999939
 11
-86.750000
 21
320.999939
  0
LINE
  8
0
  6
PHANTOM
 10
-79.090729
 20
338.999939
 11
-86.750000
 21
338.999939
  0
LINE
  8
0
  6
PHANTOM
 10
-88.750000
 20
318.999939
 11
-91.750000
 21
318.999939
  0
LINE
  8
0
  6
PHANTOM
 10
-88.750000
 20
340.999939
 11
-91.750000
 21
340.999939
  0
LINE
  8
0
  6
PHANTOM
 10
163.250046
 20
64.999863
 11
175.000046
 21
64.999863
  0
LINE
  8
0
  6
PHANTOM
 10
173.000046
 20
66.999863
 11
175.000046
 21
66.999863
  0
LINE
  8
0
  6
PHANTOM
 10
173.000046
 20
71.299866
 11
183.500061
 21
71.299866
  0
LINE
  8
0
  6
PHANTOM
 10
173.000031
 20
71.299866
 11
173.000031
 21
66.999863
  0
LINE
  8
0
  6
PHANTOM
 10
183.500031
 20
71.299866
 11
183.500031
 21
66.999863
  0
LINE
  8
0
  6
PHANTOM
 10
181.500031
 20
66.999863
 11
181.500031
 21
64.999863
  0
LINE
  8
0
  6
PHANTOM
 10
175.000031
 20
66.999863
 11
175.000031
 21
64.999863
  0
LINE
  8
0
  6
PHANTOM
 10
181.500061
 20
66.999863
 11
183.500061
 21
66.999863
  0
LINE
  8
0
  6
PHANTOM
 10
181.500061
 20
64.999863
 11
193.250061
 21
64.999863
  0
LINE
  8
0
  6
PHANTOM
 10
163.250031
 20
70.999908
 11
163.250031
 21
64.999855
  0
LINE
  8
0
  6
PHANTOM
 10
193.250031
 20
70.999908
 11
193.250031
 21
64.999870
  0
LINE
  8
0
  6
CENTER
 10
178.250000
 20
170.999908
 11
178.250000
 21
59.999863
  0
LINE
  8
0
  6
CENTER
 10
143.250031
 20
99.999908
 11
213.250031
 21
99.999908
  0
LINE
  8
0
  6
PHANTOM
 10
164.250000
 20
133.999908
 11
192.250000
 21
133.999908
  0
LINE
  8
0
  6
PHANTOM
 10
192.250000
 20
156.999878
 11
192.250000
 21
133.999908
  0
LINE
  8
0
  6
PHANTOM
 10
164.250000
 20
156.999847
 11
164.250000
 21
133.999908
  0
LINE
  8
0
  6
PHANTOM
 10
164.250000
 20
156.999908
 11
192.250000
 21
156.999908
  0
LINE
  8
0
  6
CENTER
 10
153.250000
 20
148.999908
 11
205.250000
 21
148.999908
  0
LINE
  8
0
  6
PHANTOM
 10
158.250000
 20
143.999908
 11
164.250000
 21
143.999908
  0
LINE
  8
0
  6
PHANTOM
 10
158.250000
 20
153.999908
 11
164.250000
 21
153.999908
  0
LINE
  8
0
  6
PHANTOM
 10
158.250000
 20
153.999847
 11
158.250000
 21
143.999847
  0
LINE
  8
0
  6
PHANTOM
 10
197.249969
 20
154.773407
 11
197.249969
 21
143.226379
  0
LINE
  8
0
  6
PHANTOM
 10
197.249939
 20
154.773407
 11
192.249969
 21
154.773407
  0
LINE
  8
0
  6
PHANTOM
 10
197.249939
 20
151.886658
 11
192.249969
 21
151.886658
  0
LINE
  8
0
  6
PHANTOM
 10
197.249939
 20
146.113159
 11
192.249969
 21
146.113159
  0
LINE
  8
0
  6
PHANTOM
 10
197.249939
 20
143.226379
 11
192.249969
 21
143.226379
  0
LINE
  8
0
  6
PHANTOM
 10
199.749969
 20
152.249908
 11
199.749969
 21
145.749908
  0
LINE
  8
0
  6
PHANTOM
 10
197.249939
 20
153.499908
 11
198.499939
 21
153.499908
  0
LINE
  8
0
  6
PHANTOM
 10
197.249939
 20
144.499908
 11
198.499939
 21
144.499908
  0
LINE
  8
0
  6
PHANTOM
 10
149.250000
 20
119.999908
 11
149.250000
 21
78.999908
  0
LINE
  8
0
  6
PHANTOM
 10
207.250000
 20
119.999908
 11
207.250000
 21
78.999908
  0
LINE
  8
0
  6
PHANTOM
 10
169.250000
 20
156.999908
 11
169.250000
 21
133.999847
  0
LINE
  8
0
  6
PHANTOM
 10
187.250000
 20
156.999908
 11
187.250000
 21
133.999878
  0
LINE
  8
0
  6
PHANTOM
 10
-102.750000
 20
358.999939
 11
-76.750000
 21
358.999939
  0
LINE
  8
0
  6
PHANTOM
 10
-102.750000
 20
300.999939
 11
-76.750000
 21
300.999939
  0
LINE
  8
0
  6
PHANTOM
 10
-102.750000
 20
343.999939
 11
-96.750000
 21
343.999939
  0
LINE
  8
0
  6
PHANTOM
 10
-102.750000
 20
338.999939
 11
-96.750000
 21
338.999939
  0
LINE
  8
0
  6
PHANTOM
 10
-102.750000
 20
320.999939
 11
-96.750000
 21
320.999939
  0
LINE
  8
0
  6
PHANTOM
 10
-102.750000
 20
315.999939
 11
-96.750000
 21
315.999939
  0
LINE
  8
0
  6
PHANTOM
 10
-311.750000
 20
-429.114960
 11
-71.750000
 21
-429.114960
  0
LINE
  8
0
  6
PHANTOM
 10
-311.750000
 20
-354.114960
 11
-71.750000
 21
-354.114960
  0
LINE
  8
0
  6
PHANTOM
 10
-309.878784
 20
-424.114960
 11
-69.878784
 21
-424.114960
  0
LINE
  8
0
  6
PHANTOM
 10
-291.750000
 20
-324.114960
 11
-196.750000
 21
-324.114960
  0
LINE
  8
0
  6
PHANTOM
 10
-294.250000
 20
-349.114960
 11
-89.250000
 21
-349.114960
  0
LINE
  8
0
  6
CENTER
 10
-191.750000
 20
-310.114960
 11
-191.750000
 21
-434.114960
  0
LINE
  8
0
  6
PHANTOM
 10
-291.750000
 20
-324.114960
 11
-291.750000
 21
-349.114960
  0
LINE
  8
0
  6
PHANTOM
 10
-91.750000
 20
-324.114960
 11
-91.750000
 21
-349.114960
  0
LINE
  8
0
  6
PHANTOM
 10
-196.750000
 20
-324.114960
 11
-196.750000
 21
-333.114960
  0
LINE
  8
0
  6
PHANTOM
 10
-186.750000
 20
-324.114960
 11
-186.750000
 21
-333.114960
  0
LINE
  8
0
  6
PHANTOM
 10
-186.750000
 20
-324.114960
 11
-91.750000
 21
-324.114960
  0
LINE
  8
0
  6
CENTER
 10
-239.250000
 20
-332.114960
 11
-224.250000
 21
-332.114960
  0
LINE
  8
0
  6
CENTER
 10
-231.750000
 20
-324.614960
 11
-231.750000
 21
-339.614960
  0
LINE
  8
0
  6
CENTER
 10
-271.750000
 20
-323.114960
 11
-271.750000
 21
-341.114960
  0
LINE
  8
0
  6
CENTER
 10
-280.750000
 20
-332.114960
 11
-262.750000
 21
-332.114960
  0
LINE
  8
0
  6
PHANTOM
 10
-274.250000
 20
-333.558319
 11
-271.749969
 21
-335.001709
  0
LINE
  8
0
  6
PHANTOM
 10
-271.750031
 20
-335.001740
 11
-269.250000
 21
-333.558350
  0
LINE
  8
0
  6
PHANTOM
 10
-269.249939
 20
-333.558380
 11
-269.249939
 21
-330.671600
  0
LINE
  8
0
  6
PHANTOM
 10
-269.250000
 20
-330.671600
 11
-271.750000
 21
-329.228210
  0
LINE
  8
0
  6
PHANTOM
 10
-271.750000
 20
-329.228149
 11
-274.250031
 21
-330.671539
  0
LINE
  8
0
  6
PHANTOM
 10
-274.249939
 20
-330.671600
 11
-274.249939
 21
-333.558380
  0
LINE
  8
0
  6
CENTER
 10
-144.250000
 20
-332.114960
 11
-159.250000
 21
-332.114960
  0
LINE
  8
0
  6
CENTER
 10
-151.750000
 20
-324.614960
 11
-151.750000
 21
-339.614960
  0
LINE
  8
0
  6
CENTER
 10
-111.750000
 20
-323.114960
 11
-111.750000
 21
-341.114960
  0
LINE
  8
0
  6
CENTER
 10
-102.750000
 20
-332.114960
 11
-120.750000
 21
-332.114960
  0
LINE
  8
0
  6
PHANTOM
 10
-109.249992
 20
-333.558258
 11
-111.750053
 21
-335.001648
  0
LINE
  8
0
  6
PHANTOM
 10
-111.749931
 20
-335.001709
 11
-114.249992
 21
-333.558319
  0
LINE
  8
0
  6
PHANTOM
 10
-114.250061
 20
-333.558380
 11
-114.250061
 21
-330.671600
  0
LINE
  8
0
  6
PHANTOM
 10
-114.250053
 20
-330.671570
 11
-111.749969
 21
-329.228180
  0
LINE
  8
0
  6
PHANTOM
 10
-111.749908
 20
-329.228058
 11
-109.249886
 21
-330.671478
  0
LINE
  8
0
  6
PHANTOM
 10
-109.250061
 20
-330.671600
 11
-109.250061
 21
-333.558380
  0
LINE
  8
0
  6
CENTER
 10
-316.750000
 20
-389.114990
 11
-66.750000
 21
-389.114990
  0
LINE
  8
0
  6
CENTER
 10
-316.750000
 20
-139.114990
 11
-66.750000
 21
-139.114990
  0
LINE
  8
0
  6
PHANTOM
 10
-311.750000
 20
-174.114990
 11
-71.750000
 21
-174.114990
  0
LINE
  8
0
  6
PHANTOM
 10
-311.750000
 20
-104.114990
 11
-71.750000
 21
-104.114990
  0
LINE
  8
0
  6
CENTER
 10
-191.750000
 20
-99.114990
 11
-191.750000
 21
-179.114990
  0
LINE
  8
0
  6
PHANTOM
 10
-91.750000
 20
-125.115005
 11
-91.750000
 21
-153.115005
  0
LINE
  8
0
  6
PHANTOM
 10
-291.750000
 20
-125.115005
 11
-291.750000
 21
-153.115005
  0
LINE
  8
0
  6
PHANTOM
 10
-291.750000
 20
-125.115005
 11
-285.750000
 21
-125.115005
  0
LINE
  8
0
  6
PHANTOM
 10
-291.750000
 20
-130.114990
 11
-285.750000
 21
-130.114990
  0
LINE
  8
0
  6
PHANTOM
 10
-291.750000
 20
-148.115005
 11
-285.750000
 21
-148.115005
  0
LINE
  8
0
  6
PHANTOM
 10
-291.750000
 20
-153.115005
 11
-285.750000
 21
-153.115005
  0
LINE
  8
0
  6
PHANTOM
 10
-285.750000
 20
-130.114990
 11
-285.750000
 21
-148.115005
  0
LINE
  8
0
  6
PHANTOM
 10
-97.750000
 20
-130.114990
 11
-97.750000
 21
-148.115005
  0
LINE
  8
0
  6
PHANTOM
 10
-296.750000
 20
-128.114990
 11
-296.750000
 21
-150.114990
  0
LINE
  8
0
  6
PHANTOM
 10
-86.750000
 20
-128.114990
 11
-86.750000
 21
-150.114990
  0
LINE
  8
0
  6
PHANTOM
 10
-291.750000
 20
-155.114990
 11
-285.750000
 21
-155.114990
  0
LINE
  8
0
  6
PHANTOM
 10
-291.750000
 20
-123.114990
 11
-285.750000
 21
-123.114990
  0
LINE
  8
0
  6
PHANTOM
 10
-301.750000
 20
-131.114990
 11
-301.750000
 21
-147.114990
  0
LINE
  8
0
  6
PHANTOM
 10
-299.750000
 20
-129.114990
 11
-296.750000
 21
-129.114990
  0
LINE
  8
0
  6
PHANTOM
 10
-299.750000
 20
-149.114990
 11
-296.750000
 21
-149.114990
  0
LINE
  8
0
  6
PHANTOM
 10
-309.498291
 20
-147.114990
 11
-301.750000
 21
-147.114990
  0
LINE
  8
0
  6
PHANTOM
 10
-314.001709
 20
-131.114990
 11
-301.750000
 21
-131.114990
  0
LINE
  8
0
  6
PHANTOM
 10
-81.750000
 20
-131.114990
 11
-81.750000
 21
-147.114990
  0
LINE
  8
0
  6
PHANTOM
 10
-83.750000
 20
-129.114990
 11
-86.750000
 21
-129.114990
  0
LINE
  8
0
  6
PHANTOM
 10
-83.750000
 20
-149.114990
 11
-86.750000
 21
-149.114990
  0
LINE
  8
0
  6
PHANTOM
 10
-69.498291
 20
-147.114990
 11
-81.750000
 21
-147.114990
  0
LINE
  8
0
  6
PHANTOM
 10
-74.001709
 20
-131.114990
 11
-81.750000
 21
-131.114990
  0
LINE
  8
0
  6
PHANTOM
 10
-97.750000
 20
-123.114990
 11
-91.750000
 21
-123.114990
  0
LINE
  8
0
  6
PHANTOM
 10
-97.750000
 20
-155.114990
 11
-91.750000
 21
-155.114990
  0
LINE
  8
0
  6
CENTER
 10
136.249908
 20
-389.114960
 11
220.249908
 21
-389.114960
  0
LINE
  8
0
  6
CENTER
 10
178.249908
 20
-310.114960
 11
178.249908
 21
-434.114960
  0
LINE
  8
0
  6
PHANTOM
 10
158.249817
 20
-429.114960
 11
173.999817
 21
-429.114960
  0
LINE
  8
0
  6
PHANTOM
 10
171.499817
 20
-427.114960
 11
173.999817
 21
-427.114960
  0
LINE
  8
0
  6
PHANTOM
 10
173.999908
 20
-427.114960
 11
173.999908
 21
-429.114960
  0
LINE
  8
0
  6
PHANTOM
 10
182.499908
 20
-427.114960
 11
182.499908
 21
-429.114960
  0
LINE
  8
0
  6
PHANTOM
 10
171.499908
 20
-421.814972
 11
171.499908
 21
-427.114960
  0
LINE
  8
0
  6
PHANTOM
 10
184.999908
 20
-421.814972
 11
184.999908
 21
-427.114960
  0
LINE
  8
0
  6
PHANTOM
 10
182.499817
 20
-429.114960
 11
198.249817
 21
-429.114960
  0
LINE
  8
0
  6
PHANTOM
 10
182.499817
 20
-427.114960
 11
184.999817
 21
-427.114960
  0
LINE
  8
0
  6
PHANTOM
 10
198.249908
 20
-424.114960
 11
198.249908
 21
-429.114990
  0
LINE
  8
0
  6
PHANTOM
 10
158.249908
 20
-424.114960
 11
158.249908
 21
-429.114929
  0
LINE
  8
0
  6
PHANTOM
 10
164.250031
 20
-324.114960
 11
192.250031
 21
-324.114960
  0
LINE
  8
0
  6
CENTER
 10
153.250031
 20
-332.114960
 11
205.250031
 21
-332.114960
  0
LINE
  8
0
  6
PHANTOM
 10
192.249908
 20
-324.114990
 11
192.249908
 21
-349.114960
  0
LINE
  8
0
  6
PHANTOM
 10
164.249908
 20
-324.114929
 11
164.249908
 21
-349.114960
  0
LINE
  8
0
  6
PHANTOM
 10
164.249908
 20
-349.114960
 11
192.249908
 21
-349.114960
  0
LINE
  8
0
  6
PHANTOM
 10
158.249908
 20
-327.114929
 11
158.249908
 21
-337.114929
  0
LINE
  8
0
  6
PHANTOM
 10
158.250031
 20
-337.114960
 11
164.250031
 21
-337.114960
  0
LINE
  8
0
  6
PHANTOM
 10
158.250031
 20
-327.114960
 11
164.250031
 21
-327.114960
  0
LINE
  8
0
  6
PHANTOM
 10
197.249908
 20
-326.341492
 11
197.249908
 21
-337.888519
  0
LINE
  8
0
  6
PHANTOM
 10
197.250031
 20
-326.341461
 11
192.250031
 21
-326.341461
  0
LINE
  8
0
  6
PHANTOM
 10
197.250031
 20
-329.228210
 11
192.250031
 21
-329.228210
  0
LINE
  8
0
  6
PHANTOM
 10
197.250031
 20
-335.001709
 11
192.250031
 21
-335.001709
  0
LINE
  8
0
  6
PHANTOM
 10
197.250000
 20
-337.888489
 11
192.250000
 21
-337.888489
  0
LINE
  8
0
  6
PHANTOM
 10
171.499847
 20
-421.814972
 11
184.999847
 21
-421.814972
  0
LINE
  8
0
  6
PHANTOM
 10
199.749908
 20
-328.864990
 11
199.749908
 21
-335.364990
  0
LINE
  8
0
  6
PHANTOM
 10
197.250031
 20
-336.614960
 11
198.500031
 21
-336.614960
  0
LINE
  8
0
  6
PHANTOM
 10
197.250031
 20
-327.614960
 11
198.500031
 21
-327.614960
  0
LINE
  8
0
  6
PHANTOM
 10
213.249908
 20
-362.114960
 11
213.249908
 21
-416.114960
  0
LINE
  8
0
  6
PHANTOM
 10
143.249908
 20
-362.114960
 11
143.249908
 21
-416.114960
  0
LINE
  8
0
  6
PHANTOM
 10
151.249908
 20
-354.114960
 11
205.249908
 21
-354.114960
  0
LINE
  8
0
  6
PHANTOM
 10
151.249908
 20
-424.114960
 11
158.249908
 21
-424.114960
  0
LINE
  8
0
  6
PHANTOM
 10
198.249908
 20
-424.114960
 11
205.249908
 21
-424.114960
  0
LINE
  8
0
  6
PHANTOM
 10
169.249908
 20
-324.114960
 11
169.249908
 21
-349.114929
  0
LINE
  8
0
  6
PHANTOM
 10
187.249908
 20
-324.114960
 11
187.249908
 21
-349.114990
  0
LINE
  8
0
  6
PHANTOM
 10
-97.750000
 20
-125.115005
 11
-91.750000
 21
-125.115005
  0
LINE
  8
0
  6
PHANTOM
 10
-97.750000
 20
-130.114990
 11
-91.750000
 21
-130.114990
  0
LINE
  8
0
  6
PHANTOM
 10
-97.750000
 20
-148.115005
 11
-91.750000
 21
-148.115005
  0
LINE
  8
0
  6
PHANTOM
 10
-97.750000
 20
-153.115005
 11
-91.750000
 21
-153.115005
  0
LINE
  8
0
  6
PHANTOM
 10
-306.749969
 20
127.999939
 11
-76.749985
 21
127.999939
  0
LINE
  8
0
  6
PHANTOM
 10
-304.407501
 20
70.999939
 11
-74.407486
 21
70.999939
  0
LINE
  8
0
  6
PHANTOM
 10
157.250000
 20
70.999908
 11
163.250031
 21
70.999908
  0
LINE
  8
0
  6
PHANTOM
 10
157.250000
 20
127.999908
 11
199.250000
 21
127.999908
  0
LINE
  8
0
  6
PHANTOM
 10
193.250031
 20
70.999908
 11
199.250000
 21
70.999908
  0
LINE
  8
0
 10
-102.750076
 20
165.999939
 11
-102.750076
 21
156.999969
  0
LINE
  8
0
 10
-280.750061
 20
165.999939
 11
-280.750061
 21
156.999969
  0
LINE
  8
0
 10
-280.750061
 20
158.399933
 11
-102.750076
 21
158.399933
  0
LINE
  8
0
 10
-280.750061
 20
159.999939
 11
-102.750076
 21
159.999939
  0
LINE
  8
0
 10
-280.750061
 20
165.999939
 11
-102.750076
 21
165.999939
  0
LINE
  8
0
  6
CENTER
 10
-151.750031
 20
300.000000
 11
-151.750031
 21
315.000000
  0
LINE
  8
0
 10
-280.750031
 20
360.000000
 11
-102.750031
 21
360.000000
  0
LINE
  8
0
 10
-280.750031
 20
360.000000
 11
-280.750031
 21
300.000000
  0
LINE
  8
0
 10
-280.750031
 20
300.000000
 11
-102.750031
 21
300.000000
  0
LINE
  8
0
  6
CENTER
 10
-231.750031
 20
360.000000
 11
-231.750031
 21
345.000000
  0
LINE
  8
0
  6
CENTER
 10
-239.250031
 20
352.500000
 11
-224.250031
 21
352.500000
  0
LINE
  8
0
  6
CENTER
 10
-231.750031
 20
300.000000
 11
-231.750031
 21
315.000000
  0
LINE
  8
0
  6
CENTER
 10
-239.250031
 20
307.500000
 11
-224.250031
 21
307.500000
  0
LINE
  8
0
  6
CENTER
 10
-144.250031
 20
307.500000
 11
-159.250031
 21
307.500000
  0
LINE
  8
0
  6
CENTER
 10
-151.750031
 20
360.000000
 11
-151.750031
 21
345.000000
  0
LINE
  8
0
  6
CENTER
 10
-144.250031
 20
352.500000
 11
-159.250031
 21
352.500000
  0
LINE
  8
0
 10
-102.750031
 20
360.000000
 11
-102.750031
 21
300.000000
  0
LINE
  8
0
 10
208.249939
 20
165.999878
 11
208.249939
 21
159.999878
  0
LINE
  8
0
 10
148.249939
 20
159.999878
 11
163.278625
 21
159.999878
  0
LINE
  8
0
 10
148.249939
 20
165.999878
 11
148.249939
 21
159.999878
  0
LINE
  8
0
 10
187.249939
 20
158.399872
 11
187.249939
 21
156.999878
  0
LINE
  8
0
 10
169.249939
 20
158.399872
 11
169.249939
 21
156.999878
  0
LINE
  8
0
 10
148.249939
 20
165.999878
 11
208.249939
 21
165.999878
  0
LINE
  8
0
 10
169.249939
 20
158.399857
 11
163.278625
 21
159.999863
  0
LINE
  8
0
 10
187.249924
 20
158.399918
 11
193.221252
 21
159.999924
  0
LINE
  8
0
 10
193.221252
 20
159.999878
 11
208.249939
 21
159.999878
  0
LINE
  8
0
 10
-285.750000
 20
-315.114990
 11
-285.750000
 21
-324.114990
  0
LINE
  8
0
 10
-285.750000
 20
-322.714966
 11
-97.750015
 21
-322.714966
  0
LINE
  8
0
 10
-285.750000
 20
-321.114990
 11
-97.750015
 21
-321.114990
  0
LINE
  8
0
 10
-285.750000
 20
-315.114990
 11
-97.750015
 21
-315.114990
  0
LINE
  8
0
 10
-97.750015
 20
-315.114990
 11
-97.750015
 21
-324.114990
  0
LINE
  8
0
 10
-285.750122
 20
-109.115051
 11
-97.750137
 21
-109.115051
  0
LINE
  8
0
 10
-285.750122
 20
-169.115051
 11
-97.750137
 21
-169.115051
  0
LINE
  8
0
 10
-285.750122
 20
-109.115051
 11
-285.750122
 21
-169.115051
  0
LINE
  8
0
  6
CENTER
 10
-259.250122
 20
-116.615051
 11
-244.250122
 21
-116.615051
  0
LINE
  8
0
  6
CENTER
 10
-251.750122
 20
-124.115051
 11
-251.750122
 21
-109.115051
  0
LINE
  8
0
  6
CENTER
 10
-251.750122
 20
-154.115051
 11
-251.750122
 21
-169.115051
  0
LINE
  8
0
  6
CENTER
 10
-259.250122
 20
-161.615051
 11
-244.250122
 21
-161.615051
  0
LINE
  8
0
  6
CENTER
 10
-131.750137
 20
-154.115051
 11
-131.750137
 21
-169.115051
  0
LINE
  8
0
  6
CENTER
 10
-124.250137
 20
-161.615051
 11
-139.250137
 21
-161.615051
  0
LINE
  8
0
  6
CENTER
 10
-131.750137
 20
-124.115051
 11
-131.750137
 21
-109.115051
  0
LINE
  8
0
  6
CENTER
 10
-124.250137
 20
-116.615051
 11
-139.250137
 21
-116.615051
  0
LINE
  8
0
 10
-97.750137
 20
-109.115051
 11
-97.750137
 21
-169.115051
  0
LINE
  8
0
 10
148.249908
 20
-315.114960
 11
148.249908
 21
-321.114960
  0
LINE
  8
0
 10
208.249908
 20
-315.114960
 11
208.249908
 21
-321.114960
  0
LINE
  8
0
 10
169.249908
 20
-322.714966
 11
169.249908
 21
-324.114960
  0
LINE
  8
0
 10
187.249908
 20
-322.714966
 11
187.249908
 21
-324.114960
  0
LINE
  8
0
 10
169.249939
 20
-322.714905
 11
163.278641
 21
-321.114899
  0
LINE
  8
0
 10
187.249924
 20
-322.714966
 11
193.221298
 21
-321.114960
  0
LINE
  8
0
 10
193.221313
 20
-321.114960
 11
208.249908
 21
-321.114960
  0
LINE
  8
0
 10
148.249908
 20
-321.114960
 11
163.278671
 21
-321.114960
  0
LINE
  8
0
 10
148.249908
 20
-315.114960
 11
208.249908
 21
-315.114960
  0
ARC
  8
0
 62
     5
 10
655.008484
 20
-465.668823
 40
6.635708
 50
291.688293
 51
0.000000
  0
ARC
  8
0
 62
     5
 10
652.796448
 20
-464.168060
 40
2.211920
 50
291.688660
 51
0.000000
  0
ARC
  8
0
 62
     5
 10
546.072388
 20
-470.092651
 40
4.423828
 50
0.000000
 51
90.000000
  0
ARC
  8
0
 62
     5
 10
582.568787
 20
-493.870697
 40
4.423798
 50
270.000000
 51
0.000000
  0
ARC
  8
0
 62
     5
 10
580.356750
 20
-472.304474
 40
6.635681
 50
0.000000
 51
90.000000
  0
ARC
  8
0
 62
     5
 10
620.723999
 20
-470.092651
 40
4.423828
 50
0.000000
 51
90.000000
  0
ARC
  8
0
 62
     5
 10
620.723999
 20
-473.626892
 40
4.423808
 50
294.999786
 51
0.000000
  0
ARC
  8
0
  6
PHANTOM
 10
-191.750000
 20
148.999954
 40
5.000000
 50
180.000000
 51
0.000000
  0
CIRCLE
  8
0
  6
PHANTOM
 10
-136.750000
 20
148.999954
 40
5.000000
  0
CIRCLE
  8
0
  6
PHANTOM
 10
-219.250000
 20
148.999954
 40
3.500000
  0
CIRCLE
  8
0
  6
PHANTOM
 10
-246.750000
 20
148.999954
 40
5.000000
  0
CIRCLE
  8
0
  6
PHANTOM
 10
-164.250000
 20
148.999954
 40
3.500000
  0
ARC
  8
0
  6
PHANTOM
 10
-269.279999
 20
113.999924
 40
39.999985
 50
159.512665
 51
200.487259
  0
ARC
  8
0
  6
PHANTOM
 10
-342.718719
 20
82.499924
 40
39.999992
 50
334.055481
 51
25.944510
  0
ARC
  8
0
  6
PHANTOM
 10
-39.279999
 20
113.999924
 40
40.000000
 50
159.512680
 51
200.487259
  0
ARC
  8
0
  6
PHANTOM
 10
-112.718719
 20
82.499924
 40
40.000000
 50
334.055481
 51
25.944506
  0
ARC
  8
0
  6
PHANTOM
 10
-96.750000
 20
340.999939
 40
5.000000
 50
0.000000
 51
90.000000
  0
ARC
  8
0
  6
PHANTOM
 10
-96.750000
 20
318.999939
 40
5.000000
 50
270.000000
 51
0.000000
  0
ARC
  8
0
  6
PHANTOM
 10
-286.750000
 20
318.999939
 40
5.000000
 50
180.000000
 51
270.000000
  0
ARC
  8
0
  6
PHANTOM
 10
-286.750000
 20
340.999939
 40
5.000000
 50
90.000000
 51
180.000000
  0
ARC
  8
0
  6
PHANTOM
 10
-294.750000
 20
338.999939
 40
2.000000
 50
90.000000
 51
180.000000
  0
ARC
  8
0
  6
PHANTOM
 10
-294.750000
 20
320.999939
 40
2.000000
 50
180.000000
 51
270.000000
  0
ARC
  8
0
  6
PHANTOM
 10
-88.750000
 20
320.999939
 40
2.000000
 50
270.000000
 51
0.000000
  0
ARC
  8
0
  6
PHANTOM
 10
-88.750000
 20
338.999939
 40
2.000000
 50
0.000000
 51
90.000000
  0
ARC
  8
0
  6
PHANTOM
 10
-269.470642
 20
344.499939
 40
39.999996
 50
158.746231
 51
201.253769
  0
ARC
  8
0
  6
PHANTOM
 10
-344.029358
 20
315.499939
 40
40.000008
 50
338.746185
 51
21.253805
  0
ARC
  8
0
  6
PHANTOM
 10
-39.470642
 20
344.499939
 40
39.999996
 50
158.746231
 51
201.253754
  0
ARC
  8
0
  6
PHANTOM
 10
-114.029358
 20
315.499939
 40
40.000000
 50
338.746185
 51
21.253809
  0
ARC
  8
0
  6
PHANTOM
 10
198.499939
 20
152.249924
 40
1.250000
 50
0.000000
 51
90.000000
  0
ARC
  8
0
  6
PHANTOM
 10
198.499939
 20
145.749924
 40
1.250000
 50
270.000000
 51
0.000000
  0
CIRCLE
  8
0
  6
PHANTOM
 10
-111.750000
 20
-332.114960
 40
5.000000
  0
CIRCLE
  8
0
  6
PHANTOM
 10
-151.750000
 20
-332.114960
 40
3.500000
  0
CIRCLE
  8
0
  6
PHANTOM
 10
-231.750000
 20
-332.114960
 40
3.500000
  0
ARC
  8
0
  6
PHANTOM
 10
-89.250000
 20
-351.614960
 40
2.500000
 50
270.000000
 51
90.000000
  0
ARC
  8
0
  6
PHANTOM
 10
-294.250000
 20
-351.614960
 40
2.500000
 50
90.000000
 51
270.000000
  0
ARC
  8
0
  6
PHANTOM
 10
-191.750000
 20
-333.114960
 40
5.000000
 50
180.000000
 51
0.000000
  0
CIRCLE
  8
0
  6
PHANTOM
 10
-271.750000
 20
-332.114960
 40
5.000000
  0
ARC
  8
0
  6
PHANTOM
 10
-264.912537
 20
-371.614960
 40
50.000008
 50
159.512695
 51
200.487305
  0
ARC
  8
0
  6
PHANTOM
 10
-357.575745
 20
-409.114960
 40
50.000004
 50
336.421875
 51
23.578138
  0
ARC
  8
0
  6
PHANTOM
 10
-24.912537
 20
-371.614960
 40
49.999992
 50
159.512680
 51
200.487320
  0
ARC
  8
0
  6
PHANTOM
 10
-117.575760
 20
-409.114960
 40
49.999996
 50
336.421844
 51
23.578142
  0
ARC
  8
0
  6
PHANTOM
 10
-299.750000
 20
-147.114990
 40
2.000000
 50
180.000000
 51
270.000000
  0
ARC
  8
0
 10
-83.750000
 20
-147.114990
 40
2.000000
 50
270.000000
 51
0.000000
  0
ARC
  8
0
  6
PHANTOM
 10
-299.750000
 20
-131.114990
 40
2.000000
 50
90.000000
 51
180.000000
  0
ARC
  8
0
  6
PHANTOM
 10
-83.750000
 20
-131.114990
 40
2.000000
 50
0.000000
 51
90.000000
  0
ARC
  8
0
  6
PHANTOM
 10
-291.750000
 20
-128.114990
 40
5.000000
 50
90.000000
 51
180.000000
  0
ARC
  8
0
  6
PHANTOM
 10
-291.750000
 20
-150.114990
 40
5.000000
 50
180.000000
 51
270.000000
  0
ARC
  8
0
  6
PHANTOM
 10
-91.750000
 20
-128.114990
 40
5.000000
 50
0.000000
 51
90.000000
  0
ARC
  8
0
  6
PHANTOM
 10
-91.750000
 20
-150.114990
 40
5.000000
 50
270.000000
 51
0.000000
  0
ARC
  8
0
  6
PHANTOM
 10
-264.912506
 20
-121.614990
 40
50.000004
 50
159.512711
 51
200.487274
  0
ARC
  8
0
  6
PHANTOM
 10
-358.587494
 20
-156.614990
 40
50.000008
 50
339.512695
 51
20.487312
  0
ARC
  8
0
  6
PHANTOM
 10
-24.912506
 20
-121.614990
 40
50.000004
 50
159.512711
 51
200.487274
  0
ARC
  8
0
  6
PHANTOM
 10
-118.587494
 20
-156.614990
 40
50.000000
 50
339.512695
 51
20.487314
  0
ARC
  8
0
  6
PHANTOM
 10
198.500031
 20
-328.864990
 40
1.250000
 50
0.000000
 51
90.000000
  0
ARC
  8
0
  6
PHANTOM
 10
198.500031
 20
-335.364990
 40
1.250000
 50
270.000000
 51
0.000000
  0
ARC
  8
0
  6
PHANTOM
 10
151.249908
 20
-362.114960
 40
8.000000
 50
90.000000
 51
180.000000
  0
ARC
  8
0
  6
PHANTOM
 10
151.249908
 20
-416.114960
 40
8.000000
 50
180.000000
 51
270.000000
  0
ARC
  8
0
  6
PHANTOM
 10
205.249908
 20
-416.114960
 40
8.000000
 50
270.000000
 51
0.000000
  0
ARC
  8
0
  6
PHANTOM
 10
205.249908
 20
-362.114960
 40
8.000000
 50
0.000000
 51
90.000000
  0
ARC
  8
0
  6
PHANTOM
 10
199.250000
 20
119.999908
 40
8.000000
 50
0.000000
 51
90.000000
  0
ARC
  8
0
  6
PHANTOM
 10
199.250000
 20
78.999908
 40
8.000000
 50
270.000000
 51
0.000000
  0
ARC
  8
0
  6
PHANTOM
 10
157.250000
 20
78.999908
 40
8.000000
 50
180.000000
 51
270.000000
  0
ARC
  8
0
  6
PHANTOM
 10
157.250000
 20
119.999908
 40
8.000000
 50
90.000000
 51
179.999939
  0
ARC
  8
0
  6
PHANTOM
 10
191.749908
 20
-351.614960
 40
2.500000
 50
270.000000
 51
90.000000
  0
ARC
  8
0
  6
PHANTOM
 10
164.749908
 20
-351.614960
 40
2.500000
 50
90.000000
 51
270.000000
  0
ARC
  8
0
  6
PHANTOM
 10
-288.750000
 20
130.999939
 40
3.000015
 50
90.000000
 51
270.000000
  0
ARC
  8
0
  6
PHANTOM
 10
-94.750000
 20
130.999939
 40
3.000015
 50
270.000000
 51
90.000000
  0
ARC
  8
0
  6
PHANTOM
 10
165.250000
 20
130.999908
 40
3.000000
 50
90.000000
 51
270.000000
  0
ARC
  8
0
  6
PHANTOM
 10
191.250000
 20
130.999908
 40
3.000000
 50
270.000000
 51
90.000000
  0
CIRCLE
  8
0
 10
-231.750031
 20
307.500000
 40
3.500000
  0
CIRCLE
  8
0
 10
-151.750031
 20
352.500000
 40
3.500000
  0
CIRCLE
  8
0
 10
-231.750031
 20
352.500000
 40
3.500000
  0
CIRCLE
  8
0
 10
-151.750031
 20
307.500000
 40
3.500000
  0
CIRCLE
  8
0
 10
-131.750137
 20
-116.615051
 40
3.500000
  0
CIRCLE
  8
0
 10
-131.750137
 20
-161.615051
 40
3.500000
  0
CIRCLE
  8
0
 10
-251.750122
 20
-116.615051
 40
3.500000
  0
CIRCLE
  8
0
 10
-251.750122
 20
-161.615051
 40
3.500000
  0
TEXT
  8
0
 10
452.676331
 20
466.216309
 40
17.000000
  1
DATE : MAY ,1991
 50
0.000000
 41
1.052631
 51
0.000000
  7
STANDARD
  0
TEXT
  8
0
 10
-652.223755
 20
463.516205
 40
20.000000
  1
ORCA T MOUNT
 50
0.000000
 41
1.052632
 51
0.000000
  7
STANDARD
  0
TEXT
  8
0
 10
-704.357117
 20
384.914032
 40
20.000000
  1
BORE : 40
 50
0.000000
 41
1.052632
 51
0.000000
  7
STANDARD
  0
TEXT
  8
0
 10
-704.357117
 20
-67.000061
 40
20.000000
  1
BORE : 50
 50
0.000000
 41
1.052632
 51
0.000000
  7
STANDARD
  0
ENDSEC
  0
EOF
