  0
SECTION
  2
HEADER
  0
ENDSEC
  0
SECTION
  2
TABLES
  0
TABLE
  2
LTYPE
 70
     4
  0
LTYPE
  2
CONTINUOUS
 70
    64
  3
Solid line
 72
    65
 73
     0
 40
0.000000
  0
LTYPE
  2
DASHED
 70
    64
  3
__ __ __ __ __ __ __ __ __ __ __ __ __ __ __
 72
    65
 73
     2
 40
3.500000
 49
2.000000
 49
-1.500000
  0
LTYPE
  2
CENTER
 70
    64
  3
____ _ ____ _ ____ _ ____ _ ____ _ ____ _ ____
 72
    65
 73
     4
 40
17.500000
 49
13.000000
 49
-1.500000
 49
1.500000
 49
-1.500000
  0
LTYPE
  2
PHANTOM
 70
    64
  3
_____ _ _ _____ _ _ _____ _ _ _____ _ _ ____  
 72
    65
 73
     6
 40
15.500000
 49
8.000000
 49
-1.500000
 49
1.500000
 49
-1.500000
 49
1.500000
 49
-1.500000
  0
LTYPE
  2
DASHED1
 70
    64
  3
__ __ __ __ __ __ __ __ __ __ __ __ __ __ __
 72
    65
 73
     2
 40
1.500000
 49
1.000000
 49
-0.500000
  0
LTYPE
  2
DASHED2
 70
    64
  3
__ __ __ __ __ __ __ __ __ __ __ __ __ __ __
 72
    65
 73
     2
 40
3.500000
 49
2.500000
 49
-1.000000
  0
LTYPE
  2
DASHED3
 70
    64
  3
__ __ __ __ __ __ __ __ __ __ __ __ __ __ __
 72
    65
 73
     2
 40
6.000000
 49
4.000000
 49
-2.000000
  0
LTYPE
  2
DASHED4
 70
    64
  3
__ __ __ __ __ __ __ __ __ __ __ __ __ __ __
 72
    65
 73
     2
 40
12.000000
 49
10.000000
 49
-2.000000
  0
LTYPE
  2
DASHED5
 70
    64
  3
__ __ __ __ __ __ __ __ __ __ __ __ __ __ __
 72
    65
 73
     2
 40
17.000000
 49
15.000000
 49
-2.000000
  0
LTYPE
  2
DASHED6
 70
    64
  3
__ __ __ __ __ __ __ __ __ __ __ __ __ __ __
 72
    65
 73
     2
 40
29.000000
 49
27.000000
 49
-2.000000
  0
LTYPE
  2
PHANTOM1
 70
    64
  3
_____ _ _ _____ _ _ _____ _ _ _____ _ _ ____  
 72
    65
 73
     6
 40
31.000000
 49
25.000000
 49
-1.500000
 49
1.000000
 49
-1.000000
 49
1.000000
 49
-1.500000
  0
LTYPE
  2
PHANTOM2
 70
    64
  3
_____ _ _ _____ _ _ _____ _ _ _____ _ _ ____  
 72
    65
 73
     6
 40
36.000000
 49
27.000000
 49
-1.500000
 49
2.500000
 49
-1.000000
 49
2.500000
 49
-1.500000
  0
LTYPE
  2
PHANTOM3
 70
    64
  3
_____ _ _ _____ _ _ _____ _ _ _____ _ _ ____  
 72
    65
 73
     6
 40
78.000000
 49
64.000000
 49
-2.000000
 49
4.000000
 49
-2.000000
 49
4.000000
 49
-2.000000
  0
LTYPE
  2
CENTER1
 70
    64
  3
____ _ ____ _ ____ _ ____ _ ____ _ ____ _ ____
 72
    65
 73
     4
 40
19.000000
 49
14.000000
 49
-1.000000
 49
3.000000
 49
-1.000000
  0
LTYPE
  2
CENTER2
 70
    64
  3
____ _ ____ _ ____ _ ____ _ ____ _ ____ _ ____
 72
    65
 73
     4
 40
28.500000
 49
25.000000
 49
-1.000000
 49
1.500000
 49
-1.000000
  0
LTYPE
  2
CENTER3
 70
    64
  3
____ _ ____ _ ____ _ ____ _ ____ _ ____ _ ____
 72
    65
 73
     4
 40
31.500000
 49
27.000000
 49
-1.000000
 49
2.500000
 49
-1.000000
  0
LTYPE
  2
CENTER4
 70
    64
  3
____ _ ____ _ ____ _ ____ _ ____ _ ____ _ ____
 72
    65
 73
     4
 40
50.000000
 49
45.000000
 49
-1.000000
 49
3.000000
 49
-1.000000
  0
LTYPE
  2
CENTER5
 70
    64
  3
____ _ ____ _ ____ _ ____ _ ____ _ ____ _ ____
 72
    65
 73
     4
 40
100.000000
 49
92.000000
 49
-2.000000
 49
4.000000
 49
-2.000000
  0
LTYPE
  2
SBK1
 70
    64
  3
______ _ _ _ ______ _ _ _ ______ _ _ _ _____  
 72
    65
 73
     8
 40
60.500000
 49
45.000000
 49
-2.000000
 49
2.500000
 49
-2.000000
 49
2.500000
 49
-2.000000
 49
2.500000
 49
-2.000000
  0
LTYPE
  2
SBK2
 70
    64
  3
______ _ _ _ ______ _ _ _ ______ _ _ _ _____  
 72
    65
 73
     8
 40
84.000000
 49
64.000000
 49
-2.000000
 49
4.000000
 49
-2.000000
 49
4.000000
 49
-2.000000
 49
4.000000
 49
-2.000000
  0
LTYPE
  2
STCH
 70
    64
  3
__ __ __ __ __ __ __ __ __ __ __ __ __ __ __
 72
    65
 73
     2
 40
3.000000
 49
1.000000
 49
-2.000000
  0
LTYPE
  2
MTCH
 70
    64
  3
_____ _ _ _____ _ _ _____ _ _ _____ _ _ ____  
 72
    65
 73
     6
 40
80.000000
 49
66.000000
 49
-2.000000
 49
4.000000
 49
-2.000000
 49
4.000000
 49
-2.000000
  0
ENDTAB
  0
TABLE
  2
LAYER
 70
     1
  0
LAYER
  2
0
 70
     0
 62
     7
  6
CONTINUOUS
  0
ENDTAB
  0
TABLE
  2
STYLE
 70
     1
  0
STYLE
  2
STANDARD
 70
     0
 40
0.000000
 41
1.000000
 50
0.000000
 71
     0
 42
0.200000
  3
txt
  4
BIGFONT
  0
ENDTAB
  0
TABLE
  2
VIEW
 70
     0
  0
ENDTAB
  0
ENDSEC
  0
SECTION
  2
BLOCKS
  0
ENDSEC
  0
SECTION
  2
ENTITIES
  0
POINT
  8
0
 10
-270.873505
 20
65.441513
  0
POINT
  8
0
 10
-270.873566
 20
-104.558479
  0
POINT
  8
0
 10
129.126434
 20
-104.558479
  0
POINT
  8
0
 10
129.126495
 20
65.441513
  0
POINT
  8
0
 10
259.126404
 20
-104.558495
  0
POINT
  8
0
 10
279.126404
 20
-104.558495
  0
LINE
  8
0
 62
     3
 10
218.329163
 20
-225.956436
 11
370.873566
 21
-225.956436
  0
LINE
  8
0
 62
     3
 10
-218.329163
 20
225.956390
 11
-218.329163
 21
254.558487
  0
LINE
  8
0
 62
     3
 10
-370.873566
 20
225.956390
 11
-218.329163
 21
225.956390
  0
LINE
  8
0
 62
     3
 10
-370.873566
 20
254.558487
 11
370.873566
 21
254.558487
  0
LINE
  8
0
 62
     3
 10
-370.873566
 20
-254.558487
 11
370.873566
 21
-254.558487
  0
LINE
  8
0
 62
     3
 10
370.873566
 20
254.558487
 11
370.873566
 21
-254.558487
  0
LINE
  8
0
 62
     3
 10
-370.873566
 20
-254.558487
 11
-370.873566
 21
254.558487
  0
LINE
  8
0
 62
     3
 10
218.329163
 20
-225.956436
 11
218.329163
 21
-254.558487
  0
LINE
  8
0
 62
     3
 10
218.329163
 20
254.558487
 11
218.329163
 21
225.956390
  0
LINE
  8
0
 62
     3
 10
218.329163
 20
225.956390
 11
370.873566
 21
225.956390
  0
LINE
  8
0
 62
     5
 10
258.381622
 20
-232.833740
 11
258.381622
 21
-236.151566
  0
LINE
  8
0
 62
     5
 10
258.381622
 20
-236.151566
 11
270.823547
 21
-236.151566
  0
LINE
  8
0
 62
     5
 10
258.381622
 20
-249.146469
 11
275.247345
 21
-249.146469
  0
LINE
  8
0
 62
     5
 10
258.381622
 20
-245.828644
 11
270.823547
 21
-245.828644
  0
LINE
  8
0
 62
     5
 10
258.381622
 20
-232.833740
 11
273.035400
 21
-232.833740
  0
LINE
  8
0
 62
     5
 10
270.823547
 20
-236.151566
 11
270.823547
 21
-245.828644
  0
LINE
  8
0
 62
     5
 10
275.247345
 20
-235.045654
 11
275.247345
 21
-249.146469
  0
LINE
  8
0
 62
     5
 10
258.381622
 20
-245.828644
 11
258.381622
 21
-249.146469
  0
LINE
  8
0
 62
     5
 10
293.495392
 20
-236.151566
 11
293.495392
 21
-246.934647
  0
LINE
  8
0
 62
     5
 10
277.735657
 20
-232.833740
 11
277.735657
 21
-236.151566
  0
LINE
  8
0
 62
     5
 10
293.937836
 20
-232.584961
 11
295.513824
 21
-232.584961
  0
LINE
  8
0
 62
     5
 10
293.937836
 20
-230.373016
 11
295.513824
 21
-230.373016
  0
LINE
  8
0
 62
     5
 10
295.513824
 20
-230.373016
 11
295.513824
 21
-232.584961
  0
LINE
  8
0
 62
     5
 10
293.937836
 20
-230.373016
 11
293.937836
 21
-232.584961
  0
LINE
  8
0
 62
     5
 10
293.108276
 20
-230.373016
 11
293.108276
 21
-232.584961
  0
LINE
  8
0
 62
     5
 10
282.766052
 20
-230.373016
 11
286.200897
 21
-230.373016
  0
LINE
  8
0
 62
     5
 10
285.541260
 20
-232.833466
 11
286.200562
 21
-230.372711
  0
LINE
  8
0
 62
     5
 10
282.106689
 20
-232.833710
 11
282.766022
 21
-230.372986
  0
LINE
  8
0
 62
     5
 10
285.541565
 20
-232.833740
 11
290.177551
 21
-232.833740
  0
LINE
  8
0
 62
     5
 10
284.652557
 20
-236.151566
 11
289.071625
 21
-236.151566
  0
LINE
  8
0
 62
     5
 10
286.642853
 20
-249.146469
 11
291.283569
 21
-249.146469
  0
LINE
  8
0
 62
     5
 10
285.753693
 20
-245.828583
 11
286.642731
 21
-249.146347
  0
LINE
  8
0
 62
     5
 10
285.753754
 20
-245.828644
 11
289.071625
 21
-245.828644
  0
LINE
  8
0
 62
     5
 10
281.170746
 20
-249.146637
 11
284.652679
 21
-236.151733
  0
LINE
  8
0
 62
     5
 10
277.735657
 20
-236.151566
 11
281.217682
 21
-236.151566
  0
LINE
  8
0
 62
     5
 10
277.735413
 20
-249.146210
 11
281.217468
 21
-236.151337
  0
LINE
  8
0
 62
     5
 10
277.735657
 20
-249.146469
 11
281.170593
 21
-249.146469
  0
LINE
  8
0
 62
     5
 10
277.735657
 20
-232.833740
 11
282.106689
 21
-232.833740
  0
LINE
  8
0
 62
     5
 10
289.071625
 20
-236.151566
 11
289.071625
 21
-245.828644
  0
LINE
  8
0
 62
     5
 10
291.532288
 20
-230.373016
 11
293.108276
 21
-230.373016
  0
LINE
  8
0
 62
     5
 10
291.532288
 20
-232.584961
 11
293.108276
 21
-232.584961
  0
LINE
  8
0
 62
     5
 10
291.532288
 20
-230.373016
 11
291.532288
 21
-232.584961
  0
LINE
  8
0
 62
     5
 10
301.513550
 20
-230.373016
 11
305.937286
 21
-230.373016
  0
LINE
  8
0
 62
     5
 10
308.342316
 20
-240.195053
 11
311.296204
 21
-238.817642
  0
LINE
  8
0
 62
     5
 10
305.937286
 20
-242.734406
 11
305.937286
 21
-249.146469
  0
LINE
  8
0
 62
     5
 10
301.513550
 20
-243.379044
 11
301.513550
 21
-249.146469
  0
LINE
  8
0
 62
     5
 10
305.937286
 20
-232.833740
 11
310.361115
 21
-232.833740
  0
LINE
  8
0
 62
     5
 10
305.937286
 20
-230.373016
 11
305.937286
 21
-232.833740
  0
LINE
  8
0
 62
     5
 10
301.513550
 20
-230.373016
 11
301.513550
 21
-232.833740
  0
LINE
  8
0
 62
     5
 10
312.572998
 20
-235.045654
 11
312.572998
 21
-236.812775
  0
LINE
  8
0
 62
     5
 10
308.342377
 20
-240.195038
 11
312.573395
 21
-242.168030
  0
LINE
  8
0
 62
     5
 10
305.937256
 20
-242.734329
 11
312.573059
 21
-245.828613
  0
LINE
  8
0
 62
     5
 10
296.260284
 20
-242.167801
 11
296.260284
 21
-245.828644
  0
LINE
  8
0
 62
     5
 10
296.260742
 20
-242.168167
 11
309.162567
 21
-236.151932
  0
LINE
  8
0
 62
     5
 10
296.260254
 20
-245.828598
 11
301.513580
 21
-243.378937
  0
LINE
  8
0
 62
     5
 10
312.572998
 20
-242.167801
 11
312.572998
 21
-245.828644
  0
LINE
  8
0
 62
     5
 10
296.260284
 20
-232.833740
 11
296.260284
 21
-236.151566
  0
LINE
  8
0
 62
     5
 10
301.513550
 20
-249.146469
 11
305.937286
 21
-249.146469
  0
LINE
  8
0
 62
     5
 10
296.260284
 20
-236.151566
 11
309.162079
 21
-236.151566
  0
LINE
  8
0
 62
     5
 10
296.260284
 20
-232.833740
 11
301.513550
 21
-232.833740
  0
LINE
  8
0
 62
     5
 10
327.503998
 20
-236.404739
 11
328.730042
 21
-235.917068
  0
LINE
  8
0
 62
     5
 10
327.503357
 20
-236.404404
 11
327.503357
 21
-249.146469
  0
LINE
  8
0
 62
     5
 10
323.079498
 20
-249.146469
 11
327.503357
 21
-249.146469
  0
LINE
  8
0
 62
     5
 10
313.955292
 20
-241.792511
 11
323.079376
 21
-238.163742
  0
LINE
  8
0
 62
     5
 10
313.955536
 20
-238.221954
 11
326.806152
 21
-233.111084
  0
LINE
  8
0
 62
     5
 10
323.079498
 20
-238.163773
 11
323.079498
 21
-249.146469
  0
LINE
  8
0
 62
     5
 10
327.503357
 20
-231.368408
 11
327.503357
 21
-232.083389
  0
LINE
  8
0
 62
     5
 10
330.821106
 20
-231.368408
 11
330.821106
 21
-232.833755
  0
LINE
  8
0
 62
     5
 10
313.955444
 20
-238.221893
 11
313.955444
 21
-241.792496
  0
LINE
  8
0
 62
     5
 10
327.503357
 20
-231.368408
 11
330.821106
 21
-231.368408
  0
LINE
  8
0
 10
-118.373566
 20
-86.558479
 11
106.126434
 21
-86.558479
  0
LINE
  8
0
  6
CENTER
 10
-275.873566
 20
-104.558479
 11
134.126434
 21
-104.558479
  0
LINE
  8
0
 10
129.126434
 20
-84.558479
 11
129.126434
 21
-124.558479
  0
LINE
  8
0
 10
106.126434
 20
-84.558479
 11
106.126434
 21
-126.558479
  0
LINE
  8
0
 10
106.126434
 20
-84.558479
 11
129.126434
 21
-84.558479
  0
LINE
  8
0
 10
106.126434
 20
-124.558479
 11
129.126434
 21
-124.558479
  0
LINE
  8
0
  6
CENTER
 10
120.126434
 20
-118.058479
 11
132.126434
 21
-118.058479
  0
LINE
  8
0
 10
123.126434
 20
-111.558479
 11
123.126434
 21
-124.558479
  0
LINE
  8
0
 10
123.126434
 20
-111.558479
 11
129.126434
 21
-111.558479
  0
LINE
  8
0
 10
123.126434
 20
-112.058479
 11
123.826447
 21
-112.058479
  0
LINE
  8
0
 10
123.126434
 20
-124.058479
 11
123.826447
 21
-124.058479
  0
LINE
  8
0
 10
124.623871
 20
-115.749100
 11
128.126434
 21
-115.749100
  0
LINE
  8
0
 10
124.623871
 20
-120.367889
 11
128.126434
 21
-120.367889
  0
LINE
  8
0
 10
124.623871
 20
-113.439697
 11
128.126434
 21
-113.439697
  0
LINE
  8
0
 10
123.826447
 20
-112.058479
 11
123.826447
 21
-124.058479
  0
LINE
  8
0
 10
123.826363
 20
-112.058479
 11
124.623810
 21
-113.439705
  0
LINE
  8
0
 10
123.826439
 20
-124.058449
 11
124.623886
 21
-122.677231
  0
LINE
  8
0
 10
124.623871
 20
-113.439697
 11
124.623871
 21
-122.677254
  0
LINE
  8
0
 10
124.623871
 20
-122.677261
 11
128.126434
 21
-122.677261
  0
LINE
  8
0
 10
128.126434
 20
-113.439697
 11
128.126434
 21
-122.677261
  0
LINE
  8
0
 10
124.623871
 20
-86.439697
 11
128.126434
 21
-86.439697
  0
LINE
  8
0
 10
128.126434
 20
-95.677261
 11
128.126434
 21
-86.439697
  0
LINE
  8
0
  6
CENTER
 10
120.126434
 20
-91.058479
 11
132.126434
 21
-91.058479
  0
LINE
  8
0
 10
123.126434
 20
-97.558479
 11
123.126434
 21
-84.558479
  0
LINE
  8
0
 10
123.126434
 20
-97.558479
 11
129.126434
 21
-97.558479
  0
LINE
  8
0
 10
123.126434
 20
-97.058479
 11
123.826447
 21
-97.058479
  0
LINE
  8
0
 10
123.126434
 20
-85.058479
 11
123.826447
 21
-85.058479
  0
LINE
  8
0
 10
124.623871
 20
-93.367859
 11
128.126434
 21
-93.367859
  0
LINE
  8
0
 10
124.623871
 20
-88.749069
 11
128.126434
 21
-88.749069
  0
LINE
  8
0
 10
124.623871
 20
-95.677261
 11
128.126434
 21
-95.677261
  0
LINE
  8
0
 10
123.826447
 20
-97.058479
 11
123.826447
 21
-85.058479
  0
LINE
  8
0
 10
123.826439
 20
-97.058456
 11
124.623894
 21
-95.677223
  0
LINE
  8
0
 10
123.826500
 20
-85.058449
 11
124.623947
 21
-86.439659
  0
LINE
  8
0
 10
124.623871
 20
-95.677261
 11
124.623871
 21
-86.439705
  0
LINE
  8
0
  6
CENTER
 10
120.626434
 20
-96.558479
 11
120.626434
 21
-112.558479
  0
LINE
  8
0
 10
118.126450
 20
-106.001831
 11
120.626450
 21
-107.445206
  0
LINE
  8
0
 10
120.626373
 20
-107.445244
 11
123.126373
 21
-106.001869
  0
LINE
  8
0
 10
123.126434
 20
-106.001862
 11
123.126434
 21
-103.115105
  0
LINE
  8
0
 10
123.126427
 20
-103.115120
 11
120.626404
 21
-101.671730
  0
LINE
  8
0
 10
120.626518
 20
-101.671829
 11
118.126518
 21
-103.115204
  0
LINE
  8
0
 10
118.126434
 20
-103.115105
 11
118.126434
 21
-106.001854
  0
LINE
  8
0
  6
CENTER
 10
111.126434
 20
-93.058479
 11
111.126434
 21
-103.058479
  0
LINE
  8
0
  6
CENTER
 10
106.126434
 20
-98.058479
 11
116.126434
 21
-98.058479
  0
LINE
  8
0
 10
109.388405
 20
-100.503738
 11
113.571701
 21
-96.320442
  0
LINE
  8
0
 10
108.681297
 20
-99.796631
 11
112.864594
 21
-95.613335
  0
LINE
  8
0
  6
CENTER
 10
-261.873566
 20
-118.058479
 11
-273.873566
 21
-118.058479
  0
LINE
  8
0
 10
-264.873566
 20
-111.558479
 11
-264.873566
 21
-124.558479
  0
LINE
  8
0
 10
-264.873566
 20
-111.558479
 11
-270.873566
 21
-111.558479
  0
LINE
  8
0
 10
-264.873566
 20
-112.058479
 11
-265.573547
 21
-112.058479
  0
LINE
  8
0
 10
-264.873566
 20
-124.058479
 11
-265.573547
 21
-124.058479
  0
LINE
  8
0
 10
-266.371002
 20
-115.749100
 11
-269.873566
 21
-115.749100
  0
LINE
  8
0
 10
-266.371002
 20
-120.367889
 11
-269.873566
 21
-120.367889
  0
LINE
  8
0
 10
-266.371002
 20
-113.439697
 11
-269.873566
 21
-113.439697
  0
LINE
  8
0
 10
-265.573547
 20
-112.058479
 11
-265.573547
 21
-124.058479
  0
LINE
  8
0
 10
-265.573486
 20
-112.058510
 11
-266.370941
 21
-113.439728
  0
LINE
  8
0
 10
-265.573578
 20
-124.058502
 11
-266.371033
 21
-122.677292
  0
LINE
  8
0
 10
-266.371002
 20
-113.439697
 11
-266.371002
 21
-122.677254
  0
LINE
  8
0
 10
-266.371002
 20
-122.677261
 11
-269.873566
 21
-122.677261
  0
LINE
  8
0
 10
-269.873566
 20
-113.439697
 11
-269.873566
 21
-122.677261
  0
LINE
  8
0
  6
CENTER
 10
-262.373566
 20
-96.558479
 11
-262.373566
 21
-112.558479
  0
LINE
  8
0
 10
-259.873505
 20
-106.001846
 11
-262.373505
 21
-107.445221
  0
LINE
  8
0
 10
-262.373474
 20
-107.445122
 11
-264.873474
 21
-106.001747
  0
LINE
  8
0
 10
-264.873535
 20
-106.001862
 11
-264.873535
 21
-103.115105
  0
LINE
  8
0
 10
-264.873596
 20
-103.115143
 11
-262.373596
 21
-101.671768
  0
LINE
  8
0
 10
-262.373505
 20
-101.671638
 11
-259.873505
 21
-103.115013
  0
LINE
  8
0
 10
-259.873596
 20
-103.115105
 11
-259.873596
 21
-106.001854
  0
LINE
  8
0
  6
CENTER
 10
-252.873566
 20
-93.058479
 11
-252.873566
 21
-103.058479
  0
LINE
  8
0
  6
CENTER
 10
-247.873566
 20
-98.058479
 11
-257.873566
 21
-98.058479
  0
LINE
  8
0
 10
-251.135513
 20
-100.503731
 11
-255.318832
 21
-96.320435
  0
LINE
  8
0
 10
-250.428391
 20
-99.796562
 11
-254.611679
 21
-95.613251
  0
LINE
  8
0
 10
-266.371002
 20
-95.677261
 11
-266.371002
 21
-86.439705
  0
LINE
  8
0
 10
-247.873566
 20
-84.558479
 11
-247.873566
 21
-126.558479
  0
LINE
  8
0
 10
-270.873566
 20
-84.558479
 11
-270.873566
 21
-124.558479
  0
LINE
  8
0
 10
-247.873566
 20
-84.558479
 11
-270.873566
 21
-84.558479
  0
LINE
  8
0
 10
-266.371002
 20
-86.439697
 11
-269.873566
 21
-86.439697
  0
LINE
  8
0
 10
-269.873566
 20
-95.677261
 11
-269.873566
 21
-86.439697
  0
LINE
  8
0
  6
CENTER
 10
-261.873566
 20
-91.058479
 11
-273.873566
 21
-91.058479
  0
LINE
  8
0
 10
-264.873566
 20
-97.558479
 11
-264.873566
 21
-84.558479
  0
LINE
  8
0
 10
-264.873566
 20
-97.558479
 11
-270.873566
 21
-97.558479
  0
LINE
  8
0
 10
-264.873566
 20
-97.058479
 11
-265.573547
 21
-97.058479
  0
LINE
  8
0
 10
-264.873566
 20
-85.058479
 11
-265.573547
 21
-85.058479
  0
LINE
  8
0
 10
-266.371002
 20
-93.367859
 11
-269.873566
 21
-93.367859
  0
LINE
  8
0
 10
-266.371002
 20
-88.749069
 11
-269.873566
 21
-88.749069
  0
LINE
  8
0
 10
-266.371002
 20
-95.677261
 11
-269.873566
 21
-95.677261
  0
LINE
  8
0
 10
-265.573547
 20
-97.058479
 11
-265.573547
 21
-85.058479
  0
LINE
  8
0
 10
-265.573486
 20
-97.058456
 11
-266.370941
 21
-95.677238
  0
LINE
  8
0
 10
-265.573486
 20
-85.058510
 11
-266.370941
 21
-86.439728
  0
LINE
  8
0
 10
-247.873566
 20
-124.558479
 11
-270.873566
 21
-124.558479
  0
LINE
  8
0
 10
-247.873566
 20
-126.558479
 11
106.126434
 21
-126.558479
  0
LINE
  8
0
 10
-247.873566
 20
-86.558479
 11
-223.373566
 21
-86.558479
  0
LINE
  8
0
  6
CENTER
 10
-170.873566
 20
-61.558479
 11
-170.873566
 21
-131.558472
  0
LINE
  8
0
  6
CENTER
 10
29.126434
 20
-81.558479
 11
29.126434
 21
-131.558472
  0
LINE
  8
0
 10
-215.873566
 20
-66.558479
 11
-125.873566
 21
-66.558479
  0
LINE
  8
0
 10
-118.373566
 20
-67.058479
 11
-118.373566
 21
-100.558479
  0
LINE
  8
0
 10
-223.373566
 20
-67.058479
 11
-223.373566
 21
-100.558479
  0
LINE
  8
0
 10
-223.373566
 20
-67.058479
 11
-215.873566
 21
-67.058479
  0
LINE
  8
0
 10
-125.873566
 20
-67.058479
 11
-118.373566
 21
-67.058479
  0
LINE
  8
0
 10
-215.873566
 20
-66.558479
 11
-215.873566
 21
-100.558479
  0
LINE
  8
0
 10
-125.873566
 20
-66.558479
 11
-125.873566
 21
-100.558479
  0
LINE
  8
0
 10
-223.373566
 20
-100.558479
 11
-118.373566
 21
-100.558479
  0
LINE
  8
0
  6
CENTER
 10
-128.873566
 20
-76.558479
 11
-112.873566
 21
-76.558479
  0
LINE
  8
0
 10
-115.873566
 20
-69.558479
 11
-115.873566
 21
-83.558479
  0
LINE
  8
0
 10
-117.873566
 20
-69.558479
 11
-117.873566
 21
-83.558479
  0
LINE
  8
0
 10
-117.873566
 20
-69.558479
 11
-115.873566
 21
-69.558479
  0
LINE
  8
0
 10
-117.873566
 20
-83.558479
 11
-115.873566
 21
-83.558479
  0
LINE
  8
0
 10
-118.373566
 20
-81.558479
 11
-117.873566
 21
-81.558479
  0
LINE
  8
0
 10
-118.373566
 20
-71.558479
 11
-117.873566
 21
-71.558479
  0
LINE
  8
0
  6
CENTER
 10
-212.873566
 20
-76.558479
 11
-228.873566
 21
-76.558479
  0
LINE
  8
0
 10
-223.873566
 20
-69.558479
 11
-223.873566
 21
-83.558479
  0
LINE
  8
0
 10
-223.373566
 20
-71.558479
 11
-223.873566
 21
-71.558479
  0
LINE
  8
0
 10
-223.373566
 20
-81.558479
 11
-223.873566
 21
-81.558479
  0
LINE
  8
0
 10
-223.873566
 20
-83.558479
 11
-225.873566
 21
-83.558479
  0
LINE
  8
0
 10
-225.873566
 20
-69.558479
 11
-225.873566
 21
-83.558479
  0
LINE
  8
0
 10
-223.873566
 20
-69.558479
 11
-225.873566
 21
-69.558479
  0
LINE
  8
0
 10
-247.873566
 20
-90.558495
 11
-223.373566
 21
-90.558495
  0
LINE
  8
0
 10
-247.873566
 20
-102.058495
 11
106.126434
 21
-102.058495
  0
LINE
  8
0
 10
-247.873566
 20
-98.858490
 11
-223.373566
 21
-98.858490
  0
LINE
  8
0
 10
-247.873566
 20
-93.426544
 11
-223.373566
 21
-93.426544
  0
LINE
  8
0
 10
-247.873566
 20
-112.258499
 11
106.126434
 21
-112.258499
  0
LINE
  8
0
 10
-247.873566
 20
-117.958496
 11
106.126434
 21
-117.958496
  0
LINE
  8
0
 10
-247.873566
 20
-122.258499
 11
106.126434
 21
-122.258499
  0
LINE
  8
0
 10
-118.373566
 20
-90.558495
 11
106.126434
 21
-90.558495
  0
LINE
  8
0
 10
-118.373566
 20
-93.426544
 11
106.126434
 21
-93.426544
  0
LINE
  8
0
 10
-118.373566
 20
-98.858490
 11
106.126434
 21
-98.858490
  0
LINE
  8
0
  6
CENTER
 10
-275.873505
 20
65.441513
 11
134.126495
 21
65.441513
  0
LINE
  8
0
 10
-247.873505
 20
85.441505
 11
-247.873505
 21
45.441505
  0
LINE
  8
0
 10
-270.873505
 20
85.441505
 11
-270.873505
 21
45.441505
  0
LINE
  8
0
 10
-247.873505
 20
85.441505
 11
-270.873505
 21
85.441505
  0
LINE
  8
0
 10
-247.873505
 20
45.441505
 11
-270.873505
 21
45.441505
  0
LINE
  8
0
 10
-269.873505
 20
74.941505
 11
-269.873505
 21
82.941505
  0
LINE
  8
0
  6
CENTER
 10
-261.873505
 20
78.941505
 11
-273.873505
 21
78.941505
  0
LINE
  8
0
 10
-264.873505
 20
72.441505
 11
-264.873505
 21
85.441505
  0
LINE
  8
0
 10
-264.873505
 20
72.441505
 11
-270.873505
 21
72.441505
  0
LINE
  8
0
 10
-264.873505
 20
72.941505
 11
-265.573486
 21
72.941505
  0
LINE
  8
0
 10
-264.873505
 20
84.941505
 11
-265.573486
 21
84.941505
  0
LINE
  8
0
 10
-265.573486
 20
72.941505
 11
-265.573486
 21
84.941505
  0
LINE
  8
0
 10
-265.573425
 20
72.941528
 11
-266.370880
 21
74.322746
  0
LINE
  8
0
 10
-265.573334
 20
84.941429
 11
-266.370789
 21
83.560211
  0
LINE
  8
0
 10
-266.370941
 20
74.322723
 11
-266.370941
 21
83.560280
  0
LINE
  8
0
 10
-266.370941
 20
74.941505
 11
-269.873505
 21
74.941505
  0
LINE
  8
0
 10
-266.370941
 20
82.941505
 11
-269.873505
 21
82.941505
  0
LINE
  8
0
 10
-266.370941
 20
78.941505
 11
-269.873505
 21
78.941505
  0
LINE
  8
0
 10
-269.873505
 20
55.941521
 11
-269.873505
 21
47.941521
  0
LINE
  8
0
  6
CENTER
 10
-261.873505
 20
51.941521
 11
-273.873505
 21
51.941521
  0
LINE
  8
0
 10
-264.873505
 20
57.941521
 11
-265.573486
 21
57.941521
  0
LINE
  8
0
 10
-264.873505
 20
45.941521
 11
-265.573486
 21
45.941521
  0
LINE
  8
0
 10
-265.573486
 20
57.941521
 11
-265.573486
 21
45.941521
  0
LINE
  8
0
 10
-265.573395
 20
57.941521
 11
-266.370850
 21
56.560299
  0
LINE
  8
0
 10
-265.573364
 20
45.941578
 11
-266.370819
 21
47.322807
  0
LINE
  8
0
 10
-266.370941
 20
56.560303
 11
-266.370941
 21
47.322746
  0
LINE
  8
0
 10
-266.370941
 20
55.941521
 11
-269.873505
 21
55.941521
  0
LINE
  8
0
 10
-266.370941
 20
47.941521
 11
-269.873505
 21
47.941521
  0
LINE
  8
0
 10
-266.370941
 20
51.941521
 11
-269.873505
 21
51.941521
  0
LINE
  8
0
 10
-264.873505
 20
58.441521
 11
-270.873505
 21
58.441521
  0
LINE
  8
0
 10
-264.873505
 20
58.441521
 11
-264.873505
 21
45.441521
  0
LINE
  8
0
 10
123.126495
 20
58.441513
 11
123.126495
 21
45.441513
  0
LINE
  8
0
 10
106.126495
 20
85.441498
 11
106.126495
 21
45.441498
  0
LINE
  8
0
 10
129.126495
 20
85.441498
 11
129.126495
 21
45.441498
  0
LINE
  8
0
 10
106.126495
 20
85.441505
 11
129.126495
 21
85.441505
  0
LINE
  8
0
 10
106.126495
 20
45.441505
 11
129.126495
 21
45.441505
  0
LINE
  8
0
 10
128.126495
 20
74.941498
 11
128.126495
 21
82.941498
  0
LINE
  8
0
  6
CENTER
 10
120.126495
 20
78.941505
 11
132.126495
 21
78.941505
  0
LINE
  8
0
 10
123.126495
 20
72.441498
 11
123.126495
 21
85.441498
  0
LINE
  8
0
 10
123.126495
 20
72.441505
 11
129.126495
 21
72.441505
  0
LINE
  8
0
 10
123.126495
 20
72.941505
 11
123.826477
 21
72.941505
  0
LINE
  8
0
 10
123.126495
 20
84.941505
 11
123.826477
 21
84.941505
  0
LINE
  8
0
 10
123.826477
 20
72.941498
 11
123.826477
 21
84.941498
  0
LINE
  8
0
 10
123.826401
 20
72.941513
 11
124.623856
 21
74.322723
  0
LINE
  8
0
 10
123.826363
 20
84.941429
 11
124.623817
 21
83.560219
  0
LINE
  8
0
 10
124.623932
 20
74.322716
 11
124.623932
 21
83.560272
  0
LINE
  8
0
 10
124.623932
 20
74.941505
 11
128.126495
 21
74.941505
  0
LINE
  8
0
 10
124.623932
 20
82.941505
 11
128.126495
 21
82.941505
  0
LINE
  8
0
 10
124.623932
 20
78.941505
 11
128.126495
 21
78.941505
  0
LINE
  8
0
 10
128.126495
 20
55.941513
 11
128.126495
 21
47.941513
  0
LINE
  8
0
  6
CENTER
 10
120.126495
 20
51.941521
 11
132.126495
 21
51.941521
  0
LINE
  8
0
 10
123.126495
 20
57.941521
 11
123.826477
 21
57.941521
  0
LINE
  8
0
 10
123.126495
 20
45.941521
 11
123.826477
 21
45.941521
  0
LINE
  8
0
 10
123.826477
 20
57.941513
 11
123.826477
 21
45.941513
  0
LINE
  8
0
 10
123.826393
 20
57.941505
 11
124.623856
 21
56.560276
  0
LINE
  8
0
 10
123.826477
 20
45.941513
 11
124.623932
 21
47.322742
  0
LINE
  8
0
 10
124.623932
 20
56.560295
 11
124.623932
 21
47.322739
  0
LINE
  8
0
 10
124.623932
 20
55.941521
 11
128.126495
 21
55.941521
  0
LINE
  8
0
 10
124.623932
 20
47.941521
 11
128.126495
 21
47.941521
  0
LINE
  8
0
 10
124.623932
 20
51.941521
 11
128.126495
 21
51.941521
  0
LINE
  8
0
 10
123.126495
 20
58.441521
 11
129.126495
 21
58.441521
  0
LINE
  8
0
  6
CENTER
 10
29.126495
 20
88.441505
 11
29.126495
 21
42.441505
  0
LINE
  8
0
 10
-247.873505
 20
83.441513
 11
-223.373566
 21
83.441513
  0
LINE
  8
0
 10
-247.873505
 20
47.441513
 11
-223.373566
 21
47.441513
  0
LINE
  8
0
 10
-247.873505
 20
58.241512
 11
-223.373566
 21
58.241512
  0
LINE
  8
0
 10
-247.873505
 20
72.641510
 11
-223.373566
 21
72.641510
  0
LINE
  8
0
  6
CENTER
 10
-170.873505
 20
102.941513
 11
-170.873505
 21
27.941513
  0
LINE
  8
0
 10
-225.873566
 20
72.441513
 11
-225.873566
 21
58.441513
  0
LINE
  8
0
 10
-223.873566
 20
72.441513
 11
-223.873566
 21
58.441513
  0
LINE
  8
0
 10
-223.373566
 20
97.441513
 11
-223.373566
 21
33.441513
  0
LINE
  8
0
 10
-215.873566
 20
97.941513
 11
-215.873566
 21
32.941513
  0
LINE
  8
0
 10
-125.873566
 20
97.941513
 11
-125.873566
 21
32.941513
  0
LINE
  8
0
 10
-118.373566
 20
97.441513
 11
-118.373566
 21
33.441513
  0
LINE
  8
0
 10
-215.873566
 20
32.941513
 11
-125.873566
 21
32.941513
  0
LINE
  8
0
 10
-215.873566
 20
97.941513
 11
-125.873566
 21
97.941513
  0
LINE
  8
0
 10
-118.373566
 20
47.441513
 11
106.126495
 21
47.441513
  0
LINE
  8
0
 10
-118.373566
 20
83.441513
 11
106.126495
 21
83.441513
  0
LINE
  8
0
 10
-223.373566
 20
97.441513
 11
-215.873566
 21
97.441513
  0
LINE
  8
0
 10
-223.373566
 20
33.441513
 11
-215.873566
 21
33.441513
  0
LINE
  8
0
 10
-125.873566
 20
33.441513
 11
-118.373566
 21
33.441513
  0
LINE
  8
0
 10
-125.873566
 20
97.441513
 11
-118.373566
 21
97.441513
  0
LINE
  8
0
 10
-215.873566
 20
40.441513
 11
-125.873566
 21
40.441513
  0
LINE
  8
0
 10
-215.873566
 20
90.441513
 11
-125.873566
 21
90.441513
  0
LINE
  8
0
 10
-225.873566
 20
72.441513
 11
-223.873566
 21
72.441513
  0
LINE
  8
0
 10
-225.873566
 20
58.441513
 11
-223.873566
 21
58.441513
  0
LINE
  8
0
 10
-223.873566
 20
60.441513
 11
-223.373566
 21
60.441513
  0
LINE
  8
0
 10
-223.873566
 20
70.441513
 11
-223.373566
 21
70.441513
  0
LINE
  8
0
 10
-115.873444
 20
58.441513
 11
-117.873444
 21
58.441513
  0
LINE
  8
0
 10
-117.873444
 20
60.441513
 11
-118.373444
 21
60.441513
  0
LINE
  8
0
 10
-115.873444
 20
72.441513
 11
-117.873444
 21
72.441513
  0
LINE
  8
0
 10
-115.873444
 20
72.441513
 11
-115.873444
 21
58.441513
  0
LINE
  8
0
 10
-117.873444
 20
72.441513
 11
-117.873444
 21
58.441513
  0
LINE
  8
0
 10
-117.873444
 20
70.441513
 11
-118.373444
 21
70.441513
  0
LINE
  8
0
 10
-118.373566
 20
72.641510
 11
106.126495
 21
72.641510
  0
LINE
  8
0
 10
-118.373566
 20
58.241512
 11
106.126495
 21
58.241512
  0
LINE
  8
0
  6
CENTER
 10
-205.873505
 20
69.941513
 11
-205.873505
 21
60.941513
  0
LINE
  8
0
  6
CENTER
 10
-205.873505
 20
87.441513
 11
-205.873505
 21
78.441513
  0
LINE
  8
0
  6
CENTER
 10
-205.873505
 20
52.441513
 11
-205.873505
 21
43.441513
  0
LINE
  8
0
  6
CENTER
 10
-210.373505
 20
47.941513
 11
-201.373505
 21
47.941513
  0
LINE
  8
0
  6
CENTER
 10
-210.373505
 20
82.941513
 11
-201.373505
 21
82.941513
  0
LINE
  8
0
  6
CENTER
 10
-135.873505
 20
69.941513
 11
-135.873505
 21
60.941513
  0
LINE
  8
0
  6
CENTER
 10
-135.873505
 20
87.441513
 11
-135.873505
 21
78.441513
  0
LINE
  8
0
  6
CENTER
 10
-135.873505
 20
52.441513
 11
-135.873505
 21
43.441513
  0
LINE
  8
0
  6
CENTER
 10
-131.373505
 20
47.941513
 11
-140.373505
 21
47.941513
  0
LINE
  8
0
  6
CENTER
 10
-131.373505
 20
82.941513
 11
-140.373505
 21
82.941513
  0
LINE
  8
0
  6
CENTER
 10
259.126404
 20
-61.558495
 11
259.126404
 21
-131.558487
  0
LINE
  8
0
  6
CENTER
 10
234.126404
 20
-104.558495
 11
284.126404
 21
-104.558495
  0
LINE
  8
0
 10
239.126404
 20
-91.058495
 11
239.126404
 21
-118.058495
  0
LINE
  8
0
 10
279.126404
 20
-91.058495
 11
279.126404
 21
-118.058495
  0
LINE
  8
0
 10
245.626404
 20
-84.558495
 11
272.626404
 21
-84.558495
  0
LINE
  8
0
  6
CENTER
 10
245.626404
 20
-109.558495
 11
245.626404
 21
-126.558495
  0
LINE
  8
0
  6
CENTER
 10
237.126404
 20
-118.058495
 11
254.126404
 21
-118.058495
  0
LINE
  8
0
 10
241.626450
 20
-120.367928
 11
245.626450
 21
-122.677330
  0
LINE
  8
0
 10
245.626450
 20
-122.677368
 11
249.626434
 21
-120.367973
  0
LINE
  8
0
 10
249.626404
 20
-120.367897
 11
249.626404
 21
-115.749100
  0
LINE
  8
0
 10
249.626419
 20
-115.749107
 11
245.626419
 21
-113.439705
  0
LINE
  8
0
 10
245.626495
 20
-113.439835
 11
241.626495
 21
-115.749229
  0
LINE
  8
0
 10
241.626404
 20
-115.749115
 11
241.626404
 21
-120.367905
  0
LINE
  8
0
  6
CENTER
 10
245.626404
 20
-99.558495
 11
245.626404
 21
-82.558495
  0
LINE
  8
0
  6
CENTER
 10
237.126404
 20
-91.058495
 11
254.126404
 21
-91.058495
  0
LINE
  8
0
 10
241.626404
 20
-88.748985
 11
245.626404
 21
-86.439583
  0
LINE
  8
0
 10
245.626389
 20
-86.439674
 11
249.626389
 21
-88.749084
  0
LINE
  8
0
 10
249.626404
 20
-88.749092
 11
249.626404
 21
-93.367889
  0
LINE
  8
0
 10
249.626404
 20
-93.367882
 11
245.626419
 21
-95.677269
  0
LINE
  8
0
 10
245.626404
 20
-95.677299
 11
241.626419
 21
-93.367905
  0
LINE
  8
0
 10
241.626404
 20
-93.367874
 11
241.626404
 21
-88.749084
  0
LINE
  8
0
  6
CENTER
 10
272.626404
 20
-109.558495
 11
272.626404
 21
-126.558495
  0
LINE
  8
0
  6
CENTER
 10
281.126404
 20
-118.058495
 11
264.126404
 21
-118.058495
  0
LINE
  8
0
 10
276.626343
 20
-120.367805
 11
272.626343
 21
-122.677208
  0
LINE
  8
0
 10
272.626343
 20
-122.677277
 11
268.626373
 21
-120.367889
  0
LINE
  8
0
 10
268.626404
 20
-120.367897
 11
268.626404
 21
-115.749100
  0
LINE
  8
0
 10
268.626404
 20
-115.749069
 11
272.626373
 21
-113.439674
  0
LINE
  8
0
 10
272.626404
 20
-113.439735
 11
276.626404
 21
-115.749130
  0
LINE
  8
0
 10
276.626404
 20
-115.749115
 11
276.626404
 21
-120.367905
  0
LINE
  8
0
  6
CENTER
 10
272.626404
 20
-99.558495
 11
272.626404
 21
-82.558495
  0
LINE
  8
0
  6
CENTER
 10
281.126404
 20
-91.058495
 11
264.126404
 21
-91.058495
  0
LINE
  8
0
 10
276.626373
 20
-88.749084
 11
272.626404
 21
-86.439697
  0
LINE
  8
0
 10
272.626404
 20
-86.439659
 11
268.626434
 21
-88.749046
  0
LINE
  8
0
 10
268.626404
 20
-88.749092
 11
268.626404
 21
-93.367889
  0
LINE
  8
0
 10
268.626465
 20
-93.367874
 11
272.626434
 21
-95.677269
  0
LINE
  8
0
 10
272.626495
 20
-95.677376
 11
276.626465
 21
-93.367989
  0
LINE
  8
0
 10
276.626404
 20
-93.367874
 11
276.626404
 21
-88.749084
  0
LINE
  8
0
 10
252.126404
 20
-124.558495
 11
252.126404
 21
-118.058495
  0
LINE
  8
0
 10
266.126404
 20
-84.558495
 11
266.126404
 21
-91.058495
  0
LINE
  8
0
 10
239.126404
 20
-97.558495
 11
245.626404
 21
-97.558495
  0
LINE
  8
0
 10
239.126404
 20
-111.558495
 11
245.626404
 21
-111.558495
  0
LINE
  8
0
 10
272.626404
 20
-97.558495
 11
279.126404
 21
-97.558495
  0
LINE
  8
0
 10
272.626404
 20
-111.558495
 11
279.126404
 21
-111.558495
  0
LINE
  8
0
 10
252.126404
 20
-91.058495
 11
252.126404
 21
-84.558495
  0
LINE
  8
0
 10
266.126404
 20
-118.058495
 11
266.126404
 21
-124.558495
  0
LINE
  8
0
  6
CENTER
 10
269.126404
 20
-97.058495
 11
269.126404
 21
-112.058495
  0
LINE
  8
0
  6
CENTER
 10
253.126404
 20
-97.058495
 11
253.126404
 21
-112.058495
  0
LINE
  8
0
 10
245.626404
 20
-124.558495
 11
272.626404
 21
-124.558495
  0
LINE
  8
0
 10
234.126404
 20
-66.558495
 11
284.126404
 21
-66.558495
  0
LINE
  8
0
 10
237.126404
 20
-126.558495
 11
247.126404
 21
-126.558495
  0
LINE
  8
0
 10
239.126404
 20
-86.558495
 11
240.935989
 21
-86.558495
  0
LINE
  8
0
 10
237.126404
 20
-88.558495
 11
237.126404
 21
-90.558495
  0
LINE
  8
0
 10
237.126404
 20
-99.786697
 11
237.126404
 21
-102.058495
  0
LINE
  8
0
 10
237.126419
 20
-90.558502
 11
239.126404
 21
-91.713196
  0
LINE
  8
0
 10
237.126404
 20
-102.058495
 11
239.126404
 21
-102.058495
  0
LINE
  8
0
 10
237.126404
 20
-113.058495
 11
237.126404
 21
-117.158493
  0
LINE
  8
0
 10
238.726410
 20
-113.058495
 11
238.726410
 21
-113.058495
  0
LINE
  8
0
 10
237.126404
 20
-122.258499
 11
237.126404
 21
-126.558495
  0
LINE
  8
0
 10
240.126404
 20
-121.522598
 11
240.126404
 21
-122.787476
  0
LINE
  8
0
 10
237.126404
 20
-122.258484
 11
240.126404
 21
-122.787468
  0
LINE
  8
0
 10
281.126404
 20
-88.558495
 11
281.126404
 21
-90.558495
  0
LINE
  8
0
 10
281.126404
 20
-99.786697
 11
281.126404
 21
-102.058495
  0
LINE
  8
0
 10
281.126434
 20
-90.558495
 11
279.126434
 21
-91.713188
  0
LINE
  8
0
 10
281.126404
 20
-102.058495
 11
279.126404
 21
-102.058495
  0
LINE
  8
0
 10
281.126404
 20
-113.058495
 11
281.126404
 21
-117.158493
  0
LINE
  8
0
 10
281.126404
 20
-122.258499
 11
281.126404
 21
-126.558495
  0
LINE
  8
0
 10
278.126404
 20
-121.522598
 11
278.126404
 21
-122.787476
  0
LINE
  8
0
 10
281.126373
 20
-122.258461
 11
278.126373
 21
-122.787445
  0
LINE
  8
0
 10
271.126404
 20
-126.558495
 11
281.126404
 21
-126.558495
  0
LINE
  8
0
 10
277.316833
 20
-86.558495
 11
279.126404
 21
-86.558495
  0
LINE
  8
0
 10
291.626404
 20
-68.058495
 11
291.626404
 21
-97.558495
  0
LINE
  8
0
 10
226.626404
 20
-68.058495
 11
226.626404
 21
-97.558495
  0
LINE
  8
0
 10
227.626404
 20
-67.058495
 11
290.626404
 21
-67.058495
  0
LINE
  8
0
 10
234.126404
 20
-66.558495
 11
233.626404
 21
-67.058495
  0
LINE
  8
0
 10
284.126404
 20
-66.558495
 11
284.626404
 21
-67.058495
  0
LINE
  8
0
 10
229.626404
 20
-100.558495
 11
236.126404
 21
-100.558495
  0
LINE
  8
0
  6
CENTER
 10
249.126404
 20
-76.558495
 11
269.126404
 21
-76.558495
  0
LINE
  8
0
 10
227.126404
 20
-68.058495
 11
227.126404
 21
-97.558495
  0
LINE
  8
0
 10
291.126404
 20
-68.058495
 11
291.126404
 21
-97.558495
  0
LINE
  8
0
 10
236.126404
 20
-99.786697
 11
236.126404
 21
-100.558495
  0
LINE
  8
0
 10
236.126419
 20
-91.135834
 11
239.126419
 21
-92.867889
  0
LINE
  8
0
 10
236.126404
 20
-88.558495
 11
236.126404
 21
-91.135834
  0
LINE
  8
0
 10
239.126404
 20
-85.558495
 11
242.162308
 21
-85.558495
  0
LINE
  8
0
 10
282.126404
 20
-99.786697
 11
282.126404
 21
-100.558495
  0
LINE
  8
0
 10
282.126465
 20
-91.135910
 11
279.126465
 21
-92.867958
  0
LINE
  8
0
 10
282.126404
 20
-88.558495
 11
282.126404
 21
-91.135834
  0
LINE
  8
0
 10
279.126404
 20
-85.558495
 11
276.090515
 21
-85.558495
  0
LINE
  8
0
 10
282.126404
 20
-100.558495
 11
288.626404
 21
-100.558495
  0
LINE
  8
0
 10
-134.623489
 20
85.106583
 11
-117.109619
 21
115.441513
  0
LINE
  8
0
 10
-134.623489
 20
85.106583
 11
-133.329391
 21
89.936211
  0
LINE
  8
0
 10
-134.623489
 20
85.106583
 11
-131.087952
 21
88.642113
  0
LINE
  8
0
 10
-117.109619
 20
115.441513
 11
-57.750000
 21
115.441513
  0
LINE
  8
0
 10
118.194405
 20
-100.346100
 11
91.758919
 21
-54.558464
  0
LINE
  8
0
 10
118.194412
 20
-100.346107
 11
116.900314
 21
-95.516472
  0
LINE
  8
0
 10
118.194397
 20
-100.346092
 11
114.658859
 21
-96.810555
  0
LINE
  8
0
 10
39.473949
 20
-54.558464
 11
91.758919
 21
-54.558464
  0
LINE
  8
0
 10
-170.873566
 20
-131.558472
 11
-170.873566
 21
-168.558472
  0
LINE
  8
0
 10
29.126434
 20
-131.558472
 11
29.126434
 21
-168.558472
  0
LINE
  8
0
 10
-170.873566
 20
-164.558472
 11
29.126434
 21
-164.558472
  0
LINE
  8
0
 10
24.296803
 20
-165.852554
 11
29.126432
 21
-164.558456
  0
LINE
  8
0
 10
-170.873550
 20
-164.558456
 11
-166.043930
 21
-163.264359
  0
LINE
  8
0
 10
-170.873566
 20
-164.558472
 11
-166.043930
 21
-165.852554
  0
LINE
  8
0
 10
24.296806
 20
-163.264359
 11
29.126436
 21
-164.558456
  0
ARC
  8
0
 62
     5
 10
273.035400
 20
-235.045654
 40
2.211884
 50
0.000000
 51
90.000000
  0
ARC
  8
0
 62
     5
 10
291.283569
 20
-246.934647
 40
2.211899
 50
270.000000
 51
0.000000
  0
ARC
  8
0
 62
     5
 10
290.177551
 20
-236.151566
 40
3.317841
 50
0.000000
 51
90.000000
  0
ARC
  8
0
 62
     5
 10
310.361115
 20
-236.812775
 40
2.211890
 50
294.999969
 51
0.000000
  0
ARC
  8
0
 62
     5
 10
310.361115
 20
-235.045654
 40
2.211884
 50
0.000000
 51
90.000000
  0
ARC
  8
0
 62
     5
 10
327.503357
 20
-232.833755
 40
3.317840
 50
291.688385
 51
0.000000
  0
ARC
  8
0
 62
     5
 10
326.397308
 20
-232.083389
 40
1.105946
 50
291.688965
 51
0.000000
  0
CIRCLE
  8
0
 10
-252.873566
 20
-98.058479
 40
3.000000
  0
CIRCLE
  8
0
 10
-262.373566
 20
-104.558479
 40
4.283000
  0
CIRCLE
  8
0
 10
120.626434
 20
-104.558479
 40
4.283000
  0
CIRCLE
  8
0
 10
111.126434
 20
-98.058479
 40
3.000000
  0
CIRCLE
  8
0
 10
-262.373566
 20
-104.558479
 40
4.864000
  0
CIRCLE
  8
0
 10
120.626434
 20
-104.558479
 40
4.864000
  0
CIRCLE
  8
0
 10
-135.873505
 20
47.941513
 40
2.500000
  0
CIRCLE
  8
0
 10
-135.873505
 20
65.441513
 40
2.067000
  0
CIRCLE
  8
0
 10
-135.873505
 20
47.941513
 40
2.067000
  0
CIRCLE
  8
0
 10
-205.873505
 20
82.941513
 40
2.500000
  0
CIRCLE
  8
0
 10
-205.873505
 20
65.441513
 40
2.500000
  0
CIRCLE
  8
0
 10
-205.873505
 20
47.941513
 40
2.500000
  0
CIRCLE
  8
0
 10
-205.873505
 20
47.941513
 40
2.067000
  0
CIRCLE
  8
0
 10
-205.873505
 20
65.441513
 40
2.067000
  0
CIRCLE
  8
0
 10
-205.873505
 20
82.941513
 40
2.067000
  0
CIRCLE
  8
0
 10
-135.873505
 20
82.941513
 40
2.067000
  0
CIRCLE
  8
0
 10
-135.873505
 20
82.941513
 40
2.500000
  0
CIRCLE
  8
0
 10
-135.873505
 20
65.441513
 40
2.500000
  0
ARC
  8
0
 10
288.626404
 20
-97.558495
 40
3.000000
 50
270.000000
 51
0.000000
  0
ARC
  8
0
 10
279.126404
 20
-88.558495
 40
3.000000
 50
0.000000
 51
90.000000
  0
ARC
  8
0
 10
288.126404
 20
-97.558495
 40
3.000000
 50
270.000000
 51
0.000000
  0
CIRCLE
  8
0
 10
245.626404
 20
-118.058495
 40
4.000000
  0
CIRCLE
  8
0
 10
245.626404
 20
-118.058495
 40
6.000000
  0
CIRCLE
  8
0
 10
245.626404
 20
-118.058495
 40
2.500000
  0
CIRCLE
  8
0
 10
245.626404
 20
-118.058495
 40
2.067000
  0
CIRCLE
  8
0
 10
245.626404
 20
-91.058495
 40
2.067000
  0
CIRCLE
  8
0
 10
245.626404
 20
-91.058495
 40
4.000000
  0
CIRCLE
  8
0
 10
245.626404
 20
-91.058495
 40
6.000000
  0
CIRCLE
  8
0
 10
245.626404
 20
-91.058495
 40
2.500000
  0
CIRCLE
  8
0
 10
272.626404
 20
-118.058495
 40
2.067000
  0
CIRCLE
  8
0
 10
272.626404
 20
-118.058495
 40
4.000000
  0
CIRCLE
  8
0
 10
272.626404
 20
-118.058495
 40
6.000000
  0
CIRCLE
  8
0
 10
272.626404
 20
-118.058495
 40
2.500000
  0
CIRCLE
  8
0
 10
272.626404
 20
-91.058495
 40
2.067000
  0
CIRCLE
  8
0
 10
272.626404
 20
-91.058495
 40
4.000000
  0
CIRCLE
  8
0
 10
272.626404
 20
-91.058495
 40
6.000000
  0
CIRCLE
  8
0
 10
272.626404
 20
-91.058495
 40
2.500000
  0
ARC
  8
0
 10
245.626404
 20
-91.058495
 40
6.500000
 50
90.000000
 51
179.999939
  0
ARC
  8
0
 10
245.626404
 20
-118.058495
 40
6.500000
 50
180.000000
 51
270.000000
  0
ARC
  8
0
 10
272.626404
 20
-118.058495
 40
6.500000
 50
270.000000
 51
0.000000
  0
ARC
  8
0
 10
272.626404
 20
-91.058495
 40
6.500000
 50
0.000000
 51
90.000000
  0
ARC
  8
0
 10
272.626404
 20
-91.058495
 40
6.500000
 50
180.000000
 51
270.000000
  0
ARC
  8
0
 10
245.626404
 20
-91.058495
 40
6.500000
 50
270.000000
 51
0.000000
  0
ARC
  8
0
 10
245.626404
 20
-118.058495
 40
6.500000
 50
0.000000
 51
90.000000
  0
ARC
  8
0
 10
272.626404
 20
-118.058495
 40
6.500000
 50
90.000000
 51
179.999939
  0
CIRCLE
  8
0
 10
269.126404
 20
-104.558495
 40
4.864000
  0
CIRCLE
  8
0
 10
269.126404
 20
-104.558495
 40
4.283000
  0
CIRCLE
  8
0
 10
253.126404
 20
-104.558495
 40
4.283000
  0
CIRCLE
  8
0
 10
253.126404
 20
-104.558495
 40
4.864000
  0
ARC
  8
0
 10
239.126404
 20
-88.558495
 40
2.000000
 50
90.000000
 51
180.000000
  0
ARC
  8
0
 10
237.126404
 20
-92.858490
 40
6.000002
 50
278.213257
 51
289.471222
  0
ARC
  8
0
 10
238.126404
 20
-99.786697
 40
1.000002
 50
98.212944
 51
180.000000
  0
ARC
  8
0
 10
237.926407
 20
-113.058495
 40
0.800003
 50
0.000000
 51
180.000000
  0
ARC
  8
0
 10
239.576401
 20
-113.058495
 40
0.850006
 50
180.000000
 51
238.034622
  0
ARC
  8
0
 10
237.926407
 20
-117.158493
 40
0.800003
 50
180.000000
 51
0.000000
  0
ARC
  8
0
 10
239.576401
 20
-117.158493
 40
0.850003
 50
121.965370
 51
180.000000
  0
ARC
  8
0
 10
278.676392
 20
-117.158493
 40
0.850006
 50
0.000000
 51
58.033211
  0
ARC
  8
0
 10
279.126404
 20
-88.558495
 40
2.000000
 50
0.000000
 51
90.000000
  0
ARC
  8
0
 10
281.126404
 20
-92.858490
 40
5.999999
 50
250.528778
 51
261.786743
  0
ARC
  8
0
 10
280.126404
 20
-99.786697
 40
1.000000
 50
0.000000
 51
81.787056
  0
ARC
  8
0
 10
280.326416
 20
-113.058495
 40
0.799988
 50
0.000000
 51
180.000000
  0
ARC
  8
0
 10
278.676392
 20
-113.058495
 40
0.849998
 50
301.966797
 51
0.000000
  0
ARC
  8
0
 10
280.326416
 20
-117.158493
 40
0.799988
 50
180.000000
 51
0.000000
  0
ARC
  8
0
 10
249.126404
 20
-126.558495
 40
2.000000
 50
90.000000
 51
180.000000
  0
ARC
  8
0
 10
269.126404
 20
-126.558495
 40
2.000000
 50
0.000000
 51
90.000000
  0
CIRCLE
  8
0
 10
259.126404
 20
-76.558495
 40
7.000000
  0
ARC
  8
0
 10
290.126404
 20
-68.058495
 40
1.000000
 50
0.000000
 51
90.000000
  0
ARC
  8
0
 10
228.126404
 20
-68.058495
 40
1.000000
 50
90.000000
 51
180.000000
  0
ARC
  8
0
 10
227.626404
 20
-68.058495
 40
1.000000
 50
90.000000
 51
180.000000
  0
ARC
  8
0
 10
290.626404
 20
-68.058495
 40
1.000000
 50
0.000000
 51
90.000000
  0
ARC
  8
0
 10
230.126404
 20
-97.558495
 40
3.000000
 50
180.000000
 51
270.000000
  0
ARC
  8
0
 10
229.626404
 20
-97.558495
 40
3.000000
 50
180.000000
 51
270.000000
  0
ARC
  8
0
 10
238.126404
 20
-99.786697
 40
1.999999
 50
98.213402
 51
180.000000
  0
ARC
  8
0
 10
237.126404
 20
-92.858490
 40
4.999998
 50
278.213135
 51
293.578186
  0
ARC
  8
0
 10
239.126404
 20
-88.558495
 40
3.000000
 50
90.000000
 51
180.000000
  0
ARC
  8
0
 10
280.126404
 20
-99.786697
 40
2.000000
 50
0.000000
 51
81.787025
  0
ARC
  8
0
 10
281.126404
 20
-92.858490
 40
4.999998
 50
246.421814
 51
261.786682
  0
TEXT
  8
0
 10
226.462494
 20
233.607468
 40
8.500000
  1
DATE : OCT ,1991
 50
0.000000
 41
1.052631
 51
0.000000
  7
STANDARD
  0
TEXT
  8
0
 10
-366.896790
 20
232.257462
 40
10.000000
  1
RODLESS CYLINDER
 50
0.000000
 41
0.937799
 51
0.000000
  7
STANDARD
  0
TEXT
  8
0
 10
-347.052124
 20
187.956390
 40
10.000000
  1
MODEL : ORGA 25xSt(200)
 50
0.000000
 41
1.052632
 51
0.000000
  7
STANDARD
  0
TEXT
  8
0
 10
-116.359604
 20
115.141502
 40
7.000000
  1
6-M5x0.8
 50
0.000000
 41
1.052632
 51
0.000000
  7
STANDARD
  0
TEXT
  8
0
 10
39.508911
 20
-54.858467
 40
7.000000
  1
6-Rc1/8
 50
0.000000
 41
1.052632
 51
0.000000
  7
STANDARD
  0
TEXT
  8
0
 10
-92.623566
 20
-162.858475
 40
7.000000
  1
STROKE
 50
0.000000
 41
1.052632
 51
0.000000
  7
STANDARD
  0
ENDSEC
  0
EOF
