  0
SECTION
  2
HEADER
  0
ENDSEC
  0
SECTION
  2
TABLES
  0
TABLE
  2
LTYPE
 70
     4
  0
LTYPE
  2
CONTINUOUS
 70
    64
  3
Solid line
 72
    65
 73
     0
 40
0.000000
  0
LTYPE
  2
DASHED
 70
    64
  3
__ __ __ __ __ __ __ __ __ __ __ __ __ __ __
 72
    65
 73
     2
 40
3.500000
 49
2.000000
 49
-1.500000
  0
LTYPE
  2
CENTER
 70
    64
  3
____ _ ____ _ ____ _ ____ _ ____ _ ____ _ ____
 72
    65
 73
     4
 40
17.500000
 49
13.000000
 49
-1.500000
 49
1.500000
 49
-1.500000
  0
LTYPE
  2
PHANTOM
 70
    64
  3
_____ _ _ _____ _ _ _____ _ _ _____ _ _ ____  
 72
    65
 73
     6
 40
15.500000
 49
8.000000
 49
-1.500000
 49
1.500000
 49
-1.500000
 49
1.500000
 49
-1.500000
  0
LTYPE
  2
DASHED1
 70
    64
  3
__ __ __ __ __ __ __ __ __ __ __ __ __ __ __
 72
    65
 73
     2
 40
1.500000
 49
1.000000
 49
-0.500000
  0
LTYPE
  2
DASHED2
 70
    64
  3
__ __ __ __ __ __ __ __ __ __ __ __ __ __ __
 72
    65
 73
     2
 40
3.500000
 49
2.500000
 49
-1.000000
  0
LTYPE
  2
DASHED3
 70
    64
  3
__ __ __ __ __ __ __ __ __ __ __ __ __ __ __
 72
    65
 73
     2
 40
6.000000
 49
4.000000
 49
-2.000000
  0
LTYPE
  2
DASHED4
 70
    64
  3
__ __ __ __ __ __ __ __ __ __ __ __ __ __ __
 72
    65
 73
     2
 40
12.000000
 49
10.000000
 49
-2.000000
  0
LTYPE
  2
DASHED5
 70
    64
  3
__ __ __ __ __ __ __ __ __ __ __ __ __ __ __
 72
    65
 73
     2
 40
17.000000
 49
15.000000
 49
-2.000000
  0
LTYPE
  2
DASHED6
 70
    64
  3
__ __ __ __ __ __ __ __ __ __ __ __ __ __ __
 72
    65
 73
     2
 40
29.000000
 49
27.000000
 49
-2.000000
  0
LTYPE
  2
PHANTOM1
 70
    64
  3
_____ _ _ _____ _ _ _____ _ _ _____ _ _ ____  
 72
    65
 73
     6
 40
31.000000
 49
25.000000
 49
-1.500000
 49
1.000000
 49
-1.000000
 49
1.000000
 49
-1.500000
  0
LTYPE
  2
PHANTOM2
 70
    64
  3
_____ _ _ _____ _ _ _____ _ _ _____ _ _ ____  
 72
    65
 73
     6
 40
36.000000
 49
27.000000
 49
-1.500000
 49
2.500000
 49
-1.000000
 49
2.500000
 49
-1.500000
  0
LTYPE
  2
PHANTOM3
 70
    64
  3
_____ _ _ _____ _ _ _____ _ _ _____ _ _ ____  
 72
    65
 73
     6
 40
78.000000
 49
64.000000
 49
-2.000000
 49
4.000000
 49
-2.000000
 49
4.000000
 49
-2.000000
  0
LTYPE
  2
CENTER1
 70
    64
  3
____ _ ____ _ ____ _ ____ _ ____ _ ____ _ ____
 72
    65
 73
     4
 40
19.000000
 49
14.000000
 49
-1.000000
 49
3.000000
 49
-1.000000
  0
LTYPE
  2
CENTER2
 70
    64
  3
____ _ ____ _ ____ _ ____ _ ____ _ ____ _ ____
 72
    65
 73
     4
 40
28.500000
 49
25.000000
 49
-1.000000
 49
1.500000
 49
-1.000000
  0
LTYPE
  2
CENTER3
 70
    64
  3
____ _ ____ _ ____ _ ____ _ ____ _ ____ _ ____
 72
    65
 73
     4
 40
31.500000
 49
27.000000
 49
-1.000000
 49
2.500000
 49
-1.000000
  0
LTYPE
  2
CENTER4
 70
    64
  3
____ _ ____ _ ____ _ ____ _ ____ _ ____ _ ____
 72
    65
 73
     4
 40
50.000000
 49
45.000000
 49
-1.000000
 49
3.000000
 49
-1.000000
  0
LTYPE
  2
CENTER5
 70
    64
  3
____ _ ____ _ ____ _ ____ _ ____ _ ____ _ ____
 72
    65
 73
     4
 40
100.000000
 49
92.000000
 49
-2.000000
 49
4.000000
 49
-2.000000
  0
LTYPE
  2
SBK1
 70
    64
  3
______ _ _ _ ______ _ _ _ ______ _ _ _ _____  
 72
    65
 73
     8
 40
60.500000
 49
45.000000
 49
-2.000000
 49
2.500000
 49
-2.000000
 49
2.500000
 49
-2.000000
 49
2.500000
 49
-2.000000
  0
LTYPE
  2
SBK2
 70
    64
  3
______ _ _ _ ______ _ _ _ ______ _ _ _ _____  
 72
    65
 73
     8
 40
84.000000
 49
64.000000
 49
-2.000000
 49
4.000000
 49
-2.000000
 49
4.000000
 49
-2.000000
 49
4.000000
 49
-2.000000
  0
LTYPE
  2
STCH
 70
    64
  3
__ __ __ __ __ __ __ __ __ __ __ __ __ __ __
 72
    65
 73
     2
 40
3.000000
 49
1.000000
 49
-2.000000
  0
LTYPE
  2
MTCH
 70
    64
  3
_____ _ _ _____ _ _ _____ _ _ _____ _ _ ____  
 72
    65
 73
     6
 40
80.000000
 49
66.000000
 49
-2.000000
 49
4.000000
 49
-2.000000
 49
4.000000
 49
-2.000000
  0
ENDTAB
  0
TABLE
  2
LAYER
 70
     1
  0
LAYER
  2
0
 70
     0
 62
     7
  6
CONTINUOUS
  0
ENDTAB
  0
TABLE
  2
STYLE
 70
     1
  0
STYLE
  2
STANDARD
 70
     0
 40
0.000000
 41
1.000000
 50
0.000000
 71
     0
 42
0.200000
  3
txt
  4
BIGFONT
  0
ENDTAB
  0
TABLE
  2
VIEW
 70
     0
  0
ENDTAB
  0
ENDSEC
  0
SECTION
  2
BLOCKS
  0
ENDSEC
  0
SECTION
  2
ENTITIES
  0
POINT
  8
0
 10
-390.000000
 20
-149.999969
  0
POINT
  8
0
 10
-390.000000
 20
110.000000
  0
POINT
  8
0
 10
210.000031
 20
110.000000
  0
POINT
  8
0
 10
209.999939
 20
-149.999969
  0
POINT
  8
0
 10
359.999969
 20
-149.999954
  0
POINT
  8
0
 10
389.999969
 20
-149.999954
  0
LINE
  8
0
 62
     3
 10
-524.494446
 20
-360.000092
 11
-524.494446
 21
360.000092
  0
LINE
  8
0
 62
     3
 10
524.494446
 20
360.000092
 11
524.494446
 21
-360.000092
  0
LINE
  8
0
 62
     3
 10
-524.494446
 20
-360.000092
 11
524.494446
 21
-360.000092
  0
LINE
  8
0
 62
     3
 10
-524.494446
 20
360.000092
 11
524.494446
 21
360.000092
  0
LINE
  8
0
 62
     3
 10
-524.494446
 20
319.550598
 11
-224.494446
 21
319.550598
  0
LINE
  8
0
 62
     3
 10
-224.494446
 20
319.550598
 11
-224.494446
 21
360.000092
  0
LINE
  8
0
 62
     3
 10
308.764069
 20
-319.550690
 11
524.494446
 21
-319.550690
  0
LINE
  8
0
 62
     5
 10
365.406830
 20
-329.276672
 11
386.130402
 21
-329.276672
  0
LINE
  8
0
 62
     5
 10
365.406830
 20
-347.654236
 11
383.002350
 21
-347.654236
  0
LINE
  8
0
 62
     5
 10
365.406830
 20
-352.346344
 11
389.258545
 21
-352.346344
  0
LINE
  8
0
 62
     5
 10
365.406830
 20
-333.968781
 11
383.002350
 21
-333.968781
  0
LINE
  8
0
 62
     5
 10
365.406830
 20
-329.276672
 11
365.406830
 21
-333.968781
  0
LINE
  8
0
 62
     5
 10
389.258545
 20
-332.404785
 11
389.258545
 21
-352.346344
  0
LINE
  8
0
 62
     5
 10
383.002350
 20
-333.968781
 11
383.002350
 21
-347.654236
  0
LINE
  8
0
 62
     5
 10
392.777557
 20
-329.276672
 11
392.777557
 21
-333.968781
  0
LINE
  8
0
 62
     5
 10
415.065186
 20
-333.968781
 11
415.065186
 21
-349.218353
  0
LINE
  8
0
 62
     5
 10
408.809052
 20
-333.968781
 11
408.809052
 21
-347.654236
  0
LINE
  8
0
 62
     5
 10
365.406830
 20
-347.654236
 11
365.406830
 21
-352.346344
  0
LINE
  8
0
 62
     5
 10
392.777557
 20
-329.276672
 11
398.959137
 21
-329.276672
  0
LINE
  8
0
 62
     5
 10
392.777557
 20
-352.346344
 11
397.635284
 21
-352.346344
  0
LINE
  8
0
 62
     5
 10
392.777435
 20
-352.346161
 11
397.701843
 21
-333.968719
  0
LINE
  8
0
 62
     5
 10
392.777557
 20
-333.968781
 11
397.701874
 21
-333.968781
  0
LINE
  8
0
 62
     5
 10
397.635559
 20
-352.346558
 11
402.559723
 21
-333.969055
  0
LINE
  8
0
 62
     5
 10
404.116852
 20
-347.654236
 11
408.809052
 21
-347.654236
  0
LINE
  8
0
 62
     5
 10
404.116730
 20
-347.654144
 11
405.373871
 21
-352.346191
  0
LINE
  8
0
 62
     5
 10
405.374237
 20
-352.346344
 11
411.937195
 21
-352.346344
  0
LINE
  8
0
 62
     5
 10
402.559540
 20
-333.968781
 11
408.809052
 21
-333.968781
  0
LINE
  8
0
 62
     5
 10
403.816772
 20
-329.276672
 11
410.373047
 21
-329.276672
  0
LINE
  8
0
 62
     5
 10
398.959198
 20
-329.276703
 11
399.891571
 21
-325.796783
  0
LINE
  8
0
 62
     5
 10
403.816467
 20
-329.276459
 11
404.748840
 21
-325.796417
  0
LINE
  8
0
 62
     5
 10
418.975342
 20
-329.276672
 11
426.404572
 21
-329.276672
  0
LINE
  8
0
 62
     5
 10
418.975342
 20
-333.968781
 11
437.221191
 21
-333.968781
  0
LINE
  8
0
 62
     5
 10
426.404572
 20
-352.346344
 11
432.660645
 21
-352.346344
  0
LINE
  8
0
 62
     5
 10
418.975342
 20
-329.276672
 11
418.975342
 21
-333.968781
  0
LINE
  8
0
 62
     5
 10
442.045044
 20
-342.477020
 11
442.045044
 21
-347.654236
  0
LINE
  8
0
 62
     5
 10
418.975037
 20
-347.654053
 11
426.404388
 21
-344.189636
  0
LINE
  8
0
 62
     5
 10
418.975769
 20
-342.477356
 11
437.221558
 21
-333.969116
  0
LINE
  8
0
 62
     5
 10
418.975342
 20
-342.477020
 11
418.975342
 21
-347.654236
  0
LINE
  8
0
 62
     5
 10
432.660492
 20
-343.278107
 11
442.044983
 21
-347.654083
  0
LINE
  8
0
 62
     5
 10
436.062103
 20
-339.687286
 11
442.045654
 21
-342.477448
  0
LINE
  8
0
 62
     5
 10
442.045044
 20
-332.404785
 11
442.045044
 21
-334.903870
  0
LINE
  8
0
 62
     5
 10
426.404572
 20
-325.796722
 11
426.404572
 21
-329.276672
  0
LINE
  8
0
 62
     5
 10
432.660645
 20
-325.796722
 11
432.660645
 21
-329.276672
  0
LINE
  8
0
 62
     5
 10
432.660645
 20
-329.276672
 11
438.916931
 21
-329.276672
  0
LINE
  8
0
 62
     5
 10
426.404572
 20
-344.189972
 11
426.404572
 21
-352.346344
  0
LINE
  8
0
 62
     5
 10
432.660645
 20
-343.278320
 11
432.660645
 21
-352.346344
  0
LINE
  8
0
 62
     5
 10
436.062073
 20
-339.687256
 11
440.239532
 21
-337.739288
  0
LINE
  8
0
 62
     5
 10
463.159668
 20
-327.204376
 11
467.851685
 21
-327.204376
  0
LINE
  8
0
 62
     5
 10
444.000122
 20
-336.896667
 11
444.000122
 21
-341.946259
  0
LINE
  8
0
 62
     5
 10
467.851685
 20
-327.204376
 11
467.851685
 21
-329.276672
  0
LINE
  8
0
 62
     5
 10
463.159668
 20
-327.204376
 11
463.159668
 21
-328.215485
  0
LINE
  8
0
 62
     5
 10
456.903442
 20
-336.814453
 11
456.903442
 21
-352.346344
  0
LINE
  8
0
 62
     5
 10
444.000275
 20
-336.896881
 11
462.173828
 21
-329.669067
  0
LINE
  8
0
 62
     5
 10
444.000092
 20
-341.946411
 11
456.903412
 21
-336.814545
  0
LINE
  8
0
 62
     5
 10
456.903442
 20
-352.346344
 11
463.159668
 21
-352.346344
  0
LINE
  8
0
 62
     5
 10
463.159668
 20
-334.326324
 11
463.159668
 21
-352.346344
  0
LINE
  8
0
 62
     5
 10
463.160126
 20
-334.326630
 11
464.894257
 21
-333.636902
  0
LINE
  8
0
 62
     5
 10
399.891602
 20
-325.796722
 11
404.749207
 21
-325.796722
  0
LINE
  8
0
 62
     5
 10
412.523682
 20
-325.796722
 11
414.517731
 21
-325.796722
  0
LINE
  8
0
 62
     5
 10
426.404572
 20
-325.796722
 11
432.660645
 21
-325.796722
  0
LINE
  8
0
 62
     5
 10
412.523682
 20
-328.924835
 11
414.517731
 21
-328.924835
  0
LINE
  8
0
 62
     5
 10
412.523682
 20
-325.796722
 11
412.523682
 21
-328.924835
  0
LINE
  8
0
 62
     5
 10
414.517731
 20
-325.796722
 11
414.517731
 21
-328.924835
  0
LINE
  8
0
 62
     5
 10
415.690887
 20
-325.796722
 11
415.690887
 21
-328.924835
  0
LINE
  8
0
 62
     5
 10
417.919678
 20
-325.796722
 11
417.919678
 21
-328.924835
  0
LINE
  8
0
 62
     5
 10
415.690887
 20
-325.796722
 11
417.919678
 21
-325.796722
  0
LINE
  8
0
 62
     5
 10
415.690887
 20
-328.924835
 11
417.919678
 21
-328.924835
  0
LINE
  8
0
 62
     3
 10
308.764069
 20
319.550598
 11
524.494446
 21
319.550598
  0
LINE
  8
0
 62
     3
 10
308.764069
 20
360.000092
 11
308.764069
 21
319.550598
  0
LINE
  8
0
 62
     3
 10
308.764069
 20
-319.550690
 11
308.764069
 21
-360.000092
  0
LINE
  8
0
 10
751.745728
 20
-201.266571
 11
751.745728
 21
-212.813599
  0
LINE
  8
0
 10
754.745728
 20
-205.040070
 11
754.745728
 21
-209.040070
  0
LINE
  8
0
 10
751.745728
 20
-211.040039
 11
752.745728
 21
-211.040039
  0
LINE
  8
0
 10
751.745728
 20
-203.040039
 11
752.745728
 21
-203.040039
  0
LINE
  8
0
 10
751.745728
 20
-201.266571
 11
746.745728
 21
-201.266571
  0
LINE
  8
0
 10
751.745728
 20
-204.153320
 11
746.745728
 21
-204.153320
  0
LINE
  8
0
 10
751.745728
 20
-209.926819
 11
746.745728
 21
-209.926819
  0
LINE
  8
0
 10
751.745728
 20
-212.813599
 11
746.745728
 21
-212.813599
  0
LINE
  8
0
 10
747.499939
 20
-199.226456
 11
747.499939
 21
-210.773483
  0
LINE
  8
0
 10
750.499939
 20
-202.999954
 11
750.499939
 21
-206.999954
  0
LINE
  8
0
 10
747.500000
 20
-208.999908
 11
748.500000
 21
-208.999908
  0
LINE
  8
0
 10
747.500000
 20
-200.999908
 11
748.500000
 21
-200.999908
  0
LINE
  8
0
 10
747.499939
 20
-199.226440
 11
742.500000
 21
-199.226440
  0
LINE
  8
0
 10
747.499939
 20
-202.113190
 11
742.500000
 21
-202.113190
  0
LINE
  8
0
 10
747.499939
 20
-207.886688
 11
742.500000
 21
-207.886688
  0
LINE
  8
0
 10
747.499939
 20
-210.773468
 11
742.500000
 21
-210.773468
  0
LINE
  8
0
 10
747.499939
 20
-199.226456
 11
747.499939
 21
-210.773483
  0
LINE
  8
0
 10
750.499939
 20
-202.999954
 11
750.499939
 21
-206.999954
  0
LINE
  8
0
 10
747.500000
 20
-208.999908
 11
748.500000
 21
-208.999908
  0
LINE
  8
0
 10
747.500000
 20
-200.999908
 11
748.500000
 21
-200.999908
  0
LINE
  8
0
 10
747.499939
 20
-199.226440
 11
742.500000
 21
-199.226440
  0
LINE
  8
0
 10
747.499939
 20
-202.113190
 11
742.500000
 21
-202.113190
  0
LINE
  8
0
 10
747.499939
 20
-207.886688
 11
742.500000
 21
-207.886688
  0
LINE
  8
0
 10
747.499939
 20
-210.773468
 11
742.500000
 21
-210.773468
  0
LINE
  8
0
 10
179.999939
 20
-119.999954
 11
179.999939
 21
-181.999954
  0
LINE
  8
0
 10
179.999939
 20
-180.000000
 11
209.999939
 21
-180.000000
  0
LINE
  8
0
 10
179.999939
 20
-120.000000
 11
209.999939
 21
-120.000000
  0
LINE
  8
0
 10
209.999939
 20
-119.999954
 11
209.999939
 21
-179.999954
  0
LINE
  8
0
  6
CENTER
 10
180.499939
 20
-141.000000
 11
192.499939
 21
-141.000000
  0
LINE
  8
0
  6
CENTER
 10
186.499939
 20
-134.999954
 11
186.499939
 21
-146.999954
  0
LINE
  8
0
 10
184.762054
 20
-143.445297
 11
188.945343
 21
-139.262009
  0
LINE
  8
0
 10
184.054886
 20
-142.738144
 11
188.238190
 21
-138.554840
  0
LINE
  8
0
  6
CENTER
 10
-378.000000
 20
-136.000000
 11
-378.000000
 21
-164.000000
  0
LINE
  8
0
  6
CENTER
 10
-360.500000
 20
-141.000000
 11
-372.500000
 21
-141.000000
  0
LINE
  8
0
  6
CENTER
 10
-366.500000
 20
-135.000000
 11
-366.500000
 21
-147.000000
  0
LINE
  8
0
 10
-364.054749
 20
-139.261948
 11
-368.238037
 21
-143.445236
  0
LINE
  8
0
 10
-364.761902
 20
-138.554855
 11
-368.945221
 21
-142.738144
  0
LINE
  8
0
 10
-390.000000
 20
-120.000000
 11
-390.000000
 21
-180.000000
  0
LINE
  8
0
 10
-360.000000
 20
-120.000000
 11
-390.000000
 21
-120.000000
  0
LINE
  8
0
 10
-360.000000
 20
-180.000000
 11
-390.000000
 21
-180.000000
  0
LINE
  8
0
 10
-360.000000
 20
-120.000000
 11
-360.000000
 21
-181.999969
  0
LINE
  8
0
  6
CENTER
 10
-240.000000
 20
-86.999969
 11
-240.000000
 21
-190.000000
  0
LINE
  8
0
  6
CENTER
 10
60.000000
 20
-116.999969
 11
60.000000
 21
-189.999969
  0
LINE
  8
0
  6
CENTER
 10
-394.999969
 20
-149.999969
 11
215.000061
 21
-149.999969
  0
LINE
  8
0
 10
-381.000031
 20
-151.732056
 11
-378.000031
 21
-153.464111
  0
LINE
  8
0
 10
-378.000092
 20
-153.464111
 11
-375.000061
 21
-151.732056
  0
LINE
  8
0
 10
-375.000000
 20
-151.732025
 11
-375.000000
 21
-148.267914
  0
LINE
  8
0
 10
-375.000031
 20
-148.267914
 11
-378.000031
 21
-146.535873
  0
LINE
  8
0
 10
-378.000122
 20
-146.535889
 11
-381.000122
 21
-148.267944
  0
LINE
  8
0
 10
-381.000000
 20
-148.267914
 11
-381.000000
 21
-151.732025
  0
LINE
  8
0
  6
CENTER
 10
197.999939
 20
-135.999954
 11
197.999939
 21
-163.999954
  0
LINE
  8
0
 10
201.000000
 20
-151.732025
 11
198.000000
 21
-153.464081
  0
LINE
  8
0
 10
198.000046
 20
-153.464035
 11
195.000046
 21
-151.731979
  0
LINE
  8
0
 10
194.999939
 20
-151.731979
 11
194.999939
 21
-148.267868
  0
LINE
  8
0
 10
195.000000
 20
-148.267944
 11
198.000015
 21
-146.535889
  0
LINE
  8
0
 10
198.000031
 20
-146.535797
 11
201.000046
 21
-148.267853
  0
LINE
  8
0
 10
200.999939
 20
-148.267868
 11
200.999939
 21
-151.731979
  0
LINE
  8
0
 10
-360.000000
 20
-181.999969
 11
179.999939
 21
-181.999969
  0
LINE
  8
0
 10
-360.000000
 20
-121.999969
 11
-322.500000
 21
-121.999969
  0
LINE
  8
0
 10
-315.000000
 20
-91.999969
 11
-165.000000
 21
-91.999969
  0
LINE
  8
0
 10
-325.000000
 20
-97.999969
 11
-325.000000
 21
-117.999969
  0
LINE
  8
0
 10
-155.000000
 20
-97.999969
 11
-155.000000
 21
-117.999969
  0
LINE
  8
0
 10
-322.500000
 20
-143.999969
 11
-157.500000
 21
-143.999969
  0
LINE
  8
0
 10
-322.500000
 20
-92.999969
 11
-157.500000
 21
-92.999969
  0
LINE
  8
0
 10
-157.500000
 20
-92.999969
 11
-157.500000
 21
-143.999969
  0
LINE
  8
0
 10
-322.500000
 20
-92.999969
 11
-322.500000
 21
-143.999969
  0
LINE
  8
0
 10
-315.000000
 20
-91.999969
 11
-315.000000
 21
-143.999969
  0
LINE
  8
0
 10
-165.000000
 20
-91.999969
 11
-165.000000
 21
-143.999969
  0
LINE
  8
0
 10
-157.500000
 20
-121.999969
 11
179.999939
 21
-121.999969
  0
LINE
  8
0
  6
CENTER
 10
-330.000000
 20
-107.999969
 11
-310.000000
 21
-107.999969
  0
LINE
  8
0
 10
-325.000000
 20
-97.999969
 11
-323.500000
 21
-97.999969
  0
LINE
  8
0
 10
-325.000000
 20
-117.999969
 11
-323.500000
 21
-117.999969
  0
LINE
  8
0
 10
-323.500000
 20
-97.999969
 11
-323.500000
 21
-117.999969
  0
LINE
  8
0
 10
-156.500000
 20
-97.999969
 11
-156.500000
 21
-117.999969
  0
LINE
  8
0
 10
-156.500000
 20
-97.999969
 11
-155.000000
 21
-97.999969
  0
LINE
  8
0
 10
-156.500000
 20
-117.999969
 11
-155.000000
 21
-117.999969
  0
LINE
  8
0
  6
CENTER
 10
-170.000000
 20
-107.999969
 11
-150.000000
 21
-107.999969
  0
LINE
  8
0
 10
-157.500000
 20
-115.999969
 11
-156.500000
 21
-115.999969
  0
LINE
  8
0
 10
-157.500000
 20
-99.999969
 11
-156.500000
 21
-99.999969
  0
LINE
  8
0
 10
-323.500000
 20
-99.999969
 11
-322.500000
 21
-99.999969
  0
LINE
  8
0
 10
-323.500000
 20
-115.999969
 11
-322.500000
 21
-115.999969
  0
LINE
  8
0
 10
-360.000000
 20
-128.999924
 11
-322.500000
 21
-128.999924
  0
LINE
  8
0
 10
-360.000000
 20
-133.999939
 11
-322.500000
 21
-133.999939
  0
LINE
  8
0
 10
-360.000000
 20
-140.299911
 11
-322.500000
 21
-140.299911
  0
LINE
  8
0
 10
-360.000000
 20
-146.299927
 11
179.999939
 21
-146.299927
  0
LINE
  8
0
 10
-360.000000
 20
-154.999924
 11
179.999939
 21
-154.999924
  0
LINE
  8
0
 10
-360.000000
 20
-158.999924
 11
179.999939
 21
-158.999924
  0
LINE
  8
0
 10
-360.000000
 20
-170.999924
 11
179.999939
 21
-170.999924
  0
LINE
  8
0
 10
-360.000000
 20
-176.094620
 11
179.999939
 21
-176.094620
  0
LINE
  8
0
 10
-157.500000
 20
-128.999924
 11
179.999939
 21
-128.999924
  0
LINE
  8
0
 10
-157.500000
 20
-133.999939
 11
179.999939
 21
-133.999939
  0
LINE
  8
0
 10
-157.500000
 20
-140.299911
 11
179.999939
 21
-140.299911
  0
LINE
  8
0
 10
-384.000031
 20
-163.970444
 11
-384.000031
 21
-180.000015
  0
LINE
  8
0
  6
CENTER
 10
-379.000031
 20
-171.000015
 11
-395.000031
 21
-171.000015
  0
LINE
  8
0
 10
-384.000031
 20
-180.000015
 11
-384.000031
 21
-162.000015
  0
LINE
  8
0
 10
-384.000031
 20
-162.000015
 11
-390.000031
 21
-162.000015
  0
LINE
  8
0
 10
-385.508179
 20
-165.226578
 11
-390.000031
 21
-165.226578
  0
LINE
  8
0
 10
-385.508179
 20
-173.886795
 11
-390.000031
 21
-173.886795
  0
LINE
  8
0
 10
-385.508179
 20
-176.773575
 11
-390.000031
 21
-176.773575
  0
LINE
  8
0
 10
-385.508179
 20
-168.113266
 11
-390.000031
 21
-168.113266
  0
LINE
  8
0
 10
-384.000031
 20
-138.000015
 11
-390.000031
 21
-138.000015
  0
LINE
  8
0
 10
-384.000031
 20
-120.000015
 11
-384.000031
 21
-138.000015
  0
LINE
  8
0
  6
CENTER
 10
-379.000031
 20
-129.000015
 11
-395.000031
 21
-129.000015
  0
LINE
  8
0
 10
-384.800018
 20
-178.000015
 11
-384.800018
 21
-164.000015
  0
LINE
  8
0
 10
-384.000031
 20
-164.000015
 11
-384.800018
 21
-164.000015
  0
LINE
  8
0
 10
-384.000031
 20
-178.000015
 11
-384.800018
 21
-178.000015
  0
LINE
  8
0
 10
-384.800110
 20
-178.000061
 11
-385.508179
 21
-176.773621
  0
LINE
  8
0
 10
-384.800049
 20
-164.000031
 11
-385.508209
 21
-165.226593
  0
LINE
  8
0
 10
-385.508179
 20
-165.226578
 11
-385.508179
 21
-176.773453
  0
LINE
  8
0
 10
-385.508179
 20
-134.773392
 11
-385.508179
 21
-123.226517
  0
LINE
  8
0
 10
-385.508179
 20
-134.773392
 11
-390.000031
 21
-134.773392
  0
LINE
  8
0
 10
-385.508179
 20
-126.113174
 11
-390.000031
 21
-126.113174
  0
LINE
  8
0
 10
-385.508179
 20
-123.226395
 11
-390.000031
 21
-123.226395
  0
LINE
  8
0
 10
-385.508179
 20
-131.886703
 11
-390.000031
 21
-131.886703
  0
LINE
  8
0
 10
-384.800018
 20
-121.999954
 11
-384.800018
 21
-135.999954
  0
LINE
  8
0
 10
-384.000031
 20
-135.999954
 11
-384.800018
 21
-135.999954
  0
LINE
  8
0
 10
-384.000031
 20
-121.999954
 11
-384.800018
 21
-121.999954
  0
LINE
  8
0
 10
-384.800018
 20
-121.999939
 11
-385.508087
 21
-123.226379
  0
LINE
  8
0
 10
-384.800018
 20
-135.999969
 11
-385.508179
 21
-134.773407
  0
LINE
  8
0
 10
204.799942
 20
-121.999954
 11
205.508026
 21
-123.226387
  0
LINE
  8
0
 10
203.999939
 20
-121.999954
 11
204.799988
 21
-121.999954
  0
LINE
  8
0
 10
204.799942
 20
-135.999954
 11
205.508102
 21
-134.773376
  0
LINE
  8
0
 10
203.999939
 20
-135.999954
 11
204.799988
 21
-135.999954
  0
LINE
  8
0
 10
204.799988
 20
-121.999954
 11
204.799988
 21
-135.999954
  0
LINE
  8
0
 10
203.999939
 20
-163.970444
 11
203.999939
 21
-180.000015
  0
LINE
  8
0
  6
CENTER
 10
198.999939
 20
-171.000015
 11
214.999939
 21
-171.000015
  0
LINE
  8
0
 10
203.999939
 20
-180.000015
 11
203.999939
 21
-162.000015
  0
LINE
  8
0
 10
203.999939
 20
-162.000015
 11
209.999939
 21
-162.000015
  0
LINE
  8
0
 10
205.508118
 20
-165.226578
 11
209.999939
 21
-165.226578
  0
LINE
  8
0
 10
205.508118
 20
-173.886795
 11
209.999939
 21
-173.886795
  0
LINE
  8
0
 10
205.508118
 20
-176.773575
 11
209.999939
 21
-176.773575
  0
LINE
  8
0
 10
205.508118
 20
-168.113266
 11
209.999939
 21
-168.113266
  0
LINE
  8
0
 10
203.999939
 20
-138.000015
 11
209.999939
 21
-138.000015
  0
LINE
  8
0
 10
203.999939
 20
-120.000015
 11
203.999939
 21
-138.000015
  0
LINE
  8
0
  6
CENTER
 10
198.999939
 20
-129.000015
 11
214.999939
 21
-129.000015
  0
LINE
  8
0
 10
204.799988
 20
-178.000015
 11
204.799988
 21
-164.000015
  0
LINE
  8
0
 10
203.999939
 20
-164.000015
 11
204.799988
 21
-164.000015
  0
LINE
  8
0
 10
203.999939
 20
-178.000015
 11
204.799988
 21
-178.000015
  0
LINE
  8
0
 10
204.800034
 20
-178.000031
 11
205.508118
 21
-176.773636
  0
LINE
  8
0
 10
204.799988
 20
-164.000046
 11
205.508133
 21
-165.226578
  0
LINE
  8
0
 10
205.508118
 20
-165.226578
 11
205.508118
 21
-176.773453
  0
LINE
  8
0
 10
205.508118
 20
-134.773392
 11
205.508118
 21
-123.226517
  0
LINE
  8
0
 10
205.508118
 20
-134.773392
 11
209.999939
 21
-134.773392
  0
LINE
  8
0
 10
205.508118
 20
-126.113174
 11
209.999939
 21
-126.113174
  0
LINE
  8
0
 10
205.508118
 20
-123.226395
 11
209.999939
 21
-123.226395
  0
LINE
  8
0
 10
205.508118
 20
-131.886703
 11
209.999939
 21
-131.886703
  0
LINE
  8
0
 10
-390.000000
 20
140.000000
 11
-390.000000
 21
80.000000
  0
LINE
  8
0
  6
CENTER
 10
-395.000000
 20
110.000000
 11
215.000031
 21
110.000000
  0
LINE
  8
0
 10
-360.000000
 20
142.000000
 11
-360.000000
 21
78.000000
  0
LINE
  8
0
 10
-360.000000
 20
80.000000
 11
-390.000000
 21
80.000000
  0
LINE
  8
0
 10
-360.000000
 20
140.000000
 11
-390.000000
 21
140.000000
  0
LINE
  8
0
  6
CENTER
 10
-240.000000
 20
162.499985
 11
-240.000000
 21
57.499985
  0
LINE
  8
0
  6
CENTER
 10
60.000000
 20
146.999969
 11
60.000000
 21
72.999962
  0
LINE
  8
0
 10
210.000031
 20
139.999908
 11
210.000031
 21
79.999916
  0
LINE
  8
0
 10
180.000031
 20
141.999939
 11
180.000031
 21
77.999947
  0
LINE
  8
0
 10
180.000031
 20
80.000000
 11
210.000031
 21
80.000000
  0
LINE
  8
0
 10
180.000031
 20
140.000000
 11
210.000031
 21
140.000000
  0
LINE
  8
0
 10
-360.000000
 20
101.000000
 11
-325.000000
 21
101.000000
  0
LINE
  8
0
 10
-360.000000
 20
119.000000
 11
-325.000000
 21
119.000000
  0
LINE
  8
0
 10
180.000031
 20
101.000000
 11
-155.000000
 21
101.000000
  0
LINE
  8
0
 10
180.000031
 20
119.000000
 11
-155.000000
 21
119.000000
  0
LINE
  8
0
 10
-315.000000
 20
157.500000
 11
-315.000000
 21
62.499992
  0
LINE
  8
0
 10
-165.000000
 20
157.499969
 11
-165.000000
 21
62.499977
  0
LINE
  8
0
 10
-315.000000
 20
157.500000
 11
-165.000000
 21
157.500000
  0
LINE
  8
0
 10
-315.000000
 20
62.500000
 11
-165.000000
 21
62.500000
  0
LINE
  8
0
 10
-322.500000
 20
156.500000
 11
-322.500000
 21
63.499992
  0
LINE
  8
0
 10
-157.500000
 20
156.499969
 11
-157.500000
 21
63.499977
  0
LINE
  8
0
 10
-322.500000
 20
156.500000
 11
-315.000000
 21
156.500000
  0
LINE
  8
0
 10
-322.500000
 20
63.500000
 11
-315.000000
 21
63.500000
  0
LINE
  8
0
 10
-165.000000
 20
156.500000
 11
-157.500000
 21
156.500000
  0
LINE
  8
0
 10
-165.000000
 20
63.500000
 11
-157.500000
 21
63.500000
  0
LINE
  8
0
 10
-325.000000
 20
119.999992
 11
-325.000000
 21
99.999992
  0
LINE
  8
0
 10
-323.500000
 20
119.999992
 11
-323.500000
 21
99.999992
  0
LINE
  8
0
 10
-156.500000
 20
119.999977
 11
-156.500000
 21
99.999977
  0
LINE
  8
0
 10
-155.000000
 20
119.999977
 11
-155.000000
 21
99.999977
  0
LINE
  8
0
 10
-325.000000
 20
100.000000
 11
-323.500000
 21
100.000000
  0
LINE
  8
0
 10
-325.000000
 20
120.000000
 11
-323.500000
 21
120.000000
  0
LINE
  8
0
 10
-156.500000
 20
120.000000
 11
-155.000000
 21
120.000000
  0
LINE
  8
0
 10
-156.500000
 20
100.000000
 11
-155.000000
 21
100.000000
  0
LINE
  8
0
 10
-323.500000
 20
102.000000
 11
-322.500000
 21
102.000000
  0
LINE
  8
0
 10
-323.500000
 20
118.000000
 11
-322.500000
 21
118.000000
  0
LINE
  8
0
 10
-157.500000
 20
118.000000
 11
-156.500000
 21
118.000000
  0
LINE
  8
0
 10
-157.500000
 20
102.000000
 11
-156.500000
 21
102.000000
  0
LINE
  8
0
 10
-323.500000
 20
119.000000
 11
-322.500000
 21
119.000000
  0
LINE
  8
0
 10
-323.500000
 20
101.000000
 11
-322.500000
 21
101.000000
  0
LINE
  8
0
 10
-156.500000
 20
119.000000
 11
-157.500000
 21
119.000000
  0
LINE
  8
0
 10
-156.500000
 20
101.000000
 11
-157.500000
 21
101.000000
  0
LINE
  8
0
  6
CENTER
 10
-302.000000
 20
90.000000
 11
-288.000000
 21
90.000000
  0
LINE
  8
0
  6
CENTER
 10
-302.000000
 20
130.000000
 11
-288.000000
 21
130.000000
  0
LINE
  8
0
  6
CENTER
 10
-295.000000
 20
137.000000
 11
-295.000000
 21
122.999992
  0
LINE
  8
0
  6
CENTER
 10
-295.000000
 20
116.999992
 11
-295.000000
 21
102.999992
  0
LINE
  8
0
  6
CENTER
 10
-295.000000
 20
96.999992
 11
-295.000000
 21
82.999992
  0
LINE
  8
0
  6
CENTER
 10
-178.000000
 20
90.000000
 11
-192.000000
 21
90.000000
  0
LINE
  8
0
  6
CENTER
 10
-178.000000
 20
130.000000
 11
-192.000000
 21
130.000000
  0
LINE
  8
0
  6
CENTER
 10
-185.000000
 20
136.999985
 11
-185.000000
 21
122.999985
  0
LINE
  8
0
  6
CENTER
 10
-185.000000
 20
116.999985
 11
-185.000000
 21
102.999985
  0
LINE
  8
0
  6
CENTER
 10
-185.000000
 20
96.999985
 11
-185.000000
 21
82.999985
  0
LINE
  8
0
 10
-315.000000
 20
75.000000
 11
-165.000000
 21
75.000000
  0
LINE
  8
0
 10
-315.000000
 20
145.000000
 11
-165.000000
 21
145.000000
  0
LINE
  8
0
 10
-360.000000
 20
142.000000
 11
-322.500000
 21
142.000000
  0
LINE
  8
0
 10
-360.000000
 20
78.000000
 11
-322.500000
 21
78.000000
  0
LINE
  8
0
 10
-157.500000
 20
142.000000
 11
180.000031
 21
142.000000
  0
LINE
  8
0
 10
-157.500000
 20
78.000000
 11
180.000031
 21
78.000000
  0
LINE
  8
0
 10
-384.000000
 20
139.999985
 11
-384.000000
 21
121.999985
  0
LINE
  8
0
 10
-384.000000
 20
121.999985
 11
-390.000000
 21
121.999985
  0
LINE
  8
0
 10
-384.000000
 20
97.999985
 11
-390.000000
 21
97.999985
  0
LINE
  8
0
 10
-384.000000
 20
79.999985
 11
-384.000000
 21
97.999985
  0
LINE
  8
0
  6
CENTER
 10
-379.000000
 20
88.999985
 11
-395.000000
 21
88.999985
  0
LINE
  8
0
 10
-390.000000
 20
93.999939
 11
-385.508209
 21
93.999939
  0
LINE
  8
0
 10
-390.000000
 20
83.999939
 11
-385.508209
 21
83.999939
  0
LINE
  8
0
 10
-390.000000
 20
88.999939
 11
-385.508209
 21
88.999939
  0
LINE
  8
0
 10
-384.799988
 20
82.000038
 11
-384.799988
 21
96.000130
  0
LINE
  8
0
 10
-384.000122
 20
96.000130
 11
-384.799988
 21
96.000130
  0
LINE
  8
0
 10
-384.000061
 20
82.000038
 11
-384.799988
 21
82.000038
  0
LINE
  8
0
 10
-385.508209
 20
83.226677
 11
-385.508209
 21
94.773491
  0
LINE
  8
0
 10
-384.800079
 20
96.000191
 11
-385.508270
 21
94.773544
  0
LINE
  8
0
 10
-384.800110
 20
82.000023
 11
-385.508331
 21
83.226669
  0
LINE
  8
0
  6
CENTER
 10
-379.000000
 20
130.999985
 11
-395.000000
 21
130.999985
  0
LINE
  8
0
 10
-390.000000
 20
126.000031
 11
-385.508209
 21
126.000031
  0
LINE
  8
0
 10
-390.000000
 20
136.000031
 11
-385.508209
 21
136.000031
  0
LINE
  8
0
 10
-390.000000
 20
131.000031
 11
-385.508209
 21
131.000031
  0
LINE
  8
0
 10
-384.799988
 20
137.999924
 11
-384.799988
 21
123.999840
  0
LINE
  8
0
 10
-384.000122
 20
123.999840
 11
-384.799988
 21
123.999840
  0
LINE
  8
0
 10
-384.000061
 20
137.999924
 11
-384.799988
 21
137.999924
  0
LINE
  8
0
 10
-385.508209
 20
136.773285
 11
-385.508209
 21
125.226479
  0
LINE
  8
0
 10
-384.800049
 20
123.999840
 11
-385.508240
 21
125.226494
  0
LINE
  8
0
 10
-384.800140
 20
137.999985
 11
-385.508331
 21
136.773346
  0
LINE
  8
0
 10
204.800018
 20
137.999924
 11
204.800018
 21
123.999840
  0
LINE
  8
0
 10
204.800049
 20
123.999878
 11
205.508240
 21
125.226540
  0
LINE
  8
0
 10
204.000092
 20
137.999924
 11
204.800018
 21
137.999924
  0
LINE
  8
0
 10
205.508270
 20
136.773285
 11
205.508270
 21
125.226479
  0
LINE
  8
0
 10
204.000153
 20
123.999840
 11
204.800018
 21
123.999840
  0
LINE
  8
0
 10
204.800095
 20
137.999954
 11
205.508347
 21
136.773331
  0
LINE
  8
0
 10
204.000031
 20
139.999985
 11
204.000031
 21
121.999985
  0
LINE
  8
0
 10
204.000031
 20
121.999985
 11
210.000031
 21
121.999985
  0
LINE
  8
0
 10
204.000031
 20
97.999985
 11
210.000031
 21
97.999985
  0
LINE
  8
0
 10
204.000031
 20
79.999985
 11
204.000031
 21
97.999985
  0
LINE
  8
0
  6
CENTER
 10
199.000031
 20
88.999985
 11
215.000031
 21
88.999985
  0
LINE
  8
0
 10
210.000031
 20
93.999939
 11
205.508270
 21
93.999939
  0
LINE
  8
0
 10
210.000031
 20
83.999939
 11
205.508270
 21
83.999939
  0
LINE
  8
0
 10
210.000031
 20
88.999939
 11
205.508270
 21
88.999939
  0
LINE
  8
0
 10
204.800018
 20
82.000038
 11
204.800018
 21
96.000130
  0
LINE
  8
0
 10
204.000153
 20
96.000130
 11
204.800018
 21
96.000130
  0
LINE
  8
0
 10
204.000092
 20
82.000038
 11
204.800018
 21
82.000038
  0
LINE
  8
0
 10
205.508270
 20
83.226677
 11
205.508270
 21
94.773491
  0
LINE
  8
0
 10
204.800095
 20
96.000191
 11
205.508286
 21
94.773567
  0
LINE
  8
0
 10
204.800064
 20
82.000084
 11
205.508255
 21
83.226715
  0
LINE
  8
0
  6
CENTER
 10
199.000031
 20
130.999985
 11
215.000031
 21
130.999985
  0
LINE
  8
0
 10
210.000031
 20
126.000031
 11
205.508270
 21
126.000031
  0
LINE
  8
0
 10
210.000031
 20
136.000031
 11
205.508270
 21
136.000031
  0
LINE
  8
0
 10
210.000031
 20
131.000031
 11
205.508270
 21
131.000031
  0
LINE
  8
0
  6
CENTER
 10
327.000031
 20
-171.000000
 11
351.000031
 21
-171.000000
  0
LINE
  8
0
  6
CENTER
 10
339.000000
 20
-159.000046
 11
339.000000
 21
-183.000046
  0
LINE
  8
0
 10
334.000153
 20
-173.886795
 11
339.000183
 21
-176.773560
  0
LINE
  8
0
 10
339.000000
 20
-176.773544
 11
344.000031
 21
-173.886780
  0
LINE
  8
0
 10
343.999969
 20
-173.886795
 11
343.999969
 21
-168.113281
  0
LINE
  8
0
 10
344.000122
 20
-168.113312
 11
339.000092
 21
-165.226547
  0
LINE
  8
0
 10
339.000183
 20
-165.226776
 11
334.000153
 21
-168.113541
  0
LINE
  8
0
 10
334.000000
 20
-168.113312
 11
334.000000
 21
-173.886826
  0
LINE
  8
0
  6
CENTER
 10
393.000031
 20
-171.000000
 11
369.000031
 21
-171.000000
  0
LINE
  8
0
  6
CENTER
 10
381.000000
 20
-158.999954
 11
381.000000
 21
-182.999954
  0
LINE
  8
0
 10
385.999939
 20
-173.886719
 11
380.999908
 21
-176.773483
  0
LINE
  8
0
 10
381.000000
 20
-176.773514
 11
375.999969
 21
-173.886749
  0
LINE
  8
0
 10
376.000031
 20
-173.886703
 11
376.000031
 21
-168.113190
  0
LINE
  8
0
 10
375.999817
 20
-168.113022
 11
380.999847
 21
-165.226273
  0
LINE
  8
0
 10
380.999939
 20
-165.226562
 11
385.999939
 21
-168.113327
  0
LINE
  8
0
 10
386.000000
 20
-168.113190
 11
386.000000
 21
-173.886703
  0
LINE
  8
0
 10
330.000031
 20
-162.000000
 11
339.000031
 21
-162.000000
  0
LINE
  8
0
 10
348.000000
 20
-171.000015
 11
348.000000
 21
-180.000015
  0
LINE
  8
0
 10
372.000000
 20
-170.999985
 11
372.000000
 21
-179.999985
  0
LINE
  8
0
 10
381.000031
 20
-162.000000
 11
390.000031
 21
-162.000000
  0
LINE
  8
0
 10
339.000031
 20
-180.000000
 11
381.000061
 21
-180.000000
  0
LINE
  8
0
  6
CENTER
 10
359.999969
 20
-87.000000
 11
359.999969
 21
-190.000000
  0
LINE
  8
0
  6
CENTER
 10
325.000000
 20
-149.999954
 11
395.000000
 21
-149.999954
  0
LINE
  8
0
 10
389.999969
 20
-128.999939
 11
389.999969
 21
-170.999939
  0
LINE
  8
0
 10
329.999969
 20
-129.000061
 11
329.999969
 21
-171.000061
  0
LINE
  8
0
 10
338.999969
 20
-119.999954
 11
380.999969
 21
-119.999954
  0
LINE
  8
0
  6
CENTER
 10
326.999969
 20
-128.999954
 11
350.999969
 21
-128.999954
  0
LINE
  8
0
  6
CENTER
 10
338.999969
 20
-141.000046
 11
338.999969
 21
-117.000046
  0
LINE
  8
0
 10
334.000000
 20
-126.113213
 11
339.000000
 21
-123.226456
  0
LINE
  8
0
 10
339.000000
 20
-123.226479
 11
344.000000
 21
-126.113228
  0
LINE
  8
0
 10
343.999939
 20
-126.113297
 11
343.999939
 21
-131.886826
  0
LINE
  8
0
 10
343.999756
 20
-131.886536
 11
338.999725
 21
-134.773300
  0
LINE
  8
0
 10
339.000092
 20
-134.773422
 11
334.000092
 21
-131.886673
  0
LINE
  8
0
 10
333.999969
 20
-131.886810
 11
333.999969
 21
-126.113281
  0
LINE
  8
0
  6
CENTER
 10
392.999969
 20
-128.999954
 11
368.999969
 21
-128.999954
  0
LINE
  8
0
  6
CENTER
 10
380.999969
 20
-140.999954
 11
380.999969
 21
-116.999954
  0
LINE
  8
0
 10
386.000031
 20
-126.113197
 11
380.999969
 21
-123.226418
  0
LINE
  8
0
 10
380.999969
 20
-123.226555
 11
375.999908
 21
-126.113335
  0
LINE
  8
0
 10
376.000000
 20
-126.113205
 11
376.000000
 21
-131.886734
  0
LINE
  8
0
 10
376.000031
 20
-131.886734
 11
381.000061
 21
-134.773499
  0
LINE
  8
0
 10
380.999908
 20
-134.773361
 11
385.999878
 21
-131.886612
  0
LINE
  8
0
 10
385.999969
 20
-131.886688
 11
385.999969
 21
-126.113159
  0
LINE
  8
0
 10
347.999969
 20
-120.000015
 11
347.999969
 21
-129.000015
  0
LINE
  8
0
 10
371.999969
 20
-119.999985
 11
371.999969
 21
-128.999985
  0
LINE
  8
0
 10
329.999969
 20
-137.999954
 11
338.999969
 21
-137.999954
  0
LINE
  8
0
 10
380.999969
 20
-137.999954
 11
389.999969
 21
-137.999954
  0
LINE
  8
0
  6
CENTER
 10
370.999969
 20
-139.999985
 11
370.999969
 21
-159.999985
  0
LINE
  8
0
  6
CENTER
 10
348.999969
 20
-140.000015
 11
348.999969
 21
-160.000015
  0
LINE
  8
0
 10
324.999878
 20
-92.000000
 11
394.999878
 21
-92.000000
  0
LINE
  8
0
 10
312.499969
 20
-95.000076
 11
312.499969
 21
-138.000076
  0
LINE
  8
0
 10
407.499969
 20
-94.999924
 11
407.499969
 21
-137.999924
  0
LINE
  8
0
 10
315.499878
 20
-93.000000
 11
404.499878
 21
-93.000000
  0
LINE
  8
0
 10
394.999847
 20
-91.999924
 11
395.999847
 21
-92.999924
  0
LINE
  8
0
 10
324.999908
 20
-92.000061
 11
323.999878
 21
-93.000069
  0
LINE
  8
0
 10
318.499969
 20
-144.000000
 11
326.999969
 21
-144.000000
  0
LINE
  8
0
 10
392.999969
 20
-144.000000
 11
401.499969
 21
-144.000000
  0
LINE
  8
0
  6
CENTER
 10
344.999908
 20
-108.000000
 11
374.999908
 21
-108.000000
  0
LINE
  8
0
 10
313.499969
 20
-95.000076
 11
313.499969
 21
-138.000076
  0
LINE
  8
0
 10
406.499969
 20
-94.999924
 11
406.499969
 21
-137.999924
  0
LINE
  8
0
 10
327.999969
 20
-123.999969
 11
327.999969
 21
-128.999969
  0
LINE
  8
0
 10
329.999939
 20
-121.999924
 11
333.343231
 21
-121.999924
  0
LINE
  8
0
 10
329.599976
 20
-170.199966
 11
329.599976
 21
-170.199966
  0
LINE
  8
0
 10
327.999969
 20
-159.999969
 11
327.999969
 21
-170.199966
  0
LINE
  8
0
 10
329.599976
 20
-159.999969
 11
329.599976
 21
-160.630905
  0
LINE
  8
0
 10
327.999969
 20
-141.241272
 11
327.999969
 21
-146.499969
  0
LINE
  8
0
 10
327.999969
 20
-146.499924
 11
329.999969
 21
-146.499924
  0
LINE
  8
0
 10
329.999969
 20
-162.123749
 11
329.599945
 21
-160.630905
  0
LINE
  8
0
 10
391.999969
 20
-123.999878
 11
391.999969
 21
-128.999878
  0
LINE
  8
0
 10
387.999969
 20
-176.656830
 11
387.999969
 21
-176.799881
  0
LINE
  8
0
 10
390.399963
 20
-170.199875
 11
390.399963
 21
-170.199875
  0
LINE
  8
0
 10
391.999969
 20
-159.999878
 11
391.999969
 21
-170.199875
  0
LINE
  8
0
 10
390.399963
 20
-159.999878
 11
390.399963
 21
-160.630814
  0
LINE
  8
0
 10
391.999969
 20
-141.241180
 11
391.999969
 21
-146.499878
  0
LINE
  8
0
 10
391.999969
 20
-146.499924
 11
389.999969
 21
-146.499924
  0
LINE
  8
0
 10
390.000092
 20
-162.123688
 11
390.400085
 21
-160.630844
  0
LINE
  8
0
 10
328.000031
 20
-181.999924
 11
342.000031
 21
-181.999924
  0
LINE
  8
0
 10
391.999969
 20
-176.094574
 11
391.999969
 21
-181.999878
  0
LINE
  8
0
 10
327.999969
 20
-176.094666
 11
327.999969
 21
-181.999969
  0
LINE
  8
0
 10
388.000000
 20
-176.799927
 11
392.000000
 21
-176.094620
  0
LINE
  8
0
 10
327.999878
 20
-128.999908
 11
329.999878
 21
-130.176376
  0
LINE
  8
0
 10
391.999878
 20
-128.999817
 11
389.999878
 21
-130.176285
  0
LINE
  8
0
 10
331.999969
 20
-176.799973
 11
327.999969
 21
-176.094666
  0
LINE
  8
0
 10
331.999969
 20
-176.656876
 11
331.999969
 21
-176.799973
  0
LINE
  8
0
 10
378.000031
 20
-181.999924
 11
392.000031
 21
-181.999924
  0
LINE
  8
0
 10
386.656738
 20
-121.999924
 11
389.999939
 21
-121.999924
  0
LINE
  8
0
 10
326.999969
 20
-141.241272
 11
326.999969
 21
-144.000046
  0
LINE
  8
0
 10
392.999969
 20
-141.241180
 11
392.999969
 21
-143.999954
  0
LINE
  8
0
 10
329.999939
 20
-120.999924
 11
334.877045
 21
-120.999924
  0
LINE
  8
0
 10
326.999969
 20
-123.999969
 11
326.999969
 21
-129.571930
  0
LINE
  8
0
 10
326.999908
 20
-129.571884
 11
329.999939
 21
-131.336594
  0
LINE
  8
0
 10
389.999939
 20
-120.999924
 11
385.122833
 21
-120.999924
  0
LINE
  8
0
 10
392.999969
 20
-123.999878
 11
392.999969
 21
-129.571838
  0
LINE
  8
0
 10
393.000092
 20
-129.571930
 11
390.000031
 21
-131.336655
  0
LINE
  8
0
 10
-183.500000
 20
132.598083
 11
-156.709839
 21
179.000000
  0
LINE
  8
0
 10
-183.500015
 20
132.598099
 11
-179.257370
 21
136.840729
  0
LINE
  8
0
 10
-183.500000
 20
132.598083
 11
-181.947083
 21
138.393631
  0
LINE
  8
0
 10
-156.709839
 20
179.000000
 11
-93.000000
 21
179.000000
  0
LINE
  8
0
 10
194.710724
 20
-144.302826
 11
152.966660
 21
-71.999969
  0
LINE
  8
0
 10
194.710739
 20
-144.302826
 11
193.157822
 21
-138.507278
  0
LINE
  8
0
 10
194.710724
 20
-144.302826
 11
190.468079
 21
-140.060181
  0
LINE
  8
0
 10
79.178871
 20
-71.999969
 11
152.966660
 21
-71.999969
  0
LINE
  8
0
 10
-240.000000
 20
-190.000000
 11
-240.000000
 21
-245.000000
  0
LINE
  8
0
 10
60.000000
 20
-189.999969
 11
60.000000
 21
-245.000000
  0
LINE
  8
0
 10
-240.000000
 20
-240.000000
 11
60.000000
 21
-240.000000
  0
LINE
  8
0
 10
-239.999985
 20
-239.999985
 11
-234.204422
 21
-238.447067
  0
LINE
  8
0
 10
54.204441
 20
-241.552902
 11
59.999996
 21
-239.999985
  0
LINE
  8
0
 10
54.204441
 20
-238.447083
 11
59.999996
 21
-240.000000
  0
LINE
  8
0
 10
-239.999985
 20
-239.999985
 11
-234.204422
 21
-241.552902
  0
ARC
  8
0
 62
     5
 10
386.130402
 20
-332.404785
 40
3.128082
 50
0.000000
 51
90.000000
  0
ARC
  8
0
 62
     5
 10
411.937195
 20
-349.218353
 40
3.128082
 50
270.000000
 51
0.000000
  0
ARC
  8
0
 62
     5
 10
410.373047
 20
-333.968781
 40
4.692139
 50
0.000000
 51
90.000000
  0
ARC
  8
0
 62
     5
 10
438.916931
 20
-332.404785
 40
3.128082
 50
0.000000
 51
90.000000
  0
ARC
  8
0
 62
     5
 10
438.916931
 20
-334.903870
 40
3.128100
 50
294.999969
 51
0.000000
  0
ARC
  8
0
 62
     5
 10
463.159668
 20
-329.276672
 40
4.692149
 50
291.688202
 51
0.000000
  0
ARC
  8
0
 62
     5
 10
461.595520
 20
-328.215485
 40
1.564059
 50
291.688049
 51
0.000000
  0
ARC
  8
0
 10
752.745728
 20
-209.040070
 40
2.000000
 50
270.000000
 51
0.000000
  0
ARC
  8
0
 10
752.745728
 20
-205.040070
 40
2.000000
 50
0.000000
 51
90.000000
  0
ARC
  8
0
 10
748.500000
 20
-206.999954
 40
2.000000
 50
270.000000
 51
0.000000
  0
ARC
  8
0
 10
748.500000
 20
-202.999954
 40
2.000000
 50
0.000000
 51
90.000000
  0
ARC
  8
0
 10
748.500000
 20
-206.999954
 40
2.000000
 50
270.000000
 51
0.000000
  0
ARC
  8
0
 10
748.500000
 20
-202.999954
 40
2.000000
 50
0.000000
 51
90.000000
  0
CIRCLE
  8
0
 10
-378.000000
 20
-150.000000
 40
6.578500
  0
CIRCLE
  8
0
 10
-366.500000
 20
-141.000000
 40
3.000000
  0
CIRCLE
  8
0
 10
-378.000000
 20
-150.000000
 40
5.722500
  0
CIRCLE
  8
0
 10
186.499939
 20
-140.999954
 40
3.000000
  0
CIRCLE
  8
0
 10
197.999939
 20
-149.999954
 40
5.722500
  0
CIRCLE
  8
0
 10
197.999939
 20
-149.999954
 40
6.578500
  0
CIRCLE
  8
0
 10
-295.000000
 20
109.999992
 40
2.458500
  0
CIRCLE
  8
0
 10
-295.000000
 20
89.999992
 40
2.458500
  0
CIRCLE
  8
0
 10
-185.000000
 20
129.999985
 40
2.458500
  0
CIRCLE
  8
0
 10
-185.000000
 20
129.999985
 40
3.000000
  0
CIRCLE
  8
0
 10
-295.000000
 20
130.000000
 40
2.458500
  0
CIRCLE
  8
0
 10
-185.000000
 20
109.999985
 40
3.000000
  0
CIRCLE
  8
0
 10
-185.000000
 20
89.999985
 40
2.458500
  0
CIRCLE
  8
0
 10
-185.000000
 20
89.999985
 40
3.000000
  0
CIRCLE
  8
0
 10
-185.000000
 20
109.999985
 40
2.458500
  0
CIRCLE
  8
0
 10
-295.000000
 20
130.000000
 40
3.000000
  0
CIRCLE
  8
0
 10
-295.000000
 20
109.999992
 40
3.000000
  0
CIRCLE
  8
0
 10
-295.000000
 20
89.999992
 40
3.000000
  0
ARC
  8
0
 10
344.828461
 20
-182.999939
 40
3.000000
 50
90.000000
 51
160.528793
  0
ARC
  8
0
 10
328.999969
 20
-141.241272
 40
1.999996
 50
96.232689
 51
180.000000
  0
ARC
  8
0
 10
327.914368
 20
-131.300369
 40
8.000008
 50
276.232239
 51
285.111389
  0
ARC
  8
0
 10
390.999969
 20
-141.241180
 40
2.000000
 50
0.000000
 51
83.767311
  0
ARC
  8
0
 10
392.085510
 20
-131.300278
 40
8.000007
 50
254.888626
 51
263.767761
  0
ARC
  8
0
 10
329.999939
 20
-123.999969
 40
3.000000
 50
90.000000
 51
180.000000
  0
ARC
  8
0
 10
389.999939
 20
-123.999878
 40
3.000000
 50
0.000000
 51
90.000000
  0
CIRCLE
  8
0
 10
349.000000
 20
-150.000015
 40
6.578500
  0
CIRCLE
  8
0
 10
339.000031
 20
-171.000046
 40
7.000000
  0
CIRCLE
  8
0
 10
339.000031
 20
-171.000046
 40
3.000000
  0
CIRCLE
  8
0
 10
339.000031
 20
-171.000046
 40
2.458500
  0
CIRCLE
  8
0
 10
381.000031
 20
-170.999954
 40
2.458500
  0
CIRCLE
  8
0
 10
381.000031
 20
-170.999954
 40
7.000000
  0
CIRCLE
  8
0
 10
381.000031
 20
-170.999954
 40
3.000000
  0
ARC
  8
0
 10
339.000031
 20
-171.000046
 40
9.000000
 50
0.000000
 51
90.000000
  0
ARC
  8
0
 10
381.000031
 20
-170.999954
 40
9.000000
 50
90.000000
 51
180.000000
  0
ARC
  8
0
 10
339.000031
 20
-171.000046
 40
9.000000
 50
180.000000
 51
270.000000
  0
ARC
  8
0
 10
381.000031
 20
-170.999954
 40
9.000000
 50
270.000000
 51
0.000000
  0
CIRCLE
  8
0
 10
380.999969
 20
-128.999954
 40
3.000000
  0
CIRCLE
  8
0
 10
338.999969
 20
-129.000046
 40
7.000000
  0
CIRCLE
  8
0
 10
338.999969
 20
-129.000046
 40
3.000000
  0
CIRCLE
  8
0
 10
338.999969
 20
-129.000046
 40
2.458500
  0
CIRCLE
  8
0
 10
380.999969
 20
-128.999954
 40
2.458500
  0
CIRCLE
  8
0
 10
380.999969
 20
-128.999954
 40
7.000000
  0
ARC
  8
0
 10
338.999969
 20
-129.000046
 40
9.000000
 50
270.000000
 51
0.000000
  0
ARC
  8
0
 10
380.999969
 20
-128.999954
 40
9.000000
 50
180.000000
 51
270.000000
  0
ARC
  8
0
 10
338.999969
 20
-129.000046
 40
9.000000
 50
90.000000
 51
179.999908
  0
ARC
  8
0
 10
380.999969
 20
-128.999954
 40
9.000000
 50
0.000000
 51
90.000000
  0
CIRCLE
  8
0
 10
371.000000
 20
-149.999985
 40
5.722500
  0
CIRCLE
  8
0
 10
371.000000
 20
-149.999985
 40
6.578500
  0
CIRCLE
  8
0
 10
349.000000
 20
-150.000015
 40
5.722500
  0
CIRCLE
  8
0
 10
359.999908
 20
-108.000000
 40
10.000000
  0
ARC
  8
0
 10
314.499878
 20
-95.000069
 40
2.000000
 50
90.000000
 51
180.000000
  0
ARC
  8
0
 10
405.499878
 20
-94.999931
 40
2.000000
 50
0.000000
 51
90.000000
  0
ARC
  8
0
 10
404.499878
 20
-94.999931
 40
2.000000
 50
0.000000
 51
90.000000
  0
ARC
  8
0
 10
315.499878
 20
-95.000069
 40
2.000000
 50
90.000000
 51
180.000000
  0
ARC
  8
0
 10
318.499939
 20
-138.000061
 40
6.000000
 50
180.000000
 51
270.000000
  0
ARC
  8
0
 10
401.499939
 20
-137.999939
 40
6.000000
 50
270.000000
 51
0.000000
  0
ARC
  8
0
 10
319.499939
 20
-138.000061
 40
6.000000
 50
180.000000
 51
270.000000
  0
ARC
  8
0
 10
400.499939
 20
-137.999939
 40
6.000000
 50
270.000000
 51
0.000000
  0
ARC
  8
0
 10
328.799988
 20
-170.199966
 40
0.799988
 50
180.000000
 51
0.000000
  0
ARC
  8
0
 10
328.799988
 20
-159.999969
 40
0.799988
 50
0.000000
 51
180.000000
  0
ARC
  8
0
 10
329.999939
 20
-123.999969
 40
2.000000
 50
90.000000
 51
180.000000
  0
ARC
  8
0
 10
391.200012
 20
-170.199875
 40
0.799988
 50
180.000000
 51
0.000000
  0
ARC
  8
0
 10
389.549988
 20
-170.199875
 40
0.850006
 50
0.000000
 51
58.033211
  0
ARC
  8
0
 10
391.200012
 20
-159.999878
 40
0.799988
 50
0.000000
 51
180.000000
  0
ARC
  8
0
 10
389.999939
 20
-123.999878
 40
2.000000
 50
0.000000
 51
90.000000
  0
ARC
  8
0
 10
327.914368
 20
-131.300369
 40
8.999996
 50
276.232178
 51
283.398956
  0
ARC
  8
0
 10
328.999969
 20
-141.241272
 40
1.000004
 50
96.231773
 51
180.000000
  0
ARC
  8
0
 10
392.085510
 20
-131.300278
 40
8.999999
 50
256.601044
 51
263.767822
  0
ARC
  8
0
 10
390.999969
 20
-141.241180
 40
1.000000
 50
0.000000
 51
83.768227
  0
ARC
  8
0
 10
330.450012
 20
-170.199966
 40
0.849998
 50
121.966789
 51
180.000000
  0
ARC
  8
0
 10
375.171600
 20
-182.999908
 40
3.000003
 50
19.471201
 51
90.000000
  0
TEXT
  8
0
 10
320.176178
 20
329.975403
 40
12.000000
  1
DATE : JUN ,1991
 50
0.000000
 41
1.052631
 51
0.000000
  7
STANDARD
  0
TEXT
  8
0
 10
-488.244446
 20
328.175323
 40
14.000000
  1
RODLESS CYLINDER
 50
0.000000
 41
1.052632
 51
0.000000
  7
STANDARD
  0
TEXT
  8
0
 10
-483.244446
 20
257.950592
 40
14.000000
  1
MODEL : ORGA 40xST(300)
 50
0.000000
 41
1.052632
 51
0.000000
  7
STANDARD
  0
TEXT
  8
0
 10
-155.888412
 20
178.500000
 40
10.000000
  1
6-M6x1
 50
0.000000
 41
1.052632
 51
0.000000
  7
STANDARD
  0
TEXT
  8
0
 10
79.788094
 20
-72.499969
 40
10.000000
  1
6-Rc1/4
 50
0.000000
 41
1.052632
 51
0.000000
  7
STANDARD
  0
TEXT
  8
0
 10
-121.178566
 20
-238.000000
 40
10.000000
  1
STROKE
 50
0.000000
 41
1.052632
 51
0.000000
  7
STANDARD
  0
ENDSEC
  0
EOF
