  0
SECTION
  2
HEADER
  0
ENDSEC
  0
SECTION
  2
TABLES
  0
TABLE
  2
LTYPE
 70
     4
  0
LTYPE
  2
CONTINUOUS
 70
    64
  3
Solid line
 72
    65
 73
     0
 40
0.000000
  0
LTYPE
  2
DASHED
 70
    64
  3
__ __ __ __ __ __ __ __ __ __ __ __ __ __ __
 72
    65
 73
     2
 40
3.500000
 49
2.000000
 49
-1.500000
  0
LTYPE
  2
CENTER
 70
    64
  3
____ _ ____ _ ____ _ ____ _ ____ _ ____ _ ____
 72
    65
 73
     4
 40
17.500000
 49
13.000000
 49
-1.500000
 49
1.500000
 49
-1.500000
  0
LTYPE
  2
PHANTOM
 70
    64
  3
_____ _ _ _____ _ _ _____ _ _ _____ _ _ ____  
 72
    65
 73
     6
 40
15.500000
 49
8.000000
 49
-1.500000
 49
1.500000
 49
-1.500000
 49
1.500000
 49
-1.500000
  0
LTYPE
  2
DASHED1
 70
    64
  3
__ __ __ __ __ __ __ __ __ __ __ __ __ __ __
 72
    65
 73
     2
 40
1.500000
 49
1.000000
 49
-0.500000
  0
LTYPE
  2
DASHED2
 70
    64
  3
__ __ __ __ __ __ __ __ __ __ __ __ __ __ __
 72
    65
 73
     2
 40
3.500000
 49
2.500000
 49
-1.000000
  0
LTYPE
  2
DASHED3
 70
    64
  3
__ __ __ __ __ __ __ __ __ __ __ __ __ __ __
 72
    65
 73
     2
 40
6.000000
 49
4.000000
 49
-2.000000
  0
LTYPE
  2
DASHED4
 70
    64
  3
__ __ __ __ __ __ __ __ __ __ __ __ __ __ __
 72
    65
 73
     2
 40
12.000000
 49
10.000000
 49
-2.000000
  0
LTYPE
  2
DASHED5
 70
    64
  3
__ __ __ __ __ __ __ __ __ __ __ __ __ __ __
 72
    65
 73
     2
 40
17.000000
 49
15.000000
 49
-2.000000
  0
LTYPE
  2
DASHED6
 70
    64
  3
__ __ __ __ __ __ __ __ __ __ __ __ __ __ __
 72
    65
 73
     2
 40
29.000000
 49
27.000000
 49
-2.000000
  0
LTYPE
  2
PHANTOM1
 70
    64
  3
_____ _ _ _____ _ _ _____ _ _ _____ _ _ ____  
 72
    65
 73
     6
 40
31.000000
 49
25.000000
 49
-1.500000
 49
1.000000
 49
-1.000000
 49
1.000000
 49
-1.500000
  0
LTYPE
  2
PHANTOM2
 70
    64
  3
_____ _ _ _____ _ _ _____ _ _ _____ _ _ ____  
 72
    65
 73
     6
 40
36.000000
 49
27.000000
 49
-1.500000
 49
2.500000
 49
-1.000000
 49
2.500000
 49
-1.500000
  0
LTYPE
  2
PHANTOM3
 70
    64
  3
_____ _ _ _____ _ _ _____ _ _ _____ _ _ ____  
 72
    65
 73
     6
 40
78.000000
 49
64.000000
 49
-2.000000
 49
4.000000
 49
-2.000000
 49
4.000000
 49
-2.000000
  0
LTYPE
  2
CENTER1
 70
    64
  3
____ _ ____ _ ____ _ ____ _ ____ _ ____ _ ____
 72
    65
 73
     4
 40
19.000000
 49
14.000000
 49
-1.000000
 49
3.000000
 49
-1.000000
  0
LTYPE
  2
CENTER2
 70
    64
  3
____ _ ____ _ ____ _ ____ _ ____ _ ____ _ ____
 72
    65
 73
     4
 40
28.500000
 49
25.000000
 49
-1.000000
 49
1.500000
 49
-1.000000
  0
LTYPE
  2
CENTER3
 70
    64
  3
____ _ ____ _ ____ _ ____ _ ____ _ ____ _ ____
 72
    65
 73
     4
 40
31.500000
 49
27.000000
 49
-1.000000
 49
2.500000
 49
-1.000000
  0
LTYPE
  2
CENTER4
 70
    64
  3
____ _ ____ _ ____ _ ____ _ ____ _ ____ _ ____
 72
    65
 73
     4
 40
50.000000
 49
45.000000
 49
-1.000000
 49
3.000000
 49
-1.000000
  0
LTYPE
  2
CENTER5
 70
    64
  3
____ _ ____ _ ____ _ ____ _ ____ _ ____ _ ____
 72
    65
 73
     4
 40
100.000000
 49
92.000000
 49
-2.000000
 49
4.000000
 49
-2.000000
  0
LTYPE
  2
SBK1
 70
    64
  3
______ _ _ _ ______ _ _ _ ______ _ _ _ _____  
 72
    65
 73
     8
 40
60.500000
 49
45.000000
 49
-2.000000
 49
2.500000
 49
-2.000000
 49
2.500000
 49
-2.000000
 49
2.500000
 49
-2.000000
  0
LTYPE
  2
SBK2
 70
    64
  3
______ _ _ _ ______ _ _ _ ______ _ _ _ _____  
 72
    65
 73
     8
 40
84.000000
 49
64.000000
 49
-2.000000
 49
4.000000
 49
-2.000000
 49
4.000000
 49
-2.000000
 49
4.000000
 49
-2.000000
  0
LTYPE
  2
STCH
 70
    64
  3
__ __ __ __ __ __ __ __ __ __ __ __ __ __ __
 72
    65
 73
     2
 40
3.000000
 49
1.000000
 49
-2.000000
  0
LTYPE
  2
MTCH
 70
    64
  3
_____ _ _ _____ _ _ _____ _ _ _____ _ _ ____  
 72
    65
 73
     6
 40
80.000000
 49
66.000000
 49
-2.000000
 49
4.000000
 49
-2.000000
 49
4.000000
 49
-2.000000
  0
ENDTAB
  0
TABLE
  2
LAYER
 70
     1
  0
LAYER
  2
0
 70
     0
 62
     7
  6
CONTINUOUS
  0
ENDTAB
  0
TABLE
  2
STYLE
 70
     1
  0
STYLE
  2
STANDARD
 70
     0
 40
0.000000
 41
1.000000
 50
0.000000
 71
     0
 42
0.200000
  3
txt
  4
BIGFONT
  0
ENDTAB
  0
TABLE
  2
VIEW
 70
     0
  0
ENDTAB
  0
ENDSEC
  0
SECTION
  2
BLOCKS
  0
ENDSEC
  0
SECTION
  2
ENTITIES
  0
POINT
  8
0
 10
-507.000000
 20
150.000000
  0
POINT
  8
0
 10
113.000000
 20
150.000000
  0
POINT
  8
0
 10
-507.000000
 20
-200.000031
  0
POINT
  8
0
 10
113.000000
 20
-200.000031
  0
POINT
  8
0
 10
450.000153
 20
-200.000015
  0
POINT
  8
0
 10
487.000153
 20
-200.000015
  0
LINE
  8
0
 62
     3
 10
-741.750000
 20
-509.114990
 11
741.750000
 21
-509.114990
  0
LINE
  8
0
 62
     3
 10
-741.750000
 20
509.114990
 11
741.750000
 21
509.114990
  0
LINE
  8
0
 62
     3
 10
741.750000
 20
509.114990
 11
741.750000
 21
-509.114990
  0
LINE
  8
0
 62
     3
 10
-741.750000
 20
509.114990
 11
-741.750000
 21
-509.114990
  0
LINE
  8
0
 62
     5
 10
516.764709
 20
-465.668823
 11
546.072388
 21
-465.668823
  0
LINE
  8
0
 62
     5
 10
516.764709
 20
-491.658691
 11
541.648621
 21
-491.658691
  0
LINE
  8
0
 62
     5
 10
516.764709
 20
-498.294342
 11
550.496216
 21
-498.294342
  0
LINE
  8
0
 62
     5
 10
516.764709
 20
-472.304474
 11
541.648621
 21
-472.304474
  0
LINE
  8
0
 62
     5
 10
516.764709
 20
-465.668823
 11
516.764709
 21
-472.304474
  0
LINE
  8
0
 62
     5
 10
550.496216
 20
-470.092651
 11
550.496216
 21
-498.294342
  0
LINE
  8
0
 62
     5
 10
541.648621
 20
-472.304474
 11
541.648621
 21
-491.658691
  0
LINE
  8
0
 62
     5
 10
555.472900
 20
-465.668823
 11
555.472900
 21
-472.304474
  0
LINE
  8
0
 62
     5
 10
586.992432
 20
-472.304474
 11
586.992432
 21
-493.870697
  0
LINE
  8
0
 62
     5
 10
578.144897
 20
-472.304474
 11
578.144897
 21
-491.658691
  0
LINE
  8
0
 62
     5
 10
516.764709
 20
-491.658691
 11
516.764709
 21
-498.294342
  0
LINE
  8
0
 62
     5
 10
555.472900
 20
-465.668823
 11
564.214966
 21
-465.668823
  0
LINE
  8
0
 62
     5
 10
555.472900
 20
-498.294342
 11
562.342773
 21
-498.294342
  0
LINE
  8
0
 62
     5
 10
555.472717
 20
-498.294098
 11
562.436890
 21
-472.304413
  0
LINE
  8
0
 62
     5
 10
555.472900
 20
-472.304474
 11
562.436951
 21
-472.304474
  0
LINE
  8
0
 62
     5
 10
562.343140
 20
-498.294647
 11
569.307007
 21
-472.304871
  0
LINE
  8
0
 62
     5
 10
571.509094
 20
-491.658691
 11
578.144897
 21
-491.658691
  0
LINE
  8
0
 62
     5
 10
571.508972
 20
-491.658600
 11
573.286804
 21
-498.294128
  0
LINE
  8
0
 62
     5
 10
573.287354
 20
-498.294342
 11
582.568787
 21
-498.294342
  0
LINE
  8
0
 62
     5
 10
569.306763
 20
-472.304474
 11
578.144897
 21
-472.304474
  0
LINE
  8
0
 62
     5
 10
571.084717
 20
-465.668823
 11
580.356750
 21
-465.668823
  0
LINE
  8
0
 62
     5
 10
564.215088
 20
-465.668854
 11
565.533630
 21
-460.747498
  0
LINE
  8
0
 62
     5
 10
571.084290
 20
-465.668488
 11
572.402893
 21
-460.746979
  0
LINE
  8
0
 62
     5
 10
592.522278
 20
-465.668823
 11
603.028809
 21
-465.668823
  0
LINE
  8
0
 62
     5
 10
592.522278
 20
-472.304474
 11
618.325867
 21
-472.304474
  0
LINE
  8
0
 62
     5
 10
603.028809
 20
-498.294342
 11
611.876221
 21
-498.294342
  0
LINE
  8
0
 62
     5
 10
592.522278
 20
-465.668823
 11
592.522278
 21
-472.304474
  0
LINE
  8
0
 62
     5
 10
625.147827
 20
-484.336975
 11
625.147827
 21
-491.658691
  0
LINE
  8
0
 62
     5
 10
592.521790
 20
-491.658447
 11
603.028564
 21
-486.759003
  0
LINE
  8
0
 62
     5
 10
592.522827
 20
-484.337433
 11
618.326355
 21
-472.304932
  0
LINE
  8
0
 62
     5
 10
592.522278
 20
-484.336975
 11
592.522278
 21
-491.658691
  0
LINE
  8
0
 62
     5
 10
611.876038
 20
-485.469879
 11
625.147766
 21
-491.658478
  0
LINE
  8
0
 62
     5
 10
616.686646
 20
-480.391724
 11
625.148682
 21
-484.337585
  0
LINE
  8
0
 62
     5
 10
625.147827
 20
-470.092651
 11
625.147827
 21
-473.626892
  0
LINE
  8
0
 62
     5
 10
603.028809
 20
-460.747406
 11
603.028809
 21
-465.668823
  0
LINE
  8
0
 62
     5
 10
611.876221
 20
-460.747406
 11
611.876221
 21
-465.668823
  0
LINE
  8
0
 62
     5
 10
611.876221
 20
-465.668823
 11
620.723999
 21
-465.668823
  0
LINE
  8
0
 62
     5
 10
603.028809
 20
-486.759460
 11
603.028809
 21
-498.294342
  0
LINE
  8
0
 62
     5
 10
611.876221
 20
-485.470184
 11
611.876221
 21
-498.294342
  0
LINE
  8
0
 62
     5
 10
616.686707
 20
-480.391937
 11
622.594543
 21
-477.637115
  0
LINE
  8
0
 62
     5
 10
655.008484
 20
-462.738159
 11
661.644043
 21
-462.738159
  0
LINE
  8
0
 62
     5
 10
627.912720
 20
-476.445160
 11
627.912720
 21
-483.586365
  0
LINE
  8
0
 62
     5
 10
661.644043
 20
-462.738159
 11
661.644043
 21
-465.668823
  0
LINE
  8
0
 62
     5
 10
655.008484
 20
-462.738159
 11
655.008484
 21
-464.168060
  0
LINE
  8
0
 62
     5
 10
646.160828
 20
-476.328888
 11
646.160828
 21
-498.294342
  0
LINE
  8
0
 62
     5
 10
627.912903
 20
-476.445496
 11
653.614319
 21
-466.223785
  0
LINE
  8
0
 62
     5
 10
627.912598
 20
-483.586365
 11
646.160706
 21
-476.328796
  0
LINE
  8
0
 62
     5
 10
646.160828
 20
-498.294342
 11
655.008484
 21
-498.294342
  0
LINE
  8
0
 62
     5
 10
655.008484
 20
-472.810120
 11
655.008484
 21
-498.294342
  0
LINE
  8
0
 62
     5
 10
655.009155
 20
-472.810547
 11
657.461609
 21
-471.835114
  0
LINE
  8
0
 62
     5
 10
565.533691
 20
-460.747406
 11
572.403381
 21
-460.747406
  0
LINE
  8
0
 62
     5
 10
583.398193
 20
-460.747406
 11
586.218201
 21
-460.747406
  0
LINE
  8
0
 62
     5
 10
603.028809
 20
-460.747406
 11
611.876221
 21
-460.747406
  0
LINE
  8
0
 62
     5
 10
583.398193
 20
-465.171234
 11
586.218201
 21
-465.171234
  0
LINE
  8
0
 62
     5
 10
583.398193
 20
-460.747406
 11
583.398193
 21
-465.171234
  0
LINE
  8
0
 62
     5
 10
586.218201
 20
-460.747406
 11
586.218201
 21
-465.171234
  0
LINE
  8
0
 62
     5
 10
587.877319
 20
-460.747406
 11
587.877319
 21
-465.171234
  0
LINE
  8
0
 62
     5
 10
591.029297
 20
-460.747406
 11
591.029297
 21
-465.171234
  0
LINE
  8
0
 62
     5
 10
587.877319
 20
-460.747406
 11
591.029297
 21
-460.747406
  0
LINE
  8
0
 62
     5
 10
587.877319
 20
-465.171234
 11
591.029297
 21
-465.171234
  0
LINE
  8
0
 62
     3
 10
436.659546
 20
-451.914154
 11
436.659546
 21
-509.118408
  0
LINE
  8
0
 62
     3
 10
436.659546
 20
-451.914154
 11
741.749207
 21
-451.914154
  0
LINE
  8
0
 62
     3
 10
436.659546
 20
509.118408
 11
436.659546
 21
451.914032
  0
LINE
  8
0
 62
     3
 10
436.659546
 20
451.914032
 11
741.749207
 21
451.914032
  0
LINE
  8
0
 62
     3
 10
-317.483978
 20
451.914032
 11
-317.483978
 21
509.118408
  0
LINE
  8
0
 62
     3
 10
-741.749207
 20
451.914032
 11
-317.483978
 21
451.914032
  0
LINE
  8
0
  6
CENTER
 10
80.000000
 20
-186.000000
 11
98.000000
 21
-186.000000
  0
LINE
  8
0
  6
CENTER
 10
89.000000
 20
-177.000137
 11
89.000000
 21
-195.000137
  0
LINE
  8
0
 10
92.005653
 20
-182.004471
 11
85.004196
 21
-189.005920
  0
LINE
  8
0
 10
85.994247
 20
-189.995804
 11
92.995682
 21
-182.994370
  0
LINE
  8
0
  6
CENTER
 10
-494.000000
 20
-188.000000
 11
-494.000000
 21
-212.000000
  0
LINE
  8
0
 10
-507.000000
 20
-163.000000
 11
-507.000000
 21
-237.000000
  0
LINE
  8
0
 10
-475.000000
 20
-163.000000
 11
-475.000000
 21
-240.000031
  0
LINE
  8
0
 10
-475.000000
 20
-163.000000
 11
-507.000000
 21
-163.000000
  0
LINE
  8
0
 10
-475.000000
 20
-237.000000
 11
-507.000000
 21
-237.000000
  0
LINE
  8
0
  6
CENTER
 10
-474.000000
 20
-186.000000
 11
-492.000000
 21
-186.000000
  0
LINE
  8
0
  6
CENTER
 10
-483.000000
 20
-177.000000
 11
-483.000000
 21
-195.000000
  0
LINE
  8
0
 10
-486.995972
 20
-189.005630
 11
-479.994537
 21
-182.004150
  0
LINE
  8
0
 10
-479.004517
 20
-182.994095
 11
-486.006012
 21
-189.995605
  0
LINE
  8
0
 10
113.000000
 20
-163.000137
 11
113.000000
 21
-237.000137
  0
LINE
  8
0
 10
81.000000
 20
-163.000000
 11
113.000000
 21
-163.000000
  0
LINE
  8
0
 10
81.000000
 20
-237.000000
 11
113.000000
 21
-237.000000
  0
LINE
  8
0
 10
81.000000
 20
-163.000137
 11
81.000000
 21
-240.000153
  0
LINE
  8
0
  6
CENTER
 10
-347.000000
 20
-128.000061
 11
-347.000000
 21
-245.000031
  0
LINE
  8
0
  6
CENTER
 10
-47.000000
 20
-160.000107
 11
-47.000000
 21
-245.000107
  0
LINE
  8
0
  6
CENTER
 10
-512.000122
 20
-200.000031
 11
117.999939
 21
-200.000031
  0
LINE
  8
0
 10
-498.000031
 20
-202.309433
 11
-494.000031
 21
-204.618835
  0
LINE
  8
0
 10
-494.000061
 20
-204.618774
 11
-490.000031
 21
-202.309357
  0
LINE
  8
0
 10
-490.000000
 20
-202.309402
 11
-490.000000
 21
-197.690598
  0
LINE
  8
0
 10
-490.000061
 20
-197.690613
 11
-494.000061
 21
-195.381210
  0
LINE
  8
0
 10
-494.000092
 20
-195.381195
 11
-498.000092
 21
-197.690613
  0
LINE
  8
0
 10
-498.000000
 20
-197.690598
 11
-498.000000
 21
-202.309402
  0
LINE
  8
0
  6
CENTER
 10
100.000000
 20
-188.000137
 11
100.000000
 21
-212.000137
  0
LINE
  8
0
 10
103.999817
 20
-202.309418
 11
99.999840
 21
-204.618805
  0
LINE
  8
0
 10
99.999977
 20
-204.618774
 11
96.000000
 21
-202.309387
  0
LINE
  8
0
 10
96.000000
 20
-202.309540
 11
96.000000
 21
-197.690735
  0
LINE
  8
0
 10
95.999886
 20
-197.690552
 11
99.999863
 21
-195.381165
  0
LINE
  8
0
 10
100.000015
 20
-195.381165
 11
104.000092
 21
-197.690613
  0
LINE
  8
0
 10
104.000000
 20
-197.690735
 11
104.000000
 21
-202.309540
  0
LINE
  8
0
 10
-475.000000
 20
-240.000031
 11
81.000000
 21
-240.000031
  0
LINE
  8
0
 10
-475.000000
 20
-165.000031
 11
-437.000000
 21
-165.000031
  0
LINE
  8
0
 10
-428.000000
 20
-133.000031
 11
-266.000000
 21
-133.000031
  0
LINE
  8
0
 10
-437.000000
 20
-134.000031
 11
-437.000000
 21
-193.000031
  0
LINE
  8
0
 10
-257.000000
 20
-134.000092
 11
-257.000000
 21
-193.000092
  0
LINE
  8
0
 10
-428.000000
 20
-133.000061
 11
-428.000000
 21
-193.000061
  0
LINE
  8
0
 10
-266.000000
 20
-133.000092
 11
-266.000000
 21
-193.000092
  0
LINE
  8
0
 10
-437.000000
 20
-193.000031
 11
-257.000000
 21
-193.000031
  0
LINE
  8
0
 10
-437.000000
 20
-134.000031
 11
-257.000000
 21
-134.000031
  0
LINE
  8
0
 10
-257.000000
 20
-165.000031
 11
81.000000
 21
-165.000031
  0
LINE
  8
0
 10
-475.000000
 20
-174.000000
 11
-437.000000
 21
-174.000000
  0
LINE
  8
0
 10
-475.000000
 20
-179.999985
 11
-437.000000
 21
-179.999985
  0
LINE
  8
0
 10
-475.000000
 20
-187.999985
 11
-437.000000
 21
-187.999985
  0
LINE
  8
0
 10
-475.000000
 20
-193.000000
 11
-437.000000
 21
-193.000000
  0
LINE
  8
0
 10
-475.000000
 20
-196.500000
 11
81.000000
 21
-196.500000
  0
LINE
  8
0
 10
-475.000000
 20
-205.199997
 11
81.000000
 21
-205.199997
  0
LINE
  8
0
 10
-475.000000
 20
-209.199997
 11
81.000000
 21
-209.199997
  0
LINE
  8
0
 10
-475.000000
 20
-229.000000
 11
81.000000
 21
-229.000000
  0
LINE
  8
0
 10
-475.000000
 20
-234.094696
 11
81.000000
 21
-234.094696
  0
LINE
  8
0
 10
-257.000000
 20
-174.000000
 11
81.000000
 21
-174.000000
  0
LINE
  8
0
 10
-257.000000
 20
-179.999985
 11
81.000000
 21
-179.999985
  0
LINE
  8
0
 10
-257.000000
 20
-187.999985
 11
81.000000
 21
-187.999985
  0
LINE
  8
0
 10
-257.000000
 20
-193.000000
 11
81.000000
 21
-193.000000
  0
LINE
  8
0
 10
-498.999939
 20
-215.000046
 11
-498.999939
 21
-237.000046
  0
LINE
  8
0
 10
-498.999939
 20
-215.000046
 11
-506.999939
 21
-215.000046
  0
LINE
  8
0
  6
CENTER
 10
-493.999939
 20
-226.000046
 11
-511.999939
 21
-226.000046
  0
LINE
  8
0
 10
-501.051758
 20
-232.928284
 11
-506.999939
 21
-232.928284
  0
LINE
  8
0
 10
-501.051758
 20
-229.464203
 11
-506.999939
 21
-229.464203
  0
LINE
  8
0
 10
-501.051758
 20
-222.535980
 11
-506.999939
 21
-222.535980
  0
LINE
  8
0
 10
-501.051758
 20
-219.071884
 11
-506.999939
 21
-219.071884
  0
LINE
  8
0
 10
-498.999939
 20
-185.000046
 11
-498.999939
 21
-163.000046
  0
LINE
  8
0
 10
-498.999939
 20
-185.000046
 11
-506.999939
 21
-185.000046
  0
LINE
  8
0
  6
CENTER
 10
-493.999939
 20
-174.000046
 11
-511.999939
 21
-174.000046
  0
LINE
  8
0
 10
-501.051758
 20
-167.071808
 11
-506.999939
 21
-167.071808
  0
LINE
  8
0
 10
-501.051758
 20
-170.535889
 11
-506.999939
 21
-170.535889
  0
LINE
  8
0
 10
-501.051758
 20
-177.464111
 11
-506.999939
 21
-177.464111
  0
LINE
  8
0
 10
-501.051758
 20
-180.928207
 11
-506.999939
 21
-180.928207
  0
LINE
  8
0
 10
-499.999939
 20
-217.250092
 11
-499.999939
 21
-234.749939
  0
LINE
  8
0
 10
-498.999908
 20
-217.250092
 11
-499.999939
 21
-217.250092
  0
LINE
  8
0
 10
-498.999908
 20
-234.749939
 11
-499.999939
 21
-234.749939
  0
LINE
  8
0
 10
-499.999939
 20
-234.749939
 11
-501.051666
 21
-232.928284
  0
LINE
  8
0
 10
-499.999939
 20
-217.250076
 11
-501.051758
 21
-219.071884
  0
LINE
  8
0
 10
-501.051758
 20
-219.071884
 11
-501.051758
 21
-232.928146
  0
LINE
  8
0
 10
-499.999939
 20
-182.750076
 11
-499.999939
 21
-165.250229
  0
LINE
  8
0
 10
-498.999908
 20
-165.250229
 11
-499.999939
 21
-165.250229
  0
LINE
  8
0
 10
-498.999908
 20
-182.750076
 11
-499.999939
 21
-182.750076
  0
LINE
  8
0
 10
-499.999939
 20
-182.750076
 11
-501.051727
 21
-180.928284
  0
LINE
  8
0
 10
-501.051758
 20
-180.928284
 11
-501.051758
 21
-167.072021
  0
LINE
  8
0
 10
-499.999969
 20
-165.250229
 11
-501.051697
 21
-167.071884
  0
LINE
  8
0
 10
104.999817
 20
-185.000137
 11
104.999817
 21
-163.000137
  0
LINE
  8
0
 10
104.999817
 20
-185.000076
 11
112.999817
 21
-185.000076
  0
LINE
  8
0
  6
CENTER
 10
99.999817
 20
-174.000076
 11
117.999817
 21
-174.000076
  0
LINE
  8
0
 10
107.051636
 20
-167.071838
 11
112.999817
 21
-167.071838
  0
LINE
  8
0
 10
107.051636
 20
-170.535919
 11
112.999817
 21
-170.535919
  0
LINE
  8
0
 10
107.051636
 20
-177.464142
 11
112.999817
 21
-177.464142
  0
LINE
  8
0
 10
107.051636
 20
-180.928238
 11
112.999817
 21
-180.928238
  0
LINE
  8
0
 10
104.999817
 20
-215.000137
 11
104.999817
 21
-237.000137
  0
LINE
  8
0
 10
104.999817
 20
-215.000076
 11
112.999817
 21
-215.000076
  0
LINE
  8
0
  6
CENTER
 10
99.999817
 20
-226.000076
 11
117.999817
 21
-226.000076
  0
LINE
  8
0
 10
107.051636
 20
-232.928314
 11
112.999817
 21
-232.928314
  0
LINE
  8
0
 10
107.051636
 20
-229.464233
 11
112.999817
 21
-229.464233
  0
LINE
  8
0
 10
107.051636
 20
-222.536011
 11
112.999817
 21
-222.536011
  0
LINE
  8
0
 10
107.051636
 20
-219.071915
 11
112.999817
 21
-219.071915
  0
LINE
  8
0
 10
105.999817
 20
-182.750092
 11
105.999817
 21
-165.250244
  0
LINE
  8
0
 10
104.999817
 20
-182.750031
 11
105.999817
 21
-182.750031
  0
LINE
  8
0
 10
104.999817
 20
-165.250183
 11
105.999817
 21
-165.250183
  0
LINE
  8
0
 10
105.999931
 20
-165.250229
 11
107.051659
 21
-167.071869
  0
LINE
  8
0
 10
105.999748
 20
-182.749985
 11
107.051552
 21
-180.928207
  0
LINE
  8
0
 10
107.051636
 20
-180.928299
 11
107.051636
 21
-167.072037
  0
LINE
  8
0
 10
105.999817
 20
-217.250107
 11
105.999817
 21
-234.749954
  0
LINE
  8
0
 10
104.999817
 20
-234.749893
 11
105.999817
 21
-234.749893
  0
LINE
  8
0
 10
104.999817
 20
-217.250046
 11
105.999817
 21
-217.250046
  0
LINE
  8
0
 10
105.999832
 20
-217.250092
 11
107.051636
 21
-219.071869
  0
LINE
  8
0
 10
107.051636
 20
-219.071899
 11
107.051636
 21
-232.928162
  0
LINE
  8
0
 10
105.999771
 20
-234.749969
 11
107.051498
 21
-232.928314
  0
LINE
  8
0
  6
CENTER
 10
-512.000000
 20
150.000000
 11
118.000000
 21
150.000000
  0
LINE
  8
0
 10
113.000000
 20
186.999954
 11
113.000000
 21
112.999954
  0
LINE
  8
0
 10
81.000000
 20
189.000000
 11
81.000000
 21
111.000000
  0
LINE
  8
0
 10
81.000000
 20
187.000000
 11
113.000000
 21
187.000000
  0
LINE
  8
0
 10
81.000000
 20
113.000000
 11
113.000000
 21
113.000000
  0
LINE
  8
0
 10
-507.000000
 20
187.000000
 11
-507.000000
 21
113.000000
  0
LINE
  8
0
 10
-475.000000
 20
189.000000
 11
-475.000000
 21
111.000000
  0
LINE
  8
0
 10
-475.000000
 20
187.000000
 11
-507.000000
 21
187.000000
  0
LINE
  8
0
 10
-475.000000
 20
113.000000
 11
-507.000000
 21
113.000000
  0
LINE
  8
0
  6
CENTER
 10
-347.000000
 20
215.000000
 11
-347.000000
 21
85.000000
  0
LINE
  8
0
  6
CENTER
 10
-47.000000
 20
194.000000
 11
-47.000000
 21
106.000000
  0
LINE
  8
0
 10
-428.000000
 20
90.000000
 11
-266.000000
 21
90.000000
  0
LINE
  8
0
 10
-428.000000
 20
210.000000
 11
-266.000000
 21
210.000000
  0
LINE
  8
0
 10
-428.000000
 20
210.000000
 11
-428.000000
 21
90.000000
  0
LINE
  8
0
 10
-266.000000
 20
210.000000
 11
-266.000000
 21
90.000000
  0
LINE
  8
0
 10
-437.000000
 20
209.000000
 11
-437.000000
 21
91.000000
  0
LINE
  8
0
 10
-257.000000
 20
209.000000
 11
-257.000000
 21
91.000000
  0
LINE
  8
0
 10
-437.000000
 20
91.000000
 11
-428.000000
 21
91.000000
  0
LINE
  8
0
 10
-437.000000
 20
209.000000
 11
-428.000000
 21
209.000000
  0
LINE
  8
0
 10
-266.000000
 20
209.000000
 11
-257.000000
 21
209.000000
  0
LINE
  8
0
 10
-266.000000
 20
91.000000
 11
-257.000000
 21
91.000000
  0
LINE
  8
0
 10
-475.000000
 20
141.500000
 11
-437.000000
 21
141.500000
  0
LINE
  8
0
 10
-475.000000
 20
158.500000
 11
-437.000000
 21
158.500000
  0
LINE
  8
0
 10
-257.000000
 20
158.500000
 11
81.000000
 21
158.500000
  0
LINE
  8
0
 10
-257.000000
 20
141.500000
 11
81.000000
 21
141.500000
  0
LINE
  8
0
 10
-428.000000
 20
105.000000
 11
-266.000000
 21
105.000000
  0
LINE
  8
0
 10
-428.000000
 20
195.000000
 11
-266.000000
 21
195.000000
  0
LINE
  8
0
  6
CENTER
 10
-407.000000
 20
183.000000
 11
-407.000000
 21
167.000000
  0
LINE
  8
0
  6
CENTER
 10
-407.000000
 20
158.000000
 11
-407.000000
 21
142.000000
  0
LINE
  8
0
  6
CENTER
 10
-407.000000
 20
133.000000
 11
-407.000000
 21
117.000000
  0
LINE
  8
0
  6
CENTER
 10
-415.000000
 20
125.000000
 11
-399.000000
 21
125.000000
  0
LINE
  8
0
  6
CENTER
 10
-415.000000
 20
175.000000
 11
-399.000000
 21
175.000000
  0
LINE
  8
0
  6
CENTER
 10
-287.000000
 20
183.000000
 11
-287.000000
 21
167.000000
  0
LINE
  8
0
  6
CENTER
 10
-287.000000
 20
158.000000
 11
-287.000000
 21
142.000000
  0
LINE
  8
0
  6
CENTER
 10
-287.000000
 20
133.000000
 11
-287.000000
 21
117.000000
  0
LINE
  8
0
  6
CENTER
 10
-279.000000
 20
125.000000
 11
-295.000000
 21
125.000000
  0
LINE
  8
0
  6
CENTER
 10
-279.000000
 20
175.000000
 11
-295.000000
 21
175.000000
  0
LINE
  8
0
 10
-475.000000
 20
111.000000
 11
-437.000000
 21
111.000000
  0
LINE
  8
0
 10
-475.000000
 20
189.000000
 11
-437.000000
 21
189.000000
  0
LINE
  8
0
 10
-257.000000
 20
189.000000
 11
81.000000
 21
189.000000
  0
LINE
  8
0
 10
-257.000000
 20
111.000000
 11
81.000000
 21
111.000000
  0
LINE
  8
0
 10
-501.051788
 20
130.000015
 11
-507.000000
 21
130.000015
  0
LINE
  8
0
 10
-499.000000
 20
165.000015
 11
-499.000000
 21
187.000015
  0
LINE
  8
0
 10
-499.000000
 20
165.000015
 11
-507.000000
 21
165.000015
  0
LINE
  8
0
 10
-501.051788
 20
118.000015
 11
-507.000000
 21
118.000015
  0
LINE
  8
0
 10
-501.051788
 20
124.000015
 11
-507.000000
 21
124.000015
  0
LINE
  8
0
 10
-499.000000
 20
135.000015
 11
-499.000000
 21
113.000015
  0
LINE
  8
0
 10
-499.000000
 20
135.000015
 11
-507.000000
 21
135.000015
  0
LINE
  8
0
 10
-500.000000
 20
132.749954
 11
-500.000000
 21
115.250053
  0
LINE
  8
0
 10
-501.051788
 20
130.928192
 11
-501.051788
 21
117.071823
  0
LINE
  8
0
 10
-498.999847
 20
132.749954
 11
-500.000000
 21
132.749954
  0
LINE
  8
0
 10
-498.999939
 20
115.250053
 11
-500.000000
 21
115.250053
  0
LINE
  8
0
 10
-499.999939
 20
115.250061
 11
-501.051727
 21
117.071838
  0
LINE
  8
0
 10
-499.999756
 20
132.749847
 11
-501.051544
 21
130.928070
  0
LINE
  8
0
  6
CENTER
 10
-494.000000
 20
124.000015
 11
-512.000000
 21
124.000015
  0
LINE
  8
0
 10
-501.051788
 20
170.000015
 11
-507.000000
 21
170.000015
  0
LINE
  8
0
 10
-501.051788
 20
182.000015
 11
-507.000000
 21
182.000015
  0
LINE
  8
0
 10
-501.051788
 20
176.000015
 11
-507.000000
 21
176.000015
  0
LINE
  8
0
 10
-500.000000
 20
167.250076
 11
-500.000000
 21
184.749969
  0
LINE
  8
0
 10
-501.051788
 20
169.071838
 11
-501.051788
 21
182.928207
  0
LINE
  8
0
 10
-498.999847
 20
167.250076
 11
-500.000000
 21
167.250076
  0
LINE
  8
0
 10
-498.999939
 20
184.749969
 11
-500.000000
 21
184.749969
  0
LINE
  8
0
 10
-499.999817
 20
184.749878
 11
-501.051605
 21
182.928116
  0
LINE
  8
0
 10
-499.999878
 20
167.250092
 11
-501.051666
 21
169.071838
  0
LINE
  8
0
  6
CENTER
 10
-494.000000
 20
176.000015
 11
-512.000000
 21
176.000015
  0
LINE
  8
0
 10
107.051819
 20
169.999954
 11
113.000000
 21
169.999954
  0
LINE
  8
0
 10
105.000000
 20
134.999954
 11
105.000000
 21
112.999954
  0
LINE
  8
0
 10
105.000000
 20
134.999954
 11
113.000000
 21
134.999954
  0
LINE
  8
0
 10
107.051819
 20
181.999954
 11
113.000000
 21
181.999954
  0
LINE
  8
0
 10
107.051819
 20
175.999954
 11
113.000000
 21
175.999954
  0
LINE
  8
0
 10
105.000000
 20
164.999954
 11
105.000000
 21
186.999954
  0
LINE
  8
0
 10
105.000000
 20
164.999954
 11
113.000000
 21
164.999954
  0
LINE
  8
0
 10
106.000000
 20
167.250015
 11
106.000000
 21
184.749908
  0
LINE
  8
0
 10
107.051819
 20
169.071777
 11
107.051819
 21
182.928146
  0
LINE
  8
0
 10
104.999878
 20
167.250015
 11
106.000000
 21
167.250015
  0
LINE
  8
0
 10
104.999939
 20
184.749908
 11
106.000000
 21
184.749908
  0
LINE
  8
0
 10
106.000031
 20
184.749893
 11
107.051819
 21
182.928146
  0
LINE
  8
0
 10
105.999908
 20
167.250061
 11
107.051697
 21
169.071808
  0
LINE
  8
0
  6
CENTER
 10
100.000000
 20
175.999954
 11
118.000000
 21
175.999954
  0
LINE
  8
0
 10
107.051758
 20
129.999954
 11
113.000000
 21
129.999954
  0
LINE
  8
0
 10
107.051758
 20
117.999954
 11
113.000000
 21
117.999954
  0
LINE
  8
0
 10
107.051758
 20
123.999954
 11
113.000000
 21
123.999954
  0
LINE
  8
0
 10
106.000000
 20
132.749893
 11
106.000000
 21
115.249992
  0
LINE
  8
0
 10
107.051819
 20
130.928131
 11
107.051819
 21
117.071762
  0
LINE
  8
0
 10
104.999817
 20
132.749893
 11
106.000000
 21
132.749893
  0
LINE
  8
0
 10
104.999939
 20
115.249992
 11
106.000000
 21
115.249992
  0
LINE
  8
0
 10
105.999901
 20
115.250038
 11
107.051689
 21
117.071785
  0
LINE
  8
0
 10
105.999863
 20
132.749817
 11
107.051666
 21
130.928040
  0
LINE
  8
0
  6
CENTER
 10
100.000000
 20
123.999954
 11
118.000000
 21
123.999954
  0
LINE
  8
0
  6
CENTER
 10
450.000153
 20
-128.000015
 11
450.000153
 21
-245.000015
  0
LINE
  8
0
 10
482.324738
 20
-165.000015
 11
487.000214
 21
-165.000015
  0
LINE
  8
0
 10
410.000153
 20
-166.999939
 11
410.000153
 21
-174.580261
  0
LINE
  8
0
 10
413.000214
 20
-164.000015
 11
419.417572
 21
-164.000015
  0
LINE
  8
0
 10
410.000183
 20
-174.580353
 11
413.000153
 21
-176.294632
  0
LINE
  8
0
 10
480.582703
 20
-164.000015
 11
487.000214
 21
-164.000015
  0
LINE
  8
0
 10
490.000153
 20
-167.000092
 11
490.000153
 21
-174.580414
  0
LINE
  8
0
 10
490.000183
 20
-174.580322
 11
487.000183
 21
-176.294617
  0
LINE
  8
0
  6
CENTER
 10
408.000153
 20
-200.000015
 11
492.000153
 21
-200.000015
  0
LINE
  8
0
 10
424.000336
 20
-163.000015
 11
476.000366
 21
-163.000015
  0
LINE
  8
0
 10
487.000153
 20
-174.000168
 11
487.000153
 21
-226.000168
  0
LINE
  8
0
 10
413.000153
 20
-173.999863
 11
413.000153
 21
-225.999863
  0
LINE
  8
0
  6
CENTER
 10
411.000031
 20
-226.000015
 11
437.000031
 21
-226.000015
  0
LINE
  8
0
  6
CENTER
 10
424.000153
 20
-212.999893
 11
424.000153
 21
-238.999893
  0
LINE
  8
0
 10
418.000000
 20
-229.464035
 11
424.000000
 21
-232.928146
  0
LINE
  8
0
 10
424.000214
 20
-232.928436
 11
430.000183
 21
-229.464340
  0
LINE
  8
0
 10
430.000153
 20
-229.464035
 11
430.000153
 21
-222.535828
  0
LINE
  8
0
 10
430.000061
 20
-222.535858
 11
424.000061
 21
-219.071747
  0
LINE
  8
0
 10
424.000336
 20
-219.072159
 11
418.000305
 21
-222.536270
  0
LINE
  8
0
 10
418.000153
 20
-222.535828
 11
418.000153
 21
-229.464050
  0
LINE
  8
0
  6
CENTER
 10
489.000031
 20
-226.000015
 11
463.000031
 21
-226.000015
  0
LINE
  8
0
  6
CENTER
 10
476.000153
 20
-213.000137
 11
476.000153
 21
-239.000137
  0
LINE
  8
0
 10
481.999817
 20
-229.463974
 11
475.999786
 21
-232.928070
  0
LINE
  8
0
 10
476.000214
 20
-232.928223
 11
470.000183
 21
-229.464111
  0
LINE
  8
0
 10
470.000153
 20
-229.464218
 11
470.000153
 21
-222.536011
  0
LINE
  8
0
 10
470.000366
 20
-222.536392
 11
476.000336
 21
-219.072296
  0
LINE
  8
0
 10
476.000275
 20
-219.071823
 11
482.000305
 21
-222.535950
  0
LINE
  8
0
 10
482.000153
 20
-222.536072
 11
482.000153
 21
-229.464294
  0
LINE
  8
0
  6
CENTER
 10
411.000275
 20
-174.000015
 11
437.000275
 21
-174.000015
  0
LINE
  8
0
  6
CENTER
 10
424.000153
 20
-186.999893
 11
424.000153
 21
-160.999893
  0
LINE
  8
0
 10
418.000275
 20
-170.535645
 11
424.000275
 21
-167.071548
  0
LINE
  8
0
 10
424.000275
 20
-167.071747
 11
430.000275
 21
-170.535843
  0
LINE
  8
0
 10
430.000153
 20
-170.535812
 11
430.000153
 21
-177.464020
  0
LINE
  8
0
 10
430.000488
 20
-177.464325
 11
424.000488
 21
-180.928452
  0
LINE
  8
0
 10
424.000305
 20
-180.928131
 11
418.000275
 21
-177.464020
  0
LINE
  8
0
 10
418.000153
 20
-177.463959
 11
418.000153
 21
-170.535736
  0
LINE
  8
0
  6
CENTER
 10
489.000275
 20
-174.000015
 11
463.000275
 21
-174.000015
  0
LINE
  8
0
  6
CENTER
 10
476.000153
 20
-187.000137
 11
476.000153
 21
-161.000137
  0
LINE
  8
0
 10
482.000061
 20
-170.535995
 11
476.000061
 21
-167.071899
  0
LINE
  8
0
 10
476.000244
 20
-167.071854
 11
470.000275
 21
-170.535934
  0
LINE
  8
0
 10
470.000153
 20
-170.535995
 11
470.000153
 21
-177.464203
  0
LINE
  8
0
 10
470.000336
 20
-177.464096
 11
476.000336
 21
-180.928207
  0
LINE
  8
0
 10
476.000519
 20
-180.928482
 11
482.000488
 21
-177.464386
  0
LINE
  8
0
 10
482.000153
 20
-177.464203
 11
482.000153
 21
-170.535980
  0
LINE
  8
0
  6
CENTER
 10
464.000153
 20
-188.500076
 11
464.000153
 21
-211.500076
  0
LINE
  8
0
 10
435.000153
 20
-162.999954
 11
435.000153
 21
-173.999954
  0
LINE
  8
0
 10
465.000153
 20
-163.000076
 11
465.000153
 21
-174.000076
  0
LINE
  8
0
 10
413.000092
 20
-215.000015
 11
424.000092
 21
-215.000015
  0
LINE
  8
0
 10
413.000214
 20
-185.000015
 11
424.000214
 21
-185.000015
  0
LINE
  8
0
 10
435.000153
 20
-225.999954
 11
435.000153
 21
-236.999954
  0
LINE
  8
0
 10
465.000153
 20
-226.000076
 11
465.000153
 21
-237.000076
  0
LINE
  8
0
 10
476.000183
 20
-185.000015
 11
487.000183
 21
-185.000015
  0
LINE
  8
0
 10
476.000122
 20
-215.000015
 11
487.000122
 21
-215.000015
  0
LINE
  8
0
 10
424.000061
 20
-237.000015
 11
475.999939
 21
-237.000015
  0
LINE
  8
0
  6
CENTER
 10
436.000153
 20
-188.499954
 11
436.000153
 21
-211.499954
  0
LINE
  8
0
 10
405.000305
 20
-133.000015
 11
495.000305
 21
-133.000015
  0
LINE
  8
0
 10
394.000275
 20
-134.000015
 11
506.000275
 21
-134.000015
  0
LINE
  8
0
 10
400.000153
 20
-193.000015
 11
410.000153
 21
-193.000015
  0
LINE
  8
0
 10
490.000153
 20
-193.000015
 11
499.000153
 21
-193.000015
  0
LINE
  8
0
 10
510.000153
 20
-138.000137
 11
510.000153
 21
-183.000137
  0
LINE
  8
0
 10
390.000153
 20
-137.999893
 11
390.000153
 21
-182.999893
  0
LINE
  8
0
  6
CENTER
 10
434.000244
 20
-151.000015
 11
466.000244
 21
-151.000015
  0
LINE
  8
0
 10
495.000244
 20
-133.000168
 11
496.000244
 21
-134.000168
  0
LINE
  8
0
 10
405.000244
 20
-132.999878
 11
404.000275
 21
-133.999893
  0
LINE
  8
0
 10
391.000153
 20
-137.999893
 11
391.000153
 21
-182.999893
  0
LINE
  8
0
 10
509.000153
 20
-138.000137
 11
509.000153
 21
-183.000137
  0
LINE
  8
0
 10
411.000153
 20
-166.999939
 11
411.000153
 21
-173.999939
  0
LINE
  8
0
 10
413.000214
 20
-165.000015
 11
417.675629
 21
-165.000015
  0
LINE
  8
0
 10
412.000153
 20
-209.999939
 11
412.000153
 21
-228.199936
  0
LINE
  8
0
 10
412.000153
 20
-192.999939
 11
412.000153
 21
-196.499939
  0
LINE
  8
0
 10
412.000153
 20
-196.500015
 11
413.000153
 21
-196.500015
  0
LINE
  8
0
 10
489.000153
 20
-167.000092
 11
489.000153
 21
-174.000092
  0
LINE
  8
0
 10
485.000153
 20
-232.324615
 11
485.000153
 21
-234.800095
  0
LINE
  8
0
 10
488.000153
 20
-210.000092
 11
488.000153
 21
-228.200089
  0
LINE
  8
0
 10
488.000153
 20
-193.000092
 11
488.000153
 21
-196.500092
  0
LINE
  8
0
 10
488.000153
 20
-196.500015
 11
487.000153
 21
-196.500015
  0
LINE
  8
0
 10
411.000061
 20
-240.000015
 11
430.000061
 21
-240.000015
  0
LINE
  8
0
 10
489.000153
 20
-234.094788
 11
489.000153
 21
-240.000092
  0
LINE
  8
0
 10
411.000153
 20
-234.094635
 11
411.000153
 21
-239.999939
  0
LINE
  8
0
 10
485.000061
 20
-234.800064
 11
489.000061
 21
-234.094742
  0
LINE
  8
0
 10
415.000122
 20
-234.800095
 11
411.000122
 21
-234.094772
  0
LINE
  8
0
 10
415.000153
 20
-232.324524
 11
415.000153
 21
-234.799942
  0
LINE
  8
0
 10
470.000061
 20
-240.000015
 11
489.000061
 21
-240.000015
  0
LINE
  8
0
 10
411.000153
 20
-193.000015
 11
412.000153
 21
-193.000015
  0
LINE
  8
0
 10
488.000153
 20
-193.000015
 11
489.000153
 21
-193.000015
  0
LINE
  8
0
 10
411.000153
 20
-188.951279
 11
411.000153
 21
-192.999939
  0
LINE
  8
0
 10
489.000153
 20
-188.951431
 11
489.000153
 21
-193.000092
  0
LINE
  8
0
 10
411.000183
 20
-174.000015
 11
413.000183
 21
-175.142883
  0
LINE
  8
0
 10
489.000153
 20
-174.000015
 11
487.000183
 21
-175.142883
  0
LINE
  8
0
 10
410.000153
 20
-188.951279
 11
410.000153
 21
-192.999939
  0
LINE
  8
0
 10
490.000153
 20
-188.951431
 11
490.000153
 21
-193.000092
  0
LINE
  8
0
 10
-285.000000
 20
178.464096
 11
-249.472214
 21
240.000000
  0
LINE
  8
0
 10
-285.000000
 20
178.464096
 11
-279.696716
 21
183.767395
  0
LINE
  8
0
 10
-285.000000
 20
178.464096
 11
-283.058838
 21
185.708542
  0
LINE
  8
0
 10
-249.472214
 20
240.000000
 11
-117.405769
 21
240.000000
  0
LINE
  8
0
 10
95.834496
 20
-192.785141
 11
44.574402
 21
-104.000015
  0
LINE
  8
0
 10
95.834503
 20
-192.785156
 11
93.893356
 21
-185.540710
  0
LINE
  8
0
 10
95.834496
 20
-192.785141
 11
90.531189
 21
-187.481842
  0
LINE
  8
0
 10
-56.329082
 20
-104.000015
 11
44.574402
 21
-104.000015
  0
LINE
  8
0
 10
-347.000000
 20
-245.000031
 11
-347.000000
 21
-326.000000
  0
LINE
  8
0
 10
-47.000000
 20
-245.000107
 11
-47.000000
 21
-326.000000
  0
LINE
  8
0
 10
-347.000000
 20
-320.000000
 11
-47.000000
 21
-320.000000
  0
LINE
  8
0
 10
-54.244442
 20
-321.941132
 11
-46.999996
 21
-319.999969
  0
LINE
  8
0
 10
-347.000000
 20
-319.999969
 11
-339.755554
 21
-318.058838
  0
LINE
  8
0
 10
-347.000000
 20
-320.000000
 11
-339.755554
 21
-321.941132
  0
LINE
  8
0
 10
-54.244438
 20
-318.058838
 11
-46.999992
 21
-319.999969
  0
ARC
  8
0
 62
     5
 10
655.008484
 20
-465.668823
 40
6.635708
 50
291.688293
 51
0.000000
  0
ARC
  8
0
 62
     5
 10
652.796448
 20
-464.168060
 40
2.211920
 50
291.688660
 51
0.000000
  0
ARC
  8
0
 62
     5
 10
546.072388
 20
-470.092651
 40
4.423828
 50
0.000000
 51
90.000000
  0
ARC
  8
0
 62
     5
 10
582.568787
 20
-493.870697
 40
4.423798
 50
270.000000
 51
0.000000
  0
ARC
  8
0
 62
     5
 10
580.356750
 20
-472.304474
 40
6.635681
 50
0.000000
 51
90.000000
  0
ARC
  8
0
 62
     5
 10
620.723999
 20
-470.092651
 40
4.423828
 50
0.000000
 51
90.000000
  0
ARC
  8
0
 62
     5
 10
620.723999
 20
-473.626892
 40
4.423808
 50
294.999786
 51
0.000000
  0
CIRCLE
  8
0
 10
-494.000000
 20
-200.000000
 40
8.331000
  0
CIRCLE
  8
0
 10
100.000000
 20
-200.000137
 40
8.331000
  0
CIRCLE
  8
0
 10
-494.000000
 20
-200.000000
 40
7.475000
  0
CIRCLE
  8
0
 10
89.000000
 20
-186.000137
 40
5.000000
  0
CIRCLE
  8
0
 10
-483.000000
 20
-186.000000
 40
5.000000
  0
CIRCLE
  8
0
 10
100.000000
 20
-200.000137
 40
7.475000
  0
CIRCLE
  8
0
 10
-407.000000
 20
175.000000
 40
3.323500
  0
CIRCLE
  8
0
 10
-407.000000
 20
125.000000
 40
3.323500
  0
CIRCLE
  8
0
 10
-287.000000
 20
175.000000
 40
4.000000
  0
CIRCLE
  8
0
 10
-407.000000
 20
150.000000
 40
3.323500
  0
CIRCLE
  8
0
 10
-287.000000
 20
175.000000
 40
3.323500
  0
CIRCLE
  8
0
 10
-287.000000
 20
125.000000
 40
3.323500
  0
CIRCLE
  8
0
 10
-287.000000
 20
150.000000
 40
4.000000
  0
CIRCLE
  8
0
 10
-287.000000
 20
125.000000
 40
4.000000
  0
CIRCLE
  8
0
 10
-287.000000
 20
150.000000
 40
3.323500
  0
CIRCLE
  8
0
 10
-407.000000
 20
175.000000
 40
4.000000
  0
CIRCLE
  8
0
 10
-407.000000
 20
150.000000
 40
4.000000
  0
CIRCLE
  8
0
 10
-407.000000
 20
125.000000
 40
4.000000
  0
ARC
  8
0
 10
499.000183
 20
-183.000122
 40
10.000000
 50
270.000000
 51
0.000000
  0
ARC
  8
0
 10
500.000183
 20
-183.000122
 40
10.000000
 50
270.000000
 51
0.000000
  0
ARC
  8
0
 10
401.000183
 20
-182.999908
 40
10.000000
 50
180.000000
 51
270.000000
  0
ARC
  8
0
 10
489.083282
 20
-177.000397
 40
11.000006
 50
259.083832
 51
264.821594
  0
ARC
  8
0
 10
488.000183
 20
-188.951431
 40
1.000000
 50
0.000000
 51
84.820770
  0
ARC
  8
0
 10
412.000183
 20
-188.951279
 40
1.999999
 50
95.178322
 51
180.000000
  0
ARC
  8
0
 10
410.917084
 20
-177.000244
 40
9.999999
 50
275.178497
 51
282.023346
  0
ARC
  8
0
 10
489.083282
 20
-177.000397
 40
9.999996
 50
257.976654
 51
264.821503
  0
ARC
  8
0
 10
488.000183
 20
-188.951431
 40
2.000000
 50
0.000000
 51
84.821678
  0
ARC
  8
0
 10
413.000214
 20
-166.999939
 40
3.000000
 50
90.000000
 51
180.000000
  0
ARC
  8
0
 10
487.000214
 20
-167.000092
 40
3.000000
 50
0.000000
 51
90.000000
  0
ARC
  8
0
 10
412.800079
 20
-228.199936
 40
0.799988
 50
180.000000
 51
314.011627
  0
ARC
  8
0
 10
412.800110
 20
-209.999939
 40
0.800004
 50
75.521652
 51
180.000000
  0
ARC
  8
0
 10
413.000214
 20
-166.999939
 40
2.000000
 50
90.000000
 51
180.000000
  0
ARC
  8
0
 10
487.200104
 20
-228.200089
 40
0.799993
 50
225.981445
 51
0.000000
  0
ARC
  8
0
 10
487.200134
 20
-210.000092
 40
0.799988
 50
0.000000
 51
104.478348
  0
ARC
  8
0
 10
487.000214
 20
-167.000092
 40
2.000000
 50
0.000000
 51
90.000000
  0
ARC
  8
0
 10
467.000061
 20
-240.000046
 40
3.000000
 50
0.000000
 51
90.000000
  0
ARC
  8
0
 10
433.000061
 20
-239.999985
 40
3.000000
 50
90.000000
 51
180.000000
  0
ARC
  8
0
 10
410.917084
 20
-177.000244
 40
11.000005
 50
275.178406
 51
280.916168
  0
ARC
  8
0
 10
412.000183
 20
-188.951279
 40
1.000009
 50
95.179153
 51
180.000000
  0
CIRCLE
  8
0
 10
436.000153
 20
-199.999954
 40
8.331000
  0
CIRCLE
  8
0
 10
436.000153
 20
-199.999954
 40
7.475000
  0
CIRCLE
  8
0
 10
424.000031
 20
-225.999893
 40
4.000000
  0
CIRCLE
  8
0
 10
424.000031
 20
-225.999893
 40
3.323500
  0
CIRCLE
  8
0
 10
424.000031
 20
-225.999893
 40
8.750000
  0
CIRCLE
  8
0
 10
476.000031
 20
-226.000137
 40
8.750000
  0
CIRCLE
  8
0
 10
476.000031
 20
-226.000137
 40
4.000000
  0
CIRCLE
  8
0
 10
476.000031
 20
-226.000137
 40
3.323500
  0
CIRCLE
  8
0
 10
476.000275
 20
-174.000137
 40
3.323500
  0
CIRCLE
  8
0
 10
424.000275
 20
-173.999893
 40
4.000000
  0
CIRCLE
  8
0
 10
424.000275
 20
-173.999893
 40
3.323500
  0
CIRCLE
  8
0
 10
424.000275
 20
-173.999893
 40
8.750000
  0
CIRCLE
  8
0
 10
476.000275
 20
-174.000137
 40
8.750000
  0
CIRCLE
  8
0
 10
476.000275
 20
-174.000137
 40
4.000000
  0
CIRCLE
  8
0
 10
464.000153
 20
-200.000076
 40
7.475000
  0
CIRCLE
  8
0
 10
464.000153
 20
-200.000076
 40
8.331000
  0
ARC
  8
0
 10
424.000031
 20
-225.999893
 40
11.000000
 50
0.000000
 51
90.000000
  0
ARC
  8
0
 10
424.000031
 20
-225.999893
 40
11.000000
 50
180.000000
 51
270.000000
  0
ARC
  8
0
 10
424.000275
 20
-173.999893
 40
11.000000
 50
90.000000
 51
180.000000
  0
ARC
  8
0
 10
424.000275
 20
-173.999893
 40
11.000000
 50
270.000000
 51
0.000000
  0
ARC
  8
0
 10
476.000275
 20
-174.000137
 40
11.000000
 50
0.000000
 51
90.000000
  0
ARC
  8
0
 10
476.000275
 20
-174.000137
 40
11.000000
 50
180.000000
 51
270.000000
  0
ARC
  8
0
 10
476.000031
 20
-226.000137
 40
11.000000
 50
270.000000
 51
0.000000
  0
ARC
  8
0
 10
476.000031
 20
-226.000137
 40
11.000000
 50
90.000000
 51
180.000000
  0
CIRCLE
  8
0
 10
450.000244
 20
-151.000015
 40
11.000000
  0
ARC
  8
0
 10
394.000275
 20
-137.999893
 40
4.000000
 50
90.000000
 51
180.000000
  0
ARC
  8
0
 10
506.000275
 20
-138.000137
 40
4.000000
 50
0.000000
 51
90.000000
  0
ARC
  8
0
 10
505.000275
 20
-138.000137
 40
4.000000
 50
0.000000
 51
90.000000
  0
ARC
  8
0
 10
395.000275
 20
-137.999893
 40
4.000000
 50
90.000000
 51
180.000000
  0
ARC
  8
0
 10
400.000183
 20
-182.999908
 40
10.000000
 50
180.000000
 51
270.000000
  0
TEXT
  8
0
 10
452.676331
 20
466.216309
 40
17.000000
  1
DATE : JUN ,1991
 50
0.000000
 41
1.052631
 51
0.000000
  7
STANDARD
  0
TEXT
  8
0
 10
-692.223755
 20
463.516205
 40
20.000000
  1
RODLESS CYLINDER
 50
0.000000
 41
1.052632
 51
0.000000
  7
STANDARD
  0
TEXT
  8
0
 10
-684.357117
 20
364.914032
 40
20.000000
  1
MODEL : ORGA 50xST(300)
 50
0.000000
 41
1.052632
 51
0.000000
  7
STANDARD
  0
TEXT
  8
0
 10
-248.222214
 20
238.399994
 40
14.000000
  1
6-M8x1.25
 50
0.000000
 41
1.052632
 51
0.000000
  7
STANDARD
  0
TEXT
  8
0
 10
-58.175602
 20
-105.600014
 40
14.000000
  1
6-Rc3/8
 50
0.000000
 41
1.052632
 51
0.000000
  7
STANDARD
  0
TEXT
  8
0
 10
-240.750000
 20
-317.600006
 40
14.000000
  1
STROKE
 50
0.000000
 41
1.052632
 51
0.000000
  7
STANDARD
  0
ENDSEC
  0
EOF
