  0
SECTION
  2
HEADER
  0
ENDSEC
  0
SECTION
  2
TABLES
  0
TABLE
  2
LTYPE
 70
     4
  0
LTYPE
  2
CONTINUOUS
 70
    64
  3
Solid line
 72
    65
 73
     0
 40
0.000000
  0
LTYPE
  2
DASHED
 70
    64
  3
__ __ __ __ __ __ __ __ __ __ __ __ __ __ __
 72
    65
 73
     2
 40
3.500000
 49
2.000000
 49
-1.500000
  0
LTYPE
  2
CENTER
 70
    64
  3
____ _ ____ _ ____ _ ____ _ ____ _ ____ _ ____
 72
    65
 73
     4
 40
17.500000
 49
13.000000
 49
-1.500000
 49
1.500000
 49
-1.500000
  0
LTYPE
  2
PHANTOM
 70
    64
  3
_____ _ _ _____ _ _ _____ _ _ _____ _ _ ____  
 72
    65
 73
     6
 40
15.500000
 49
8.000000
 49
-1.500000
 49
1.500000
 49
-1.500000
 49
1.500000
 49
-1.500000
  0
LTYPE
  2
DASHED1
 70
    64
  3
__ __ __ __ __ __ __ __ __ __ __ __ __ __ __
 72
    65
 73
     2
 40
1.500000
 49
1.000000
 49
-0.500000
  0
LTYPE
  2
DASHED2
 70
    64
  3
__ __ __ __ __ __ __ __ __ __ __ __ __ __ __
 72
    65
 73
     2
 40
3.500000
 49
2.500000
 49
-1.000000
  0
LTYPE
  2
DASHED3
 70
    64
  3
__ __ __ __ __ __ __ __ __ __ __ __ __ __ __
 72
    65
 73
     2
 40
6.000000
 49
4.000000
 49
-2.000000
  0
LTYPE
  2
DASHED4
 70
    64
  3
__ __ __ __ __ __ __ __ __ __ __ __ __ __ __
 72
    65
 73
     2
 40
12.000000
 49
10.000000
 49
-2.000000
  0
LTYPE
  2
DASHED5
 70
    64
  3
__ __ __ __ __ __ __ __ __ __ __ __ __ __ __
 72
    65
 73
     2
 40
17.000000
 49
15.000000
 49
-2.000000
  0
LTYPE
  2
DASHED6
 70
    64
  3
__ __ __ __ __ __ __ __ __ __ __ __ __ __ __
 72
    65
 73
     2
 40
29.000000
 49
27.000000
 49
-2.000000
  0
LTYPE
  2
PHANTOM1
 70
    64
  3
_____ _ _ _____ _ _ _____ _ _ _____ _ _ ____  
 72
    65
 73
     6
 40
31.000000
 49
25.000000
 49
-1.500000
 49
1.000000
 49
-1.000000
 49
1.000000
 49
-1.500000
  0
LTYPE
  2
PHANTOM2
 70
    64
  3
_____ _ _ _____ _ _ _____ _ _ _____ _ _ ____  
 72
    65
 73
     6
 40
36.000000
 49
27.000000
 49
-1.500000
 49
2.500000
 49
-1.000000
 49
2.500000
 49
-1.500000
  0
LTYPE
  2
PHANTOM3
 70
    64
  3
_____ _ _ _____ _ _ _____ _ _ _____ _ _ ____  
 72
    65
 73
     6
 40
78.000000
 49
64.000000
 49
-2.000000
 49
4.000000
 49
-2.000000
 49
4.000000
 49
-2.000000
  0
LTYPE
  2
CENTER1
 70
    64
  3
____ _ ____ _ ____ _ ____ _ ____ _ ____ _ ____
 72
    65
 73
     4
 40
19.000000
 49
14.000000
 49
-1.000000
 49
3.000000
 49
-1.000000
  0
LTYPE
  2
CENTER2
 70
    64
  3
____ _ ____ _ ____ _ ____ _ ____ _ ____ _ ____
 72
    65
 73
     4
 40
28.500000
 49
25.000000
 49
-1.000000
 49
1.500000
 49
-1.000000
  0
LTYPE
  2
CENTER3
 70
    64
  3
____ _ ____ _ ____ _ ____ _ ____ _ ____ _ ____
 72
    65
 73
     4
 40
31.500000
 49
27.000000
 49
-1.000000
 49
2.500000
 49
-1.000000
  0
LTYPE
  2
CENTER4
 70
    64
  3
____ _ ____ _ ____ _ ____ _ ____ _ ____ _ ____
 72
    65
 73
     4
 40
50.000000
 49
45.000000
 49
-1.000000
 49
3.000000
 49
-1.000000
  0
LTYPE
  2
CENTER5
 70
    64
  3
____ _ ____ _ ____ _ ____ _ ____ _ ____ _ ____
 72
    65
 73
     4
 40
100.000000
 49
92.000000
 49
-2.000000
 49
4.000000
 49
-2.000000
  0
LTYPE
  2
SBK1
 70
    64
  3
______ _ _ _ ______ _ _ _ ______ _ _ _ _____  
 72
    65
 73
     8
 40
60.500000
 49
45.000000
 49
-2.000000
 49
2.500000
 49
-2.000000
 49
2.500000
 49
-2.000000
 49
2.500000
 49
-2.000000
  0
LTYPE
  2
SBK2
 70
    64
  3
______ _ _ _ ______ _ _ _ ______ _ _ _ _____  
 72
    65
 73
     8
 40
84.000000
 49
64.000000
 49
-2.000000
 49
4.000000
 49
-2.000000
 49
4.000000
 49
-2.000000
 49
4.000000
 49
-2.000000
  0
LTYPE
  2
STCH
 70
    64
  3
__ __ __ __ __ __ __ __ __ __ __ __ __ __ __
 72
    65
 73
     2
 40
3.000000
 49
1.000000
 49
-2.000000
  0
LTYPE
  2
MTCH
 70
    64
  3
_____ _ _ _____ _ _ _____ _ _ _____ _ _ ____  
 72
    65
 73
     6
 40
80.000000
 49
66.000000
 49
-2.000000
 49
4.000000
 49
-2.000000
 49
4.000000
 49
-2.000000
  0
ENDTAB
  0
TABLE
  2
LAYER
 70
     1
  0
LAYER
  2
0
 70
     0
 62
     7
  6
CONTINUOUS
  0
ENDTAB
  0
TABLE
  2
STYLE
 70
     1
  0
STYLE
  2
STANDARD
 70
     0
 40
0.000000
 41
1.000000
 50
0.000000
 71
     0
 42
0.200000
  3
txt
  4
BIGFONT
  0
ENDTAB
  0
TABLE
  2
VIEW
 70
     0
  0
ENDTAB
  0
ENDSEC
  0
SECTION
  2
BLOCKS
  0
ENDSEC
  0
SECTION
  2
ENTITIES
  0
POINT
  8
0
 10
-223.123505
 20
49.999981
  0
POINT
  8
0
 10
-223.123505
 20
164.999954
  0
POINT
  8
0
 10
-85.873650
 20
49.999966
  0
POINT
  8
0
 10
-200.873489
 20
49.999981
  0
POINT
  8
0
 10
-200.873505
 20
164.999954
  0
POINT
  8
0
 10
-72.373650
 20
49.999966
  0
POINT
  8
0
 10
162.749985
 20
160.000000
  0
POINT
  8
0
 10
162.749985
 20
44.999985
  0
POINT
  8
0
 10
290.000092
 20
44.999992
  0
POINT
  8
0
 10
190.000000
 20
44.999985
  0
POINT
  8
0
 10
189.999969
 20
160.000000
  0
POINT
  8
0
 10
307.000092
 20
44.999992
  0
POINT
  8
0
 10
-59.373558
 20
-74.558510
  0
POINT
  8
0
 10
-59.373543
 20
-204.558487
  0
POINT
  8
0
 10
109.126396
 20
-204.558487
  0
POINT
  8
0
 10
-25.873573
 20
-204.558487
  0
POINT
  8
0
 10
-25.873528
 20
-74.558510
  0
POINT
  8
0
 10
129.126373
 20
-204.558487
  0
LINE
  8
0
 62
     3
 10
218.329163
 20
-225.956436
 11
370.873566
 21
-225.956436
  0
LINE
  8
0
 62
     3
 10
-218.329163
 20
225.956390
 11
-218.329163
 21
254.558487
  0
LINE
  8
0
 62
     3
 10
-370.873566
 20
225.956390
 11
-218.329163
 21
225.956390
  0
LINE
  8
0
 62
     3
 10
-370.873566
 20
254.558487
 11
370.873566
 21
254.558487
  0
LINE
  8
0
 62
     3
 10
-370.873566
 20
-254.558487
 11
370.873566
 21
-254.558487
  0
LINE
  8
0
 62
     3
 10
370.873566
 20
254.558487
 11
370.873566
 21
-254.558487
  0
LINE
  8
0
 62
     3
 10
-370.873566
 20
-254.558487
 11
-370.873566
 21
254.558487
  0
LINE
  8
0
 62
     3
 10
218.329163
 20
-225.956436
 11
218.329163
 21
-254.558487
  0
LINE
  8
0
 62
     3
 10
218.329163
 20
254.558487
 11
218.329163
 21
225.956390
  0
LINE
  8
0
 62
     3
 10
218.329163
 20
225.956390
 11
370.873566
 21
225.956390
  0
LINE
  8
0
 62
     5
 10
258.381622
 20
-232.833740
 11
258.381622
 21
-236.151566
  0
LINE
  8
0
 62
     5
 10
258.381622
 20
-236.151566
 11
270.823547
 21
-236.151566
  0
LINE
  8
0
 62
     5
 10
258.381622
 20
-249.146469
 11
275.247345
 21
-249.146469
  0
LINE
  8
0
 62
     5
 10
258.381622
 20
-245.828644
 11
270.823547
 21
-245.828644
  0
LINE
  8
0
 62
     5
 10
258.381622
 20
-232.833740
 11
273.035400
 21
-232.833740
  0
LINE
  8
0
 62
     5
 10
270.823547
 20
-236.151566
 11
270.823547
 21
-245.828644
  0
LINE
  8
0
 62
     5
 10
275.247345
 20
-235.045654
 11
275.247345
 21
-249.146469
  0
LINE
  8
0
 62
     5
 10
258.381622
 20
-245.828644
 11
258.381622
 21
-249.146469
  0
LINE
  8
0
 62
     5
 10
293.495392
 20
-236.151566
 11
293.495392
 21
-246.934647
  0
LINE
  8
0
 62
     5
 10
277.735657
 20
-232.833740
 11
277.735657
 21
-236.151566
  0
LINE
  8
0
 62
     5
 10
293.937836
 20
-232.584961
 11
295.513824
 21
-232.584961
  0
LINE
  8
0
 62
     5
 10
293.937836
 20
-230.373016
 11
295.513824
 21
-230.373016
  0
LINE
  8
0
 62
     5
 10
295.513824
 20
-230.373016
 11
295.513824
 21
-232.584961
  0
LINE
  8
0
 62
     5
 10
293.937836
 20
-230.373016
 11
293.937836
 21
-232.584961
  0
LINE
  8
0
 62
     5
 10
293.108276
 20
-230.373016
 11
293.108276
 21
-232.584961
  0
LINE
  8
0
 62
     5
 10
282.766052
 20
-230.373016
 11
286.200897
 21
-230.373016
  0
LINE
  8
0
 62
     5
 10
285.541260
 20
-232.833466
 11
286.200562
 21
-230.372711
  0
LINE
  8
0
 62
     5
 10
282.106689
 20
-232.833710
 11
282.766022
 21
-230.372986
  0
LINE
  8
0
 62
     5
 10
285.541565
 20
-232.833740
 11
290.177551
 21
-232.833740
  0
LINE
  8
0
 62
     5
 10
284.652557
 20
-236.151566
 11
289.071625
 21
-236.151566
  0
LINE
  8
0
 62
     5
 10
286.642853
 20
-249.146469
 11
291.283569
 21
-249.146469
  0
LINE
  8
0
 62
     5
 10
285.753693
 20
-245.828583
 11
286.642731
 21
-249.146347
  0
LINE
  8
0
 62
     5
 10
285.753754
 20
-245.828644
 11
289.071625
 21
-245.828644
  0
LINE
  8
0
 62
     5
 10
281.170746
 20
-249.146637
 11
284.652679
 21
-236.151733
  0
LINE
  8
0
 62
     5
 10
277.735657
 20
-236.151566
 11
281.217682
 21
-236.151566
  0
LINE
  8
0
 62
     5
 10
277.735413
 20
-249.146210
 11
281.217468
 21
-236.151337
  0
LINE
  8
0
 62
     5
 10
277.735657
 20
-249.146469
 11
281.170593
 21
-249.146469
  0
LINE
  8
0
 62
     5
 10
277.735657
 20
-232.833740
 11
282.106689
 21
-232.833740
  0
LINE
  8
0
 62
     5
 10
289.071625
 20
-236.151566
 11
289.071625
 21
-245.828644
  0
LINE
  8
0
 62
     5
 10
291.532288
 20
-230.373016
 11
293.108276
 21
-230.373016
  0
LINE
  8
0
 62
     5
 10
291.532288
 20
-232.584961
 11
293.108276
 21
-232.584961
  0
LINE
  8
0
 62
     5
 10
291.532288
 20
-230.373016
 11
291.532288
 21
-232.584961
  0
LINE
  8
0
 62
     5
 10
301.513550
 20
-230.373016
 11
305.937286
 21
-230.373016
  0
LINE
  8
0
 62
     5
 10
308.342316
 20
-240.195053
 11
311.296204
 21
-238.817642
  0
LINE
  8
0
 62
     5
 10
305.937286
 20
-242.734406
 11
305.937286
 21
-249.146469
  0
LINE
  8
0
 62
     5
 10
301.513550
 20
-243.379044
 11
301.513550
 21
-249.146469
  0
LINE
  8
0
 62
     5
 10
305.937286
 20
-232.833740
 11
310.361115
 21
-232.833740
  0
LINE
  8
0
 62
     5
 10
305.937286
 20
-230.373016
 11
305.937286
 21
-232.833740
  0
LINE
  8
0
 62
     5
 10
301.513550
 20
-230.373016
 11
301.513550
 21
-232.833740
  0
LINE
  8
0
 62
     5
 10
312.572998
 20
-235.045654
 11
312.572998
 21
-236.812775
  0
LINE
  8
0
 62
     5
 10
308.342377
 20
-240.195038
 11
312.573395
 21
-242.168030
  0
LINE
  8
0
 62
     5
 10
305.937256
 20
-242.734329
 11
312.573059
 21
-245.828613
  0
LINE
  8
0
 62
     5
 10
296.260284
 20
-242.167801
 11
296.260284
 21
-245.828644
  0
LINE
  8
0
 62
     5
 10
296.260742
 20
-242.168167
 11
309.162567
 21
-236.151932
  0
LINE
  8
0
 62
     5
 10
296.260254
 20
-245.828598
 11
301.513580
 21
-243.378937
  0
LINE
  8
0
 62
     5
 10
312.572998
 20
-242.167801
 11
312.572998
 21
-245.828644
  0
LINE
  8
0
 62
     5
 10
296.260284
 20
-232.833740
 11
296.260284
 21
-236.151566
  0
LINE
  8
0
 62
     5
 10
301.513550
 20
-249.146469
 11
305.937286
 21
-249.146469
  0
LINE
  8
0
 62
     5
 10
296.260284
 20
-236.151566
 11
309.162079
 21
-236.151566
  0
LINE
  8
0
 62
     5
 10
296.260284
 20
-232.833740
 11
301.513550
 21
-232.833740
  0
LINE
  8
0
 62
     5
 10
327.503998
 20
-236.404739
 11
328.730042
 21
-235.917068
  0
LINE
  8
0
 62
     5
 10
327.503357
 20
-236.404404
 11
327.503357
 21
-249.146469
  0
LINE
  8
0
 62
     5
 10
323.079498
 20
-249.146469
 11
327.503357
 21
-249.146469
  0
LINE
  8
0
 62
     5
 10
313.955292
 20
-241.792511
 11
323.079376
 21
-238.163742
  0
LINE
  8
0
 62
     5
 10
313.955536
 20
-238.221954
 11
326.806152
 21
-233.111084
  0
LINE
  8
0
 62
     5
 10
323.079498
 20
-238.163773
 11
323.079498
 21
-249.146469
  0
LINE
  8
0
 62
     5
 10
327.503357
 20
-231.368408
 11
327.503357
 21
-232.083389
  0
LINE
  8
0
 62
     5
 10
330.821106
 20
-231.368408
 11
330.821106
 21
-232.833755
  0
LINE
  8
0
 62
     5
 10
313.955444
 20
-238.221893
 11
313.955444
 21
-241.792496
  0
LINE
  8
0
 62
     5
 10
327.503357
 20
-231.368408
 11
330.821106
 21
-231.368408
  0
LINE
  8
0
 10
-370.873566
 20
0.000000
 11
370.873566
 21
0.000000
  0
LINE
  8
0
 10
0.000000
 20
0.000000
 11
0.000000
 21
254.558487
  0
LINE
  8
0
  6
PHANTOM
 10
-315.873566
 20
35.000000
 11
-215.873566
 21
35.000000
  0
LINE
  8
0
  6
PHANTOM
 10
-315.873566
 20
62.000000
 11
-300.873566
 21
62.000000
  0
LINE
  8
0
  6
CENTER
 10
-265.873566
 20
30.000008
 11
-265.873566
 21
81.999969
  0
LINE
  8
0
  6
CENTER
 10
-320.873566
 20
50.000000
 11
-195.873566
 21
50.000000
  0
LINE
  8
0
  6
PHANTOM
 10
-200.873566
 20
36.500031
 11
-200.873566
 21
63.500031
  0
LINE
  8
0
  6
PHANTOM
 10
-215.873566
 20
63.500000
 11
-200.873566
 21
63.500000
  0
LINE
  8
0
  6
PHANTOM
 10
-215.873566
 20
36.500000
 11
-200.873566
 21
36.500000
  0
LINE
  8
0
  6
PHANTOM
 10
-215.873566
 20
35.000031
 11
-215.873566
 21
54.499962
  0
LINE
  8
0
  6
PHANTOM
 10
-293.873566
 20
76.999962
 11
-237.873566
 21
76.999962
  0
LINE
  8
0
  6
PHANTOM
 10
-300.873566
 20
53.499962
 11
-230.873566
 21
53.499962
  0
LINE
  8
0
  6
PHANTOM
 10
-230.873566
 20
53.499977
 11
-230.873566
 21
65.040962
  0
LINE
  8
0
  6
PHANTOM
 10
-300.873566
 20
53.499969
 11
-300.873566
 21
76.499969
  0
LINE
  8
0
  6
PHANTOM
 10
-230.873566
 20
62.000000
 11
-230.373566
 21
62.000000
  0
LINE
  8
0
  6
PHANTOM
 10
-300.873566
 20
76.499962
 11
-230.873566
 21
76.499962
  0
LINE
  8
0
  6
PHANTOM
 10
-293.873566
 20
53.499969
 11
-293.873566
 21
76.999969
  0
LINE
  8
0
  6
PHANTOM
 10
-237.873566
 20
53.499977
 11
-237.873566
 21
76.999977
  0
LINE
  8
0
  6
PHANTOM
 10
-316.582672
 20
59.999962
 11
-300.873566
 21
59.999962
  0
LINE
  8
0
  6
PHANTOM
 10
-316.991913
 20
53.999962
 11
-300.873566
 21
53.999962
  0
LINE
  8
0
  6
PHANTOM
 10
-316.711792
 20
52.499962
 11
-215.873566
 21
52.499962
  0
LINE
  8
0
  6
PHANTOM
 10
-313.972321
 20
44.299957
 11
-215.873566
 21
44.299957
  0
LINE
  8
0
  6
PHANTOM
 10
-313.984772
 20
40.599960
 11
-215.873566
 21
40.599960
  0
LINE
  8
0
  6
PHANTOM
 10
-314.357605
 20
38.683441
 11
-215.873566
 21
38.683441
  0
LINE
  8
0
  6
PHANTOM
 10
-314.586700
 20
37.899963
 11
-215.873566
 21
37.899963
  0
LINE
  8
0
  6
PHANTOM
 10
-230.873566
 20
59.999962
 11
-230.373566
 21
59.999962
  0
LINE
  8
0
  6
PHANTOM
 10
-230.873566
 20
53.999962
 11
-215.873566
 21
53.999962
  0
LINE
  8
0
  6
CENTER
 10
-320.873566
 20
164.999969
 11
-171.873566
 21
164.999969
  0
LINE
  8
0
  6
PHANTOM
 10
-200.873581
 20
151.499969
 11
-200.873581
 21
159.999969
  0
LINE
  8
0
  6
PHANTOM
 10
-215.873581
 20
178.499969
 11
-200.873581
 21
178.499969
  0
LINE
  8
0
  6
PHANTOM
 10
-215.873581
 20
151.499969
 11
-200.873581
 21
151.499969
  0
LINE
  8
0
  6
PHANTOM
 10
-315.873566
 20
152.999969
 11
-300.873566
 21
152.999969
  0
LINE
  8
0
  6
PHANTOM
 10
-315.873566
 20
176.999969
 11
-300.873566
 21
176.999969
  0
LINE
  8
0
  6
PHANTOM
 10
-314.677734
 20
160.299957
 11
-300.873566
 21
160.299957
  0
LINE
  8
0
  6
PHANTOM
 10
-317.069397
 20
169.699966
 11
-300.873566
 21
169.699966
  0
LINE
  8
0
  6
PHANTOM
 10
-300.873566
 20
186.999969
 11
-300.873566
 21
142.999969
  0
LINE
  8
0
  6
PHANTOM
 10
-293.873566
 20
187.499969
 11
-293.873566
 21
142.499969
  0
LINE
  8
0
  6
PHANTOM
 10
-237.873566
 20
187.499969
 11
-237.873566
 21
142.499969
  0
LINE
  8
0
  6
PHANTOM
 10
-230.873566
 20
186.999969
 11
-230.873566
 21
169.499969
  0
LINE
  8
0
  6
PHANTOM
 10
-293.873566
 20
187.499969
 11
-237.873566
 21
187.499969
  0
LINE
  8
0
  6
PHANTOM
 10
-293.873566
 20
142.499969
 11
-237.873566
 21
142.499969
  0
LINE
  8
0
  6
PHANTOM
 10
-300.873566
 20
142.999969
 11
-293.873566
 21
142.999969
  0
LINE
  8
0
  6
PHANTOM
 10
-300.873566
 20
186.999969
 11
-293.873566
 21
186.999969
  0
LINE
  8
0
  6
PHANTOM
 10
-237.873566
 20
142.999969
 11
-230.873566
 21
142.999969
  0
LINE
  8
0
  6
PHANTOM
 10
-237.873566
 20
186.999969
 11
-230.873566
 21
186.999969
  0
LINE
  8
0
  6
PHANTOM
 10
-230.873566
 20
176.999969
 11
-230.373596
 21
176.999969
  0
LINE
  8
0
  6
PHANTOM
 10
-230.873566
 20
152.999969
 11
-230.373596
 21
152.999969
  0
LINE
  8
0
  6
CENTER
 10
-265.873596
 20
139.499969
 11
-265.873596
 21
190.499969
  0
LINE
  8
0
  6
PHANTOM
 10
-293.873566
 20
182.499969
 11
-237.873566
 21
182.499969
  0
LINE
  8
0
  6
PHANTOM
 10
-293.873566
 20
147.499969
 11
-237.873566
 21
147.499969
  0
LINE
  8
0
  6
CENTER
 10
-85.873657
 20
29.999962
 11
-85.873657
 21
81.999962
  0
LINE
  8
0
  6
CENTER
 10
-104.373657
 20
49.999962
 11
-67.373657
 21
49.999962
  0
LINE
  8
0
  6
PHANTOM
 10
-72.373657
 20
40.999947
 11
-72.373657
 21
58.999947
  0
LINE
  8
0
  6
PHANTOM
 10
-99.373657
 20
40.999977
 11
-99.373657
 21
58.999977
  0
LINE
  8
0
  6
PHANTOM
 10
-94.873642
 20
63.499962
 11
-76.873642
 21
63.499962
  0
LINE
  8
0
  6
PHANTOM
 10
-94.873672
 20
36.499962
 11
-76.873672
 21
36.499962
  0
LINE
  8
0
  6
PHANTOM
 10
-101.373672
 20
34.999962
 11
-93.373672
 21
34.999962
  0
LINE
  8
0
  6
PHANTOM
 10
-78.373672
 20
34.999962
 11
-70.373672
 21
34.999962
  0
LINE
  8
0
  6
PHANTOM
 10
-93.373566
 20
34.999847
 11
-92.312904
 21
36.060513
  0
LINE
  8
0
  6
PHANTOM
 10
-78.373634
 20
35.000008
 11
-79.434296
 21
36.060669
  0
LINE
  8
0
  6
PHANTOM
 10
-101.373657
 20
53.999977
 11
-101.373657
 21
52.499977
  0
LINE
  8
0
  6
PHANTOM
 10
-101.373657
 20
52.499962
 11
-99.373657
 21
52.499962
  0
LINE
  8
0
  6
PHANTOM
 10
-101.373657
 20
43.899979
 11
-101.373657
 21
40.599976
  0
LINE
  8
0
  6
PHANTOM
 10
-100.073669
 20
43.099960
 11
-99.373672
 21
43.099960
  0
LINE
  8
0
  6
PHANTOM
 10
-100.573654
 20
43.899979
 11
-100.573654
 21
43.599976
  0
LINE
  8
0
  6
PHANTOM
 10
-101.373672
 20
40.599960
 11
-99.773666
 21
40.599960
  0
LINE
  8
0
  6
PHANTOM
 10
-99.373657
 20
38.683456
 11
-99.373657
 21
37.547325
  0
LINE
  8
0
  6
PHANTOM
 10
-101.373657
 20
37.899979
 11
-101.373657
 21
34.999977
  0
LINE
  8
0
  6
PHANTOM
 10
-101.373711
 20
37.899910
 11
-99.373711
 21
37.547256
  0
LINE
  8
0
  6
PHANTOM
 10
-70.373657
 20
53.999947
 11
-70.373657
 21
52.499947
  0
LINE
  8
0
  6
PHANTOM
 10
-70.373657
 20
52.499962
 11
-72.373657
 21
52.499962
  0
LINE
  8
0
  6
PHANTOM
 10
-70.373657
 20
43.899948
 11
-70.373657
 21
40.599945
  0
LINE
  8
0
  6
PHANTOM
 10
-71.673676
 20
43.099960
 11
-72.373672
 21
43.099960
  0
LINE
  8
0
  6
PHANTOM
 10
-71.173660
 20
43.899948
 11
-71.173660
 21
43.599945
  0
LINE
  8
0
  6
PHANTOM
 10
-70.373672
 20
40.599960
 11
-71.973679
 21
40.599960
  0
LINE
  8
0
  6
PHANTOM
 10
-72.373657
 20
38.683426
 11
-72.373657
 21
37.547295
  0
LINE
  8
0
  6
PHANTOM
 10
-70.373657
 20
37.899948
 11
-70.373657
 21
34.999947
  0
LINE
  8
0
  6
PHANTOM
 10
-70.373665
 20
37.899864
 11
-72.373665
 21
37.547211
  0
LINE
  8
0
  6
PHANTOM
 10
-107.373627
 20
76.499962
 11
-103.873657
 21
76.499962
  0
LINE
  8
0
  6
PHANTOM
 10
-106.373657
 20
53.499962
 11
-102.373657
 21
53.499962
  0
LINE
  8
0
  6
PHANTOM
 10
-69.373657
 20
53.499962
 11
-65.373657
 21
53.499962
  0
LINE
  8
0
  6
PHANTOM
 10
-63.373657
 20
55.499939
 11
-63.373657
 21
75.499939
  0
LINE
  8
0
  6
PHANTOM
 10
-108.373657
 20
55.499985
 11
-108.373657
 21
75.499985
  0
LINE
  8
0
  6
PHANTOM
 10
-102.373657
 20
54.499962
 11
-102.373657
 21
53.499977
  0
LINE
  8
0
  6
PHANTOM
 10
-69.373657
 20
54.499962
 11
-69.373657
 21
53.499947
  0
LINE
  8
0
  6
PHANTOM
 10
-103.373627
 20
76.999962
 11
-68.373627
 21
76.999962
  0
LINE
  8
0
  6
PHANTOM
 10
-68.373634
 20
76.999947
 11
-67.873634
 21
76.499947
  0
LINE
  8
0
  6
PHANTOM
 10
-103.373619
 20
76.999977
 11
-103.873634
 21
76.499969
  0
LINE
  8
0
  6
PHANTOM
 10
-67.873657
 20
76.499962
 11
-64.373627
 21
76.499962
  0
LINE
  8
0
  6
PHANTOM
 10
-200.873581
 20
169.999969
 11
-200.873581
 21
178.499969
  0
LINE
  8
0
  6
PHANTOM
 10
-230.873566
 20
73.999954
 11
-230.873566
 21
76.499977
  0
LINE
  8
0
  6
PHANTOM
 10
-230.873566
 20
160.540939
 11
-230.873566
 21
142.999969
  0
LINE
  8
0
  6
PHANTOM
 10
-316.978363
 20
58.098297
 11
-300.873566
 21
58.098297
  0
LINE
  8
0
  6
CENTER
 10
45.000000
 20
160.000000
 11
215.999969
 21
160.000000
  0
LINE
  8
0
  6
PHANTOM
 10
189.999969
 20
143.000000
 11
189.999969
 21
154.000000
  0
LINE
  8
0
  6
PHANTOM
 10
170.999969
 20
177.000000
 11
189.999969
 21
177.000000
  0
LINE
  8
0
  6
PHANTOM
 10
170.999969
 20
143.000000
 11
189.999969
 21
143.000000
  0
LINE
  8
0
  6
PHANTOM
 10
50.000000
 20
144.500000
 11
66.000000
 21
144.500000
  0
LINE
  8
0
  6
PHANTOM
 10
50.000000
 20
175.500000
 11
66.000000
 21
175.500000
  0
LINE
  8
0
  6
PHANTOM
 10
51.555042
 20
152.800018
 11
66.000000
 21
152.800018
  0
LINE
  8
0
  6
PHANTOM
 10
48.444958
 20
167.200012
 11
66.000000
 21
167.200012
  0
LINE
  8
0
  6
PHANTOM
 10
154.000000
 20
167.200012
 11
154.500000
 21
167.200012
  0
LINE
  8
0
  6
PHANTOM
 10
154.000000
 20
152.800018
 11
154.500000
 21
152.800018
  0
LINE
  8
0
  6
CENTER
 10
268.000000
 20
44.999969
 11
312.000000
 21
44.999969
  0
LINE
  8
0
  6
CENTER
 10
290.000000
 20
20.999977
 11
290.000000
 21
82.999969
  0
LINE
  8
0
  6
PHANTOM
 10
307.000000
 20
32.999969
 11
307.000000
 21
56.999969
  0
LINE
  8
0
  6
PHANTOM
 10
273.000000
 20
32.999969
 11
273.000000
 21
56.999969
  0
LINE
  8
0
  6
PHANTOM
 10
278.000000
 20
27.999969
 11
302.000000
 21
27.999969
  0
LINE
  8
0
  6
PHANTOM
 10
278.000000
 20
61.999969
 11
302.000000
 21
61.999969
  0
LINE
  8
0
  6
PHANTOM
 10
270.500000
 20
25.999969
 11
280.000000
 21
25.999969
  0
LINE
  8
0
  6
PHANTOM
 10
270.500000
 20
50.749969
 11
270.500000
 21
48.499969
  0
LINE
  8
0
  6
PHANTOM
 10
270.500000
 20
48.499969
 11
273.000000
 21
48.499969
  0
LINE
  8
0
  6
PHANTOM
 10
270.500000
 20
29.599968
 11
270.500000
 21
25.999969
  0
LINE
  8
0
  6
PHANTOM
 10
271.500000
 20
37.499969
 11
271.500000
 21
32.999969
  0
LINE
  8
0
  6
PHANTOM
 10
273.000000
 20
30.668602
 11
273.000000
 21
29.159157
  0
LINE
  8
0
  6
PHANTOM
 10
271.500000
 20
32.999969
 11
272.600006
 21
32.999969
  0
LINE
  8
0
  6
PHANTOM
 10
270.500000
 20
29.599976
 11
273.000000
 21
29.159159
  0
LINE
  8
0
  6
PHANTOM
 10
300.000000
 20
25.999969
 11
309.500000
 21
25.999969
  0
LINE
  8
0
  6
PHANTOM
 10
309.500000
 20
50.749969
 11
309.500000
 21
48.499969
  0
LINE
  8
0
  6
PHANTOM
 10
309.500000
 20
48.499969
 11
307.000000
 21
48.499969
  0
LINE
  8
0
  6
PHANTOM
 10
309.500000
 20
29.599968
 11
309.500000
 21
25.999969
  0
LINE
  8
0
  6
PHANTOM
 10
308.500000
 20
37.499969
 11
308.500000
 21
32.999969
  0
LINE
  8
0
  6
PHANTOM
 10
307.000000
 20
30.668602
 11
307.000000
 21
29.159157
  0
LINE
  8
0
  6
PHANTOM
 10
308.500000
 20
32.999969
 11
307.399994
 21
32.999969
  0
LINE
  8
0
  6
PHANTOM
 10
309.499969
 20
29.600084
 11
306.999939
 21
29.159269
  0
LINE
  8
0
  6
PHANTOM
 10
267.000000
 20
77.999969
 11
313.000000
 21
77.999969
  0
LINE
  8
0
  6
PHANTOM
 10
318.000000
 20
51.999969
 11
318.000000
 21
75.999969
  0
LINE
  8
0
  6
PHANTOM
 10
262.000000
 20
51.999969
 11
262.000000
 21
75.999969
  0
LINE
  8
0
  6
PHANTOM
 10
263.500000
 20
77.499969
 11
266.500000
 21
77.499969
  0
LINE
  8
0
  6
PHANTOM
 10
266.999969
 20
78.000000
 11
266.499939
 21
77.499985
  0
LINE
  8
0
  6
PHANTOM
 10
312.999969
 20
77.999908
 11
313.499939
 21
77.499939
  0
LINE
  8
0
  6
PHANTOM
 10
264.500000
 20
49.499969
 11
269.500000
 21
49.499969
  0
LINE
  8
0
  6
PHANTOM
 10
310.500000
 20
49.499969
 11
315.500000
 21
49.499969
  0
LINE
  8
0
  6
PHANTOM
 10
269.500000
 20
51.099968
 11
269.500000
 21
49.499969
  0
LINE
  8
0
  6
PHANTOM
 10
310.500000
 20
51.099968
 11
310.500000
 21
49.499969
  0
LINE
  8
0
  6
PHANTOM
 10
66.000000
 20
187.500000
 11
66.000000
 21
132.500000
  0
LINE
  8
0
  6
PHANTOM
 10
73.000000
 20
188.000000
 11
73.000000
 21
132.000000
  0
LINE
  8
0
  6
PHANTOM
 10
147.000000
 20
188.000000
 11
147.000000
 21
132.000000
  0
LINE
  8
0
  6
PHANTOM
 10
154.000000
 20
187.500000
 11
154.000000
 21
165.500000
  0
LINE
  8
0
  6
CENTER
 10
110.000000
 20
193.000000
 11
110.000000
 21
127.000008
  0
LINE
  8
0
  6
PHANTOM
 10
73.000000
 20
132.000000
 11
147.000000
 21
132.000000
  0
LINE
  8
0
  6
PHANTOM
 10
73.000000
 20
188.000000
 11
147.000000
 21
188.000000
  0
LINE
  8
0
  6
PHANTOM
 10
66.000000
 20
187.500000
 11
73.000000
 21
187.500000
  0
LINE
  8
0
  6
PHANTOM
 10
66.000000
 20
132.500000
 11
73.000000
 21
132.500000
  0
LINE
  8
0
  6
PHANTOM
 10
147.000000
 20
132.500000
 11
154.000000
 21
132.500000
  0
LINE
  8
0
  6
PHANTOM
 10
147.000000
 20
187.500000
 11
154.000000
 21
187.500000
  0
LINE
  8
0
  6
PHANTOM
 10
154.000000
 20
175.500000
 11
154.500000
 21
175.500000
  0
LINE
  8
0
  6
PHANTOM
 10
154.000000
 20
144.500000
 11
154.500000
 21
144.500000
  0
LINE
  8
0
  6
CENTER
 10
45.000000
 20
45.000000
 11
195.000000
 21
45.000000
  0
LINE
  8
0
  6
PHANTOM
 10
190.000000
 20
28.000000
 11
190.000000
 21
62.000000
  0
LINE
  8
0
  6
PHANTOM
 10
171.000000
 20
26.000000
 11
171.000000
 21
51.099968
  0
LINE
  8
0
  6
PHANTOM
 10
171.000000
 20
62.000000
 11
190.000000
 21
62.000000
  0
LINE
  8
0
  6
PHANTOM
 10
171.000000
 20
28.000000
 11
190.000000
 21
28.000000
  0
LINE
  8
0
  6
PHANTOM
 10
50.000000
 20
26.000000
 11
171.000000
 21
26.000000
  0
LINE
  8
0
  6
PHANTOM
 10
50.000000
 20
60.500000
 11
66.000000
 21
60.500000
  0
LINE
  8
0
  6
CENTER
 10
110.000000
 20
21.000008
 11
110.000000
 21
82.999969
  0
LINE
  8
0
  6
PHANTOM
 10
66.000000
 20
77.499969
 11
154.000000
 21
77.499969
  0
LINE
  8
0
  6
PHANTOM
 10
66.000000
 20
49.499969
 11
154.000000
 21
49.499969
  0
LINE
  8
0
  6
PHANTOM
 10
154.000000
 20
49.499969
 11
154.000000
 21
64.000000
  0
LINE
  8
0
  6
PHANTOM
 10
66.000000
 20
49.499969
 11
66.000000
 21
77.499969
  0
LINE
  8
0
  6
PHANTOM
 10
73.000000
 20
49.499969
 11
73.000000
 21
77.999969
  0
LINE
  8
0
  6
PHANTOM
 10
147.000000
 20
49.499969
 11
147.000000
 21
77.999969
  0
LINE
  8
0
  6
PHANTOM
 10
154.000000
 20
60.500000
 11
154.500000
 21
60.500000
  0
LINE
  8
0
  6
PHANTOM
 10
49.009636
 20
57.499969
 11
66.000000
 21
57.499969
  0
LINE
  8
0
  6
PHANTOM
 10
48.537647
 20
50.749969
 11
66.000000
 21
50.749969
  0
LINE
  8
0
  6
PHANTOM
 10
48.894180
 20
48.499969
 11
171.000000
 21
48.499969
  0
LINE
  8
0
  6
PHANTOM
 10
52.203320
 20
38.299965
 11
171.000000
 21
38.299965
  0
LINE
  8
0
  6
PHANTOM
 10
52.243416
 20
32.999969
 11
171.000000
 21
32.999969
  0
LINE
  8
0
  6
PHANTOM
 10
51.807953
 20
30.668602
 11
171.000000
 21
30.668602
  0
LINE
  8
0
  6
PHANTOM
 10
51.510220
 20
29.599968
 11
171.000000
 21
29.599968
  0
LINE
  8
0
  6
PHANTOM
 10
154.000000
 20
57.499969
 11
154.500000
 21
57.499969
  0
LINE
  8
0
  6
PHANTOM
 10
154.000000
 20
50.749969
 11
171.000000
 21
50.749969
  0
LINE
  8
0
  6
PHANTOM
 10
73.000000
 20
137.000000
 11
147.000000
 21
137.000000
  0
LINE
  8
0
  6
PHANTOM
 10
73.000000
 20
183.000000
 11
147.000000
 21
183.000000
  0
LINE
  8
0
  6
PHANTOM
 10
313.499969
 20
77.499969
 11
316.500000
 21
77.499969
  0
LINE
  8
0
  6
PHANTOM
 10
189.999969
 20
166.000000
 11
189.999969
 21
177.000000
  0
LINE
  8
0
  6
PHANTOM
 10
154.000000
 20
154.500015
 11
154.000000
 21
132.500000
  0
LINE
  8
0
  6
PHANTOM
 10
154.000000
 20
74.999954
 11
154.000000
 21
77.499969
  0
LINE
  8
0
  6
PHANTOM
 10
48.586609
 20
55.188499
 11
66.000000
 21
55.188499
  0
LINE
  8
0
  6
CENTER
 10
-200.873566
 20
-204.558487
 11
-20.873581
 21
-204.558487
  0
LINE
  8
0
  6
PHANTOM
 10
-25.873581
 20
-184.558487
 11
-25.873581
 21
-224.558487
  0
LINE
  8
0
  6
PHANTOM
 10
-48.873581
 20
-184.558487
 11
-25.873581
 21
-184.558487
  0
LINE
  8
0
  6
PHANTOM
 10
-48.873581
 20
-224.558487
 11
-25.873581
 21
-224.558487
  0
LINE
  8
0
  6
PHANTOM
 10
-195.873566
 20
-226.558487
 11
-48.873581
 21
-226.558487
  0
LINE
  8
0
  6
PHANTOM
 10
-195.873566
 20
-186.558487
 11
-178.373581
 21
-186.558487
  0
LINE
  8
0
  6
CENTER
 10
-125.873566
 20
-161.558487
 11
-125.873566
 21
-231.558502
  0
LINE
  8
0
  6
CENTER
 10
-200.873566
 20
-74.558495
 11
3.626480
 21
-74.558495
  0
LINE
  8
0
  6
PHANTOM
 10
-25.873520
 20
-54.558502
 11
-25.873520
 21
-67.558510
  0
LINE
  8
0
  6
PHANTOM
 10
-48.873520
 20
-54.558502
 11
-25.873520
 21
-54.558502
  0
LINE
  8
0
  6
PHANTOM
 10
-48.873520
 20
-94.558502
 11
-25.873520
 21
-94.558502
  0
LINE
  8
0
  6
PHANTOM
 10
-195.873566
 20
-56.558495
 11
-178.373581
 21
-56.558495
  0
LINE
  8
0
  6
PHANTOM
 10
-195.873566
 20
-92.558495
 11
-178.373581
 21
-92.558495
  0
LINE
  8
0
  6
PHANTOM
 10
-194.262253
 20
-81.758499
 11
-178.373581
 21
-81.758499
  0
LINE
  8
0
  6
PHANTOM
 10
-197.484879
 20
-67.358498
 11
-178.373581
 21
-67.358498
  0
LINE
  8
0
  6
CENTER
 10
-125.873520
 20
-37.058487
 11
-125.873520
 21
-112.058502
  0
LINE
  8
0
  6
CENTER
 10
109.126389
 20
-161.558502
 11
109.126389
 21
-231.558502
  0
LINE
  8
0
  6
CENTER
 10
84.126389
 20
-204.558502
 11
134.126373
 21
-204.558502
  0
LINE
  8
0
  6
PHANTOM
 10
89.126389
 20
-191.058502
 11
89.126389
 21
-218.058502
  0
LINE
  8
0
  6
PHANTOM
 10
129.126373
 20
-191.058502
 11
129.126373
 21
-218.058502
  0
LINE
  8
0
  6
PHANTOM
 10
95.626389
 20
-184.558502
 11
122.626373
 21
-184.558502
  0
LINE
  8
0
  6
PHANTOM
 10
95.626389
 20
-224.558502
 11
122.626373
 21
-224.558502
  0
LINE
  8
0
  6
PHANTOM
 10
-170.873581
 20
-166.558487
 11
-80.873581
 21
-166.558487
  0
LINE
  8
0
  6
PHANTOM
 10
-73.373581
 20
-167.058487
 11
-73.373581
 21
-200.558487
  0
LINE
  8
0
  6
PHANTOM
 10
-178.373581
 20
-167.058487
 11
-178.373581
 21
-200.558487
  0
LINE
  8
0
  6
PHANTOM
 10
-178.373581
 20
-167.058487
 11
-170.873581
 21
-167.058487
  0
LINE
  8
0
  6
PHANTOM
 10
-80.873581
 20
-167.058487
 11
-73.373581
 21
-167.058487
  0
LINE
  8
0
  6
PHANTOM
 10
-170.873581
 20
-166.558487
 11
-170.873581
 21
-200.558487
  0
LINE
  8
0
  6
PHANTOM
 10
-80.873581
 20
-166.558487
 11
-80.873581
 21
-200.558487
  0
LINE
  8
0
  6
PHANTOM
 10
-178.373581
 20
-200.558487
 11
-73.373581
 21
-200.558487
  0
LINE
  8
0
  6
PHANTOM
 10
-73.373581
 20
-186.558487
 11
-69.873581
 21
-186.558487
  0
LINE
  8
0
  6
PHANTOM
 10
-70.873581
 20
-169.558487
 11
-70.873581
 21
-170.558487
  0
LINE
  8
0
  6
PHANTOM
 10
-72.873581
 20
-169.558487
 11
-72.873581
 21
-183.558487
  0
LINE
  8
0
  6
PHANTOM
 10
-72.873581
 20
-169.558487
 11
-70.873581
 21
-169.558487
  0
LINE
  8
0
  6
PHANTOM
 10
-72.873581
 20
-183.558487
 11
-70.873581
 21
-183.558487
  0
LINE
  8
0
  6
PHANTOM
 10
-73.373581
 20
-181.558487
 11
-72.873581
 21
-181.558487
  0
LINE
  8
0
  6
PHANTOM
 10
-73.373581
 20
-171.558487
 11
-72.873581
 21
-171.558487
  0
LINE
  8
0
  6
CENTER
 10
-167.873581
 20
-176.558487
 11
-183.873581
 21
-176.558487
  0
LINE
  8
0
  6
PHANTOM
 10
-178.873581
 20
-169.558487
 11
-178.873581
 21
-183.558487
  0
LINE
  8
0
  6
PHANTOM
 10
-178.373581
 20
-171.558487
 11
-178.873581
 21
-171.558487
  0
LINE
  8
0
  6
PHANTOM
 10
-178.373581
 20
-181.558487
 11
-178.873581
 21
-181.558487
  0
LINE
  8
0
  6
PHANTOM
 10
-178.873581
 20
-183.558487
 11
-180.873581
 21
-183.558487
  0
LINE
  8
0
  6
PHANTOM
 10
-180.873581
 20
-169.558487
 11
-180.873581
 21
-183.558487
  0
LINE
  8
0
  6
PHANTOM
 10
-178.873581
 20
-169.558487
 11
-180.873581
 21
-169.558487
  0
LINE
  8
0
  6
PHANTOM
 10
-180.873581
 20
-67.558495
 11
-180.873581
 21
-81.558495
  0
LINE
  8
0
  6
PHANTOM
 10
-178.873581
 20
-67.558495
 11
-178.873581
 21
-81.558495
  0
LINE
  8
0
  6
PHANTOM
 10
-178.373581
 20
-42.558487
 11
-178.373581
 21
-106.558495
  0
LINE
  8
0
  6
PHANTOM
 10
-170.873581
 20
-42.058487
 11
-170.873581
 21
-107.058495
  0
LINE
  8
0
  6
PHANTOM
 10
-80.873581
 20
-42.058487
 11
-80.873581
 21
-107.058495
  0
LINE
  8
0
  6
PHANTOM
 10
-73.373581
 20
-42.558487
 11
-73.373581
 21
-106.558495
  0
LINE
  8
0
  6
PHANTOM
 10
-170.873581
 20
-107.058495
 11
-80.873581
 21
-107.058495
  0
LINE
  8
0
  6
PHANTOM
 10
-170.873581
 20
-42.058487
 11
-80.873581
 21
-42.058487
  0
LINE
  8
0
  6
PHANTOM
 10
-73.373581
 20
-92.558495
 11
-69.873581
 21
-92.558495
  0
LINE
  8
0
  6
PHANTOM
 10
-73.373581
 20
-56.558495
 11
-69.873581
 21
-56.558495
  0
LINE
  8
0
  6
PHANTOM
 10
-178.373581
 20
-42.558487
 11
-170.873581
 21
-42.558487
  0
LINE
  8
0
  6
PHANTOM
 10
-178.373581
 20
-106.558495
 11
-170.873581
 21
-106.558495
  0
LINE
  8
0
  6
PHANTOM
 10
-80.873581
 20
-106.558495
 11
-73.373581
 21
-106.558495
  0
LINE
  8
0
  6
PHANTOM
 10
-80.873581
 20
-42.558487
 11
-73.373581
 21
-42.558487
  0
LINE
  8
0
  6
PHANTOM
 10
-170.873581
 20
-99.558495
 11
-80.873581
 21
-99.558495
  0
LINE
  8
0
  6
PHANTOM
 10
-170.873581
 20
-49.558487
 11
-80.873581
 21
-49.558487
  0
LINE
  8
0
  6
PHANTOM
 10
-180.873581
 20
-67.558495
 11
-178.873581
 21
-67.558495
  0
LINE
  8
0
  6
PHANTOM
 10
-180.873581
 20
-81.558495
 11
-178.873581
 21
-81.558495
  0
LINE
  8
0
  6
PHANTOM
 10
-178.873581
 20
-79.558495
 11
-178.373581
 21
-79.558495
  0
LINE
  8
0
  6
PHANTOM
 10
-178.873581
 20
-69.558495
 11
-178.373581
 21
-69.558495
  0
LINE
  8
0
  6
PHANTOM
 10
-70.873459
 20
-81.558495
 11
-72.873459
 21
-81.558495
  0
LINE
  8
0
  6
PHANTOM
 10
-72.873459
 20
-79.558495
 11
-73.373459
 21
-79.558495
  0
LINE
  8
0
  6
PHANTOM
 10
-70.873459
 20
-67.558495
 11
-72.873459
 21
-67.558495
  0
LINE
  8
0
  6
PHANTOM
 10
-70.873459
 20
-67.558495
 11
-70.873459
 21
-68.558434
  0
LINE
  8
0
  6
PHANTOM
 10
-72.873459
 20
-67.558495
 11
-72.873459
 21
-81.558495
  0
LINE
  8
0
  6
PHANTOM
 10
-72.873459
 20
-69.558495
 11
-73.373459
 21
-69.558495
  0
LINE
  8
0
  6
PHANTOM
 10
-73.373581
 20
-67.358498
 11
-69.873581
 21
-67.358498
  0
LINE
  8
0
  6
PHANTOM
 10
-73.373581
 20
-81.758499
 11
-69.873581
 21
-81.758499
  0
LINE
  8
0
  6
PHANTOM
 10
84.126389
 20
-166.558502
 11
134.126373
 21
-166.558502
  0
LINE
  8
0
  6
PHANTOM
 10
87.126389
 20
-226.558502
 11
97.126389
 21
-226.558502
  0
LINE
  8
0
  6
PHANTOM
 10
87.126389
 20
-199.786713
 11
87.126389
 21
-202.058502
  0
LINE
  8
0
  6
PHANTOM
 10
87.126389
 20
-202.058502
 11
89.126389
 21
-202.058502
  0
LINE
  8
0
  6
PHANTOM
 10
87.126389
 20
-213.058502
 11
87.126389
 21
-217.158508
  0
LINE
  8
0
 10
88.726395
 20
-213.058502
 11
88.726395
 21
-213.058502
  0
LINE
  8
0
  6
PHANTOM
 10
87.126389
 20
-222.258514
 11
87.126389
 21
-226.558502
  0
LINE
  8
0
  6
PHANTOM
 10
90.126389
 20
-221.522614
 11
90.126389
 21
-222.787476
  0
LINE
  8
0
  6
PHANTOM
 10
87.126404
 20
-222.258484
 11
90.126404
 21
-222.787460
  0
LINE
  8
0
  6
PHANTOM
 10
131.126373
 20
-199.786713
 11
131.126373
 21
-202.058502
  0
LINE
  8
0
  6
PHANTOM
 10
131.126373
 20
-202.058502
 11
129.126373
 21
-202.058502
  0
LINE
  8
0
  6
PHANTOM
 10
131.126373
 20
-213.058502
 11
131.126373
 21
-217.158508
  0
LINE
  8
0
  6
PHANTOM
 10
131.126373
 20
-222.258514
 11
131.126373
 21
-226.558502
  0
LINE
  8
0
  6
PHANTOM
 10
128.126373
 20
-221.522614
 11
128.126373
 21
-222.787476
  0
LINE
  8
0
  6
PHANTOM
 10
131.126389
 20
-222.258438
 11
128.126373
 21
-222.787430
  0
LINE
  8
0
  6
PHANTOM
 10
121.126373
 20
-226.558502
 11
131.126373
 21
-226.558502
  0
LINE
  8
0
  6
PHANTOM
 10
141.626373
 20
-168.058502
 11
141.626373
 21
-197.558502
  0
LINE
  8
0
  6
PHANTOM
 10
76.626389
 20
-168.058502
 11
76.626389
 21
-197.558502
  0
LINE
  8
0
  6
PHANTOM
 10
77.626389
 20
-167.058502
 11
83.626389
 21
-167.058502
  0
LINE
  8
0
  6
PHANTOM
 10
84.126373
 20
-166.558487
 11
83.626373
 21
-167.058502
  0
LINE
  8
0
  6
PHANTOM
 10
134.126373
 20
-166.558517
 11
134.626373
 21
-167.058502
  0
LINE
  8
0
  6
PHANTOM
 10
79.626389
 20
-200.558502
 11
86.126389
 21
-200.558502
  0
LINE
  8
0
  6
PHANTOM
 10
86.126389
 20
-199.786713
 11
86.126389
 21
-200.558502
  0
LINE
  8
0
  6
PHANTOM
 10
132.126373
 20
-199.786713
 11
132.126373
 21
-200.558502
  0
LINE
  8
0
  6
PHANTOM
 10
132.126373
 20
-200.558502
 11
138.626373
 21
-200.558502
  0
LINE
  8
0
  6
PHANTOM
 10
-197.044662
 20
-190.558502
 11
-178.373581
 21
-190.558502
  0
LINE
  8
0
  6
PHANTOM
 10
-196.689972
 20
-202.058502
 11
-48.873581
 21
-202.058502
  0
LINE
  8
0
  6
PHANTOM
 10
-197.330994
 20
-198.858490
 11
-178.373581
 21
-198.858490
  0
LINE
  8
0
  6
PHANTOM
 10
-197.458694
 20
-193.426544
 11
-178.373581
 21
-193.426544
  0
LINE
  8
0
  6
PHANTOM
 10
-193.542267
 20
-212.258514
 11
-48.873581
 21
-212.258514
  0
LINE
  8
0
  6
PHANTOM
 10
-193.438980
 20
-217.958496
 11
-48.873581
 21
-217.958496
  0
LINE
  8
0
  6
PHANTOM
 10
-194.238037
 20
-222.258514
 11
-48.873581
 21
-222.258514
  0
LINE
  8
0
  6
PHANTOM
 10
-73.373581
 20
-190.558502
 11
-69.873581
 21
-190.558502
  0
LINE
  8
0
  6
PHANTOM
 10
-73.373581
 20
-193.426544
 11
-69.873581
 21
-193.426544
  0
LINE
  8
0
  6
PHANTOM
 10
-73.373581
 20
-198.858490
 11
-48.873581
 21
-198.858490
  0
LINE
  8
0
  6
PHANTOM
 10
134.626373
 20
-167.058502
 11
140.626373
 21
-167.058502
  0
LINE
  8
0
  6
PHANTOM
 10
-48.873581
 20
-198.358505
 11
-48.873581
 21
-226.558487
  0
LINE
  8
0
  6
PHANTOM
 10
-70.873581
 20
-182.558502
 11
-70.873581
 21
-183.558487
  0
LINE
  8
0
  6
PHANTOM
 10
-70.873459
 20
-80.558571
 11
-70.873459
 21
-81.558495
  0
LINE
  8
0
  6
PHANTOM
 10
-25.873520
 20
-81.558510
 11
-25.873520
 21
-94.558502
  0
LINE
  8
0
 10
-230.123474
 20
71.199951
 11
-224.623489
 21
71.199951
  0
LINE
  8
0
 10
-224.623550
 20
71.199936
 11
-224.923538
 21
71.499924
  0
LINE
  8
0
 10
-230.373611
 20
64.540863
 11
-230.873596
 21
65.040863
  0
LINE
  8
0
 10
-230.873474
 20
65.040939
 11
-230.373474
 21
65.040939
  0
LINE
  8
0
 10
-230.873474
 20
73.958939
 11
-230.373474
 21
73.958939
  0
LINE
  8
0
 10
-230.373550
 20
74.499992
 11
-230.873566
 21
73.999977
  0
LINE
  8
0
 10
-230.873474
 20
65.040939
 11
-230.873474
 21
73.999939
  0
LINE
  8
0
 10
-224.623489
 20
68.499939
 11
-224.623489
 21
71.199951
  0
LINE
  8
0
 10
-215.873489
 20
73.958939
 11
-179.062271
 21
73.958939
  0
LINE
  8
0
 10
-215.873489
 20
65.040939
 11
-179.062271
 21
65.040939
  0
LINE
  8
0
 10
-230.373474
 20
54.499943
 11
-215.873489
 21
54.499943
  0
LINE
  8
0
 10
-179.999313
 20
74.499939
 11
-179.999313
 21
64.499939
  0
LINE
  8
0
 10
-178.873474
 20
65.149979
 11
-179.999298
 21
64.499985
  0
LINE
  8
0
 10
-178.873520
 20
73.849937
 11
-179.999344
 21
74.499931
  0
LINE
  8
0
 10
-215.873489
 20
74.499939
 11
-179.999313
 21
74.499939
  0
LINE
  8
0
 10
-215.873489
 20
64.499939
 11
-179.999313
 21
64.499939
  0
LINE
  8
0
 10
-178.873474
 20
73.849945
 11
-178.873474
 21
65.149948
  0
LINE
  8
0
 10
-178.873474
 20
73.849945
 11
-176.873474
 21
73.849945
  0
LINE
  8
0
 10
-178.873474
 20
65.149948
 11
-176.873474
 21
65.149948
  0
LINE
  8
0
 10
-176.873474
 20
73.849945
 11
-176.873474
 21
65.149948
  0
LINE
  8
0
 10
-240.873474
 20
70.999939
 11
-230.873474
 21
70.999939
  0
LINE
  8
0
 10
-240.873474
 20
67.999939
 11
-230.873474
 21
67.999939
  0
LINE
  8
0
 10
-240.873474
 20
70.999939
 11
-240.873474
 21
67.999939
  0
LINE
  8
0
 10
-230.373474
 20
76.499939
 11
-215.873489
 21
76.499939
  0
LINE
  8
0
 10
-230.373474
 20
72.999939
 11
-215.873489
 21
72.999939
  0
LINE
  8
0
 10
-230.373474
 20
68.499939
 11
-215.873489
 21
68.499939
  0
LINE
  8
0
 10
-230.373474
 20
59.499943
 11
-215.873489
 21
59.499943
  0
LINE
  8
0
 10
-230.373474
 20
54.499943
 11
-230.373474
 21
76.499939
  0
LINE
  8
0
 10
-215.873489
 20
54.499943
 11
-215.873489
 21
76.499939
  0
LINE
  8
0
 10
-221.323486
 20
71.499939
 11
-216.423492
 21
71.499939
  0
LINE
  8
0
 10
-221.623489
 20
71.199951
 11
-216.123489
 21
71.199951
  0
LINE
  8
0
 10
-221.623489
 20
68.499939
 11
-221.623489
 21
71.199951
  0
LINE
  8
0
 10
-216.123489
 20
68.499939
 11
-216.123489
 21
71.199951
  0
LINE
  8
0
 10
-221.623535
 20
71.199974
 11
-221.323532
 21
71.499977
  0
LINE
  8
0
 10
-216.123535
 20
71.199928
 11
-216.423553
 21
71.499931
  0
LINE
  8
0
 10
-230.373474
 20
74.719101
 11
-215.873489
 21
74.719101
  0
LINE
  8
0
 10
-230.123474
 20
68.499939
 11
-230.123474
 21
71.199951
  0
LINE
  8
0
 10
-230.123520
 20
71.200005
 11
-229.823517
 21
71.499992
  0
LINE
  8
0
 10
-229.823486
 20
71.499939
 11
-224.923492
 21
71.499939
  0
LINE
  8
0
  6
CENTER
 10
-227.373474
 20
56.499943
 11
-227.373474
 21
74.499939
  0
LINE
  8
0
  6
CENTER
 10
-218.873489
 20
56.499943
 11
-218.873489
 21
74.499939
  0
LINE
  8
0
  6
CENTER
 10
-243.873474
 20
69.499939
 11
-171.873474
 21
69.499939
  0
LINE
  8
0
 10
-215.873505
 20
142.999954
 11
-215.873505
 21
186.999954
  0
LINE
  8
0
 10
-215.873505
 20
169.458954
 11
-179.062271
 21
169.458954
  0
LINE
  8
0
 10
-230.873535
 20
160.540955
 11
-230.373535
 21
160.540955
  0
LINE
  8
0
 10
-215.873505
 20
160.540955
 11
-179.062271
 21
160.540955
  0
LINE
  8
0
 10
-230.873535
 20
160.540955
 11
-230.873535
 21
169.499954
  0
LINE
  8
0
 10
-230.373611
 20
160.040939
 11
-230.873596
 21
160.540924
  0
LINE
  8
0
 10
-230.373611
 20
170.000000
 11
-230.873611
 21
169.500000
  0
LINE
  8
0
 10
-230.873535
 20
169.458954
 11
-230.373535
 21
169.458954
  0
LINE
  8
0
 10
-240.873474
 20
163.499954
 11
-230.873474
 21
163.499954
  0
LINE
  8
0
 10
-240.873474
 20
166.499954
 11
-240.873474
 21
163.499954
  0
LINE
  8
0
 10
-240.873474
 20
166.499954
 11
-230.873474
 21
166.499954
  0
LINE
  8
0
 10
-179.999313
 20
169.999954
 11
-179.999313
 21
159.999954
  0
LINE
  8
0
 10
-230.373535
 20
142.999954
 11
-230.373535
 21
186.999954
  0
LINE
  8
0
 10
-230.373535
 20
142.999954
 11
-215.873505
 21
142.999954
  0
LINE
  8
0
 10
-230.373535
 20
186.999954
 11
-215.873505
 21
186.999954
  0
LINE
  8
0
 10
-230.373535
 20
156.749954
 11
-215.873505
 21
156.749954
  0
LINE
  8
0
 10
-230.373535
 20
173.249954
 11
-215.873505
 21
173.249954
  0
LINE
  8
0
 10
-230.373535
 20
150.249954
 11
-215.873505
 21
150.249954
  0
LINE
  8
0
 10
-230.373535
 20
179.749954
 11
-215.873505
 21
179.749954
  0
LINE
  8
0
 10
-178.873596
 20
160.650055
 11
-179.999420
 21
160.000061
  0
LINE
  8
0
 10
-178.873520
 20
169.350021
 11
-179.999344
 21
170.000015
  0
LINE
  8
0
 10
-228.623535
 20
182.278290
 11
-227.373550
 21
181.556610
  0
LINE
  8
0
 10
-227.373489
 20
181.556686
 11
-226.123505
 21
182.278366
  0
LINE
  8
0
 10
-226.123535
 20
182.278259
 11
-226.123535
 21
183.721634
  0
LINE
  8
0
 10
-226.123550
 20
183.721680
 11
-227.373535
 21
184.443359
  0
LINE
  8
0
 10
-227.373642
 20
184.443604
 11
-228.623627
 21
183.721924
  0
LINE
  8
0
 10
-228.623535
 20
183.721634
 11
-228.623535
 21
182.278259
  0
LINE
  8
0
 10
-215.873505
 20
169.999954
 11
-179.999313
 21
169.999954
  0
LINE
  8
0
 10
-224.373505
 20
177.221634
 11
-224.373505
 21
175.778259
  0
LINE
  8
0
 10
-223.123581
 20
177.943558
 11
-224.373581
 21
177.221878
  0
LINE
  8
0
 10
-221.873535
 20
177.221664
 11
-223.123520
 21
177.943344
  0
LINE
  8
0
 10
-215.873505
 20
159.999954
 11
-179.999313
 21
159.999954
  0
LINE
  8
0
 10
-221.873505
 20
175.778259
 11
-221.873505
 21
177.221634
  0
LINE
  8
0
 10
-223.123505
 20
175.056610
 11
-221.873520
 21
175.778305
  0
LINE
  8
0
 10
-224.373535
 20
175.778305
 11
-223.123550
 21
175.056625
  0
LINE
  8
0
 10
-226.123352
 20
146.278015
 11
-227.373337
 21
145.556335
  0
LINE
  8
0
 10
-227.373566
 20
145.556610
 11
-228.623566
 21
146.278290
  0
LINE
  8
0
 10
-228.623535
 20
146.278259
 11
-228.623535
 21
147.721634
  0
LINE
  8
0
 10
-228.623352
 20
147.721420
 11
-227.373337
 21
148.443115
  0
LINE
  8
0
 10
-227.373505
 20
148.443344
 11
-226.123505
 21
147.721649
  0
LINE
  8
0
 10
-226.123535
 20
147.721634
 11
-226.123535
 21
146.278259
  0
LINE
  8
0
 10
-178.873489
 20
169.349960
 11
-178.873489
 21
160.649948
  0
LINE
  8
0
 10
-178.873489
 20
169.349960
 11
-176.873489
 21
169.349960
  0
LINE
  8
0
 10
-220.123367
 20
183.721481
 11
-218.873383
 21
184.443161
  0
LINE
  8
0
 10
-218.873566
 20
184.443390
 11
-217.623566
 21
183.721710
  0
LINE
  8
0
 10
-217.623505
 20
183.721634
 11
-217.623505
 21
182.278259
  0
LINE
  8
0
 10
-217.623398
 20
182.278137
 11
-218.873398
 21
181.556442
  0
LINE
  8
0
 10
-218.873581
 20
181.556625
 11
-220.123566
 21
182.278305
  0
LINE
  8
0
 10
-220.123505
 20
182.278259
 11
-220.123505
 21
183.721634
  0
LINE
  8
0
 10
-178.873489
 20
160.649948
 11
-176.873489
 21
160.649948
  0
LINE
  8
0
 10
-220.123505
 20
146.278275
 11
-218.873520
 21
145.556595
  0
LINE
  8
0
 10
-218.873611
 20
145.556686
 11
-217.623581
 21
146.278397
  0
LINE
  8
0
 10
-217.623505
 20
146.278259
 11
-217.623505
 21
147.721634
  0
LINE
  8
0
 10
-217.623474
 20
147.721619
 11
-218.873459
 21
148.443298
  0
LINE
  8
0
 10
-218.873444
 20
148.443268
 11
-220.123444
 21
147.721573
  0
LINE
  8
0
 10
-220.123505
 20
147.721634
 11
-220.123505
 21
146.278259
  0
LINE
  8
0
 10
-176.873489
 20
169.349960
 11
-176.873489
 21
160.649948
  0
LINE
  8
0
  6
CENTER
 10
-227.373535
 20
142.499954
 11
-227.373535
 21
151.499954
  0
LINE
  8
0
  6
CENTER
 10
-218.873505
 20
142.499954
 11
-218.873505
 21
151.499954
  0
LINE
  8
0
  6
CENTER
 10
-231.873535
 20
146.999954
 11
-214.373505
 21
146.999954
  0
LINE
  8
0
  6
CENTER
 10
-227.623535
 20
176.499954
 11
-218.623505
 21
176.499954
  0
LINE
  8
0
  6
CENTER
 10
-223.123505
 20
180.999954
 11
-223.123505
 21
171.999954
  0
LINE
  8
0
  6
CENTER
 10
-231.873535
 20
182.999954
 11
-214.373505
 21
182.999954
  0
LINE
  8
0
  6
CENTER
 10
-218.873505
 20
187.499954
 11
-218.873505
 21
178.499954
  0
LINE
  8
0
  6
CENTER
 10
-227.373535
 20
187.499954
 11
-227.373535
 21
178.499954
  0
LINE
  8
0
 10
-73.144157
 20
68.999969
 11
-73.144157
 21
69.999969
  0
LINE
  8
0
 10
-75.603142
 20
68.999969
 11
-75.603142
 21
69.999969
  0
LINE
  8
0
 10
-106.623650
 20
68.499969
 11
-106.623650
 21
71.199966
  0
LINE
  8
0
 10
-106.623657
 20
71.199989
 11
-106.323654
 21
71.499985
  0
LINE
  8
0
 10
-106.323647
 20
71.499969
 11
-101.423653
 21
71.499969
  0
LINE
  8
0
 10
-106.623650
 20
71.199966
 11
-101.123650
 21
71.199966
  0
LINE
  8
0
 10
-101.123657
 20
71.199959
 11
-101.423668
 21
71.499962
  0
LINE
  8
0
 10
-71.251137
 20
54.499966
 11
-65.373650
 21
54.499966
  0
LINE
  8
0
 10
-77.623650
 20
72.999969
 11
-77.623650
 21
74.062347
  0
LINE
  8
0
 10
-94.123650
 20
72.999969
 11
-94.123650
 21
74.062347
  0
LINE
  8
0
 10
-77.623650
 20
72.999969
 11
-71.623650
 21
72.999969
  0
LINE
  8
0
 10
-99.623650
 20
72.999969
 11
-94.123650
 21
72.999969
  0
LINE
  8
0
 10
-100.373650
 20
61.999966
 11
-98.227745
 21
61.999966
  0
LINE
  8
0
 10
-107.873650
 20
59.499966
 11
-106.373650
 21
59.499966
  0
LINE
  8
0
 10
-63.873650
 20
55.999966
 11
-63.873650
 21
67.499969
  0
LINE
  8
0
 10
-107.873650
 20
55.999966
 11
-107.873650
 21
67.499969
  0
LINE
  8
0
 10
-65.373650
 20
59.499966
 11
-63.873650
 21
59.499966
  0
LINE
  8
0
 10
-65.373650
 20
59.499966
 11
-65.373650
 21
61.499966
  0
LINE
  8
0
 10
-106.373650
 20
59.499966
 11
-106.373650
 21
61.499966
  0
LINE
  8
0
 10
-71.373650
 20
62.299969
 11
-66.173653
 21
62.299969
  0
LINE
  8
0
 10
-71.373650
 20
61.999966
 11
-71.373650
 21
62.299969
  0
LINE
  8
0
 10
-100.373650
 20
61.999966
 11
-100.373650
 21
62.299969
  0
LINE
  8
0
 10
-105.573647
 20
62.299969
 11
-100.373650
 21
62.299969
  0
LINE
  8
0
 10
-73.519539
 20
61.999966
 11
-71.373650
 21
61.999966
  0
LINE
  8
0
 10
-100.623650
 20
68.499969
 11
-100.623650
 21
71.999969
  0
LINE
  8
0
 10
-71.123650
 20
68.499969
 11
-71.123650
 21
68.999969
  0
LINE
  8
0
 10
-71.123650
 20
68.499969
 11
-64.873650
 21
68.499969
  0
LINE
  8
0
 10
-106.873650
 20
68.499969
 11
-100.623650
 21
68.499969
  0
LINE
  8
0
 10
-101.123650
 20
68.499969
 11
-101.123650
 21
71.199966
  0
LINE
  8
0
 10
-80.898705
 20
69.999969
 11
-71.123650
 21
69.999969
  0
LINE
  8
0
 10
-80.898705
 20
68.999969
 11
-71.123650
 21
68.999969
  0
LINE
  8
0
 10
-71.123650
 20
69.999969
 11
-71.123650
 21
71.999969
  0
LINE
  8
0
 10
-72.873650
 20
68.999969
 11
-72.873650
 21
69.999969
  0
LINE
  8
0
 10
-70.373650
 20
61.499966
 11
-65.373650
 21
61.499966
  0
LINE
  8
0
 10
-70.373650
 20
59.999966
 11
-70.373650
 21
61.499966
  0
LINE
  8
0
 10
-72.373650
 20
58.845264
 11
-70.373657
 21
59.999962
  0
LINE
  8
0
 10
-101.373650
 20
59.999966
 11
-101.373650
 21
61.499966
  0
LINE
  8
0
 10
-99.373665
 20
58.845276
 11
-101.373657
 21
59.999966
  0
LINE
  8
0
 10
-101.373650
 20
61.499966
 11
-106.373650
 21
61.499966
  0
LINE
  8
0
 10
-100.496162
 20
54.499966
 11
-106.373650
 21
54.499966
  0
LINE
  8
0
 10
-105.373650
 20
61.499966
 11
-105.373650
 21
62.299969
  0
LINE
  8
0
 10
-102.373650
 20
61.499966
 11
-102.373650
 21
62.299969
  0
LINE
  8
0
 10
-102.644157
 20
61.499966
 11
-102.644157
 21
62.299969
  0
LINE
  8
0
 10
-105.103142
 20
61.499966
 11
-105.103142
 21
62.299969
  0
LINE
  8
0
 10
-75.873650
 20
68.999969
 11
-75.873650
 21
69.999969
  0
LINE
  8
0
 10
-71.923653
 20
75.999969
 11
-76.823647
 21
75.999969
  0
LINE
  8
0
 10
-71.623650
 20
75.699966
 11
-77.123650
 21
75.699966
  0
LINE
  8
0
 10
-71.623650
 20
72.999969
 11
-71.623650
 21
75.699966
  0
LINE
  8
0
 10
-77.123650
 20
72.999969
 11
-77.123650
 21
75.699966
  0
LINE
  8
0
 10
-71.623657
 20
75.699974
 11
-71.923660
 21
75.999969
  0
LINE
  8
0
 10
-77.123672
 20
75.699974
 11
-76.823677
 21
75.999969
  0
LINE
  8
0
 10
-66.644157
 20
61.499966
 11
-66.644157
 21
62.299969
  0
LINE
  8
0
 10
-66.373650
 20
61.499966
 11
-66.373650
 21
62.299969
  0
LINE
  8
0
 10
-69.103142
 20
61.499966
 11
-69.103142
 21
62.299969
  0
LINE
  8
0
 10
-69.373650
 20
61.499966
 11
-69.373650
 21
62.299969
  0
LINE
  8
0
 10
-70.623650
 20
68.499969
 11
-70.623650
 21
71.199966
  0
LINE
  8
0
 10
-70.623680
 20
71.199982
 11
-70.323677
 21
71.499992
  0
LINE
  8
0
 10
-65.423653
 20
71.499969
 11
-70.323647
 21
71.499969
  0
LINE
  8
0
 10
-65.123650
 20
71.199966
 11
-70.623650
 21
71.199966
  0
LINE
  8
0
 10
-65.123657
 20
71.199974
 11
-65.423653
 21
71.499962
  0
LINE
  8
0
 10
-65.123650
 20
68.499969
 11
-65.123650
 21
71.199966
  0
LINE
  8
0
  6
CENTER
 10
-103.873650
 20
56.499966
 11
-103.873650
 21
74.499969
  0
LINE
  8
0
  6
CENTER
 10
-93.873650
 20
69.499969
 11
-70.123650
 21
69.499969
  0
LINE
  8
0
  6
CENTER
 10
-74.373650
 20
64.999969
 11
-74.373650
 21
78.999969
  0
LINE
  8
0
  6
CENTER
 10
-67.873650
 20
56.499966
 11
-67.873650
 21
74.499969
  0
LINE
  8
0
  6
PHANTOM
 10
73.000000
 20
77.999969
 11
147.000000
 21
77.999969
  0
LINE
  8
0
 10
209.000000
 20
64.149956
 11
209.000000
 21
74.849953
  0
LINE
  8
0
 10
209.000000
 20
64.149956
 11
211.000000
 21
64.149956
  0
LINE
  8
0
 10
209.000000
 20
74.849953
 11
211.000000
 21
74.849953
  0
LINE
  8
0
 10
153.959030
 20
74.958954
 11
154.500031
 21
74.958954
  0
LINE
  8
0
 10
142.000031
 20
70.999954
 11
154.000031
 21
70.999954
  0
LINE
  8
0
 10
142.000031
 20
67.999954
 11
154.000031
 21
67.999954
  0
LINE
  8
0
 10
142.000031
 20
70.999954
 11
142.000031
 21
67.999954
  0
LINE
  8
0
 10
154.499985
 20
63.499920
 11
153.999985
 21
63.999916
  0
LINE
  8
0
 10
154.499969
 20
75.500000
 11
153.999969
 21
74.999992
  0
LINE
  8
0
 10
154.000031
 20
74.999954
 11
154.000031
 21
63.999962
  0
LINE
  8
0
 10
171.000000
 20
63.499954
 11
208.350006
 21
63.499954
  0
LINE
  8
0
 10
171.000000
 20
64.040955
 11
208.890991
 21
64.040955
  0
LINE
  8
0
 10
171.000000
 20
74.958954
 11
208.890991
 21
74.958954
  0
LINE
  8
0
 10
171.000000
 20
75.499954
 11
208.349991
 21
75.499954
  0
LINE
  8
0
 10
208.999969
 20
64.149979
 11
208.349960
 21
63.499973
  0
LINE
  8
0
 10
208.999969
 20
74.849899
 11
208.349960
 21
75.499908
  0
LINE
  8
0
 10
154.500000
 20
57.499954
 11
171.000000
 21
57.499954
  0
LINE
  8
0
 10
154.500000
 20
68.499954
 11
171.000000
 21
68.499954
  0
LINE
  8
0
 10
154.500000
 20
72.999954
 11
171.000000
 21
72.999954
  0
LINE
  8
0
 10
154.500000
 20
77.499954
 11
171.000000
 21
77.499954
  0
LINE
  8
0
 10
154.500000
 20
75.188057
 11
171.000000
 21
75.188057
  0
LINE
  8
0
 10
154.500000
 20
51.099953
 11
154.500000
 21
77.499954
  0
LINE
  8
0
 10
171.000000
 20
51.099953
 11
171.000000
 21
77.499954
  0
LINE
  8
0
 10
154.500000
 20
51.099953
 11
171.000000
 21
51.099953
  0
LINE
  8
0
 10
164.000000
 20
68.499954
 11
164.000000
 21
72.099953
  0
LINE
  8
0
 10
164.400009
 20
72.499954
 11
170.600006
 21
72.499954
  0
LINE
  8
0
 10
164.000000
 20
72.099953
 11
171.000000
 21
72.099953
  0
LINE
  8
0
 10
164.000031
 20
72.099915
 11
164.400040
 21
72.499924
  0
LINE
  8
0
 10
171.000076
 20
72.099998
 11
170.600082
 21
72.500008
  0
LINE
  8
0
 10
154.500031
 20
72.099937
 11
154.900024
 21
72.499924
  0
LINE
  8
0
 10
154.900009
 20
72.499954
 11
161.100006
 21
72.499954
  0
LINE
  8
0
 10
154.500000
 20
72.099953
 11
161.500000
 21
72.099953
  0
LINE
  8
0
 10
153.959030
 20
64.040955
 11
154.500031
 21
64.040955
  0
LINE
  8
0
 10
161.500061
 20
72.099998
 11
161.100067
 21
72.500000
  0
LINE
  8
0
 10
161.500000
 20
68.499954
 11
161.500000
 21
72.099953
  0
LINE
  8
0
 10
211.000000
 20
64.149956
 11
211.000000
 21
74.849953
  0
LINE
  8
0
  6
CENTER
 10
158.000000
 20
52.499954
 11
158.000000
 21
75.499954
  0
LINE
  8
0
  6
CENTER
 10
167.500000
 20
52.499954
 11
167.500000
 21
75.499954
  0
LINE
  8
0
  6
CENTER
 10
139.000031
 20
69.499954
 11
215.999969
 21
69.499954
  0
LINE
  8
0
 10
170.999969
 20
132.500000
 11
170.999969
 21
187.500000
  0
LINE
  8
0
 10
166.000000
 20
138.366028
 11
166.000000
 21
136.633972
  0
LINE
  8
0
 10
167.500015
 20
139.232086
 11
166.000000
 21
138.366058
  0
LINE
  8
0
 10
170.999969
 20
166.000000
 11
208.349960
 21
166.000000
  0
LINE
  8
0
 10
208.999954
 20
154.650040
 11
208.349945
 21
154.000031
  0
LINE
  8
0
 10
208.999893
 20
165.349930
 11
208.349899
 21
165.999924
  0
LINE
  8
0
 10
153.959000
 20
154.541016
 11
154.500000
 21
154.541016
  0
LINE
  8
0
 10
153.959000
 20
165.459015
 11
154.500000
 21
165.459015
  0
LINE
  8
0
 10
208.999969
 20
165.350006
 11
210.999969
 21
165.350006
  0
LINE
  8
0
 10
208.999969
 20
154.650009
 11
210.999969
 21
154.650009
  0
LINE
  8
0
 10
208.999969
 20
154.650009
 11
208.999969
 21
165.350006
  0
LINE
  8
0
 10
210.999969
 20
154.650009
 11
210.999969
 21
165.350006
  0
LINE
  8
0
 10
170.999969
 20
165.459015
 11
208.890961
 21
165.459015
  0
LINE
  8
0
 10
154.000000
 20
165.500000
 11
154.000000
 21
154.500015
  0
LINE
  8
0
 10
154.500000
 20
187.500000
 11
154.500000
 21
132.500000
  0
LINE
  8
0
 10
154.500000
 20
187.500000
 11
170.999969
 21
187.500000
  0
LINE
  8
0
 10
154.500000
 20
132.500000
 11
170.999969
 21
132.500000
  0
LINE
  8
0
 10
154.500000
 20
149.500000
 11
170.999969
 21
149.500000
  0
LINE
  8
0
 10
154.500000
 20
170.500000
 11
170.999969
 21
170.500000
  0
LINE
  8
0
 10
154.500000
 20
178.500000
 11
170.999969
 21
178.500000
  0
LINE
  8
0
 10
166.000031
 20
136.634033
 11
167.500031
 21
135.768005
  0
LINE
  8
0
 10
170.999969
 20
154.000000
 11
208.349976
 21
154.000000
  0
LINE
  8
0
 10
154.499985
 20
165.999985
 11
153.999985
 21
165.499985
  0
LINE
  8
0
 10
161.249969
 20
175.366043
 11
162.749969
 21
176.232071
  0
LINE
  8
0
 10
162.750107
 20
176.232269
 11
164.250107
 21
175.366241
  0
LINE
  8
0
 10
164.249985
 20
175.366028
 11
164.249985
 21
173.633972
  0
LINE
  8
0
 10
164.249985
 20
173.633987
 11
162.749985
 21
172.767960
  0
LINE
  8
0
 10
162.749985
 20
172.767960
 11
161.249969
 21
173.633987
  0
LINE
  8
0
 10
161.249985
 20
173.633972
 11
161.249985
 21
175.366028
  0
LINE
  8
0
 10
158.000015
 20
139.232101
 11
156.500000
 21
138.366074
  0
LINE
  8
0
 10
156.500000
 20
138.366028
 11
156.500000
 21
136.633972
  0
LINE
  8
0
 10
156.500000
 20
136.634003
 11
158.000000
 21
135.767975
  0
LINE
  8
0
 10
158.000000
 20
135.767990
 11
159.499985
 21
136.634003
  0
LINE
  8
0
 10
159.500046
 20
138.366104
 11
158.000031
 21
139.232132
  0
LINE
  8
0
 10
159.500000
 20
136.633972
 11
159.500000
 21
138.366028
  0
LINE
  8
0
 10
154.499954
 20
153.999954
 11
153.999954
 21
154.499954
  0
LINE
  8
0
 10
170.999969
 20
154.541016
 11
208.890961
 21
154.541016
  0
LINE
  8
0
 10
142.000000
 20
161.500000
 11
142.000000
 21
158.500000
  0
LINE
  8
0
 10
166.000015
 20
183.366013
 11
167.500031
 21
184.232040
  0
LINE
  8
0
 10
167.499924
 20
184.231949
 11
168.999924
 21
183.365921
  0
LINE
  8
0
 10
169.000000
 20
183.366028
 11
169.000000
 21
181.633972
  0
LINE
  8
0
 10
169.000046
 20
181.633942
 11
167.500046
 21
180.767914
  0
LINE
  8
0
 10
167.499908
 20
180.767807
 11
165.999893
 21
181.633835
  0
LINE
  8
0
 10
166.000000
 20
181.633972
 11
166.000000
 21
183.366028
  0
LINE
  8
0
 10
158.000000
 20
180.767929
 11
156.500000
 21
181.633957
  0
LINE
  8
0
 10
156.500000
 20
181.633972
 11
156.500000
 21
183.366028
  0
LINE
  8
0
 10
156.500000
 20
183.366028
 11
158.000000
 21
184.232056
  0
LINE
  8
0
 10
157.999985
 20
184.232056
 11
159.499985
 21
183.366028
  0
LINE
  8
0
 10
159.500015
 20
181.633987
 11
158.000015
 21
180.767960
  0
LINE
  8
0
 10
159.500000
 20
183.366028
 11
159.500000
 21
181.633972
  0
LINE
  8
0
 10
142.000000
 20
158.500000
 11
154.000000
 21
158.500000
  0
LINE
  8
0
 10
142.000000
 20
161.500000
 11
154.000000
 21
161.500000
  0
LINE
  8
0
 10
169.000031
 20
138.366074
 11
167.500031
 21
139.232101
  0
LINE
  8
0
 10
169.000000
 20
136.633972
 11
169.000000
 21
138.366028
  0
LINE
  8
0
 10
167.500015
 20
135.767975
 11
169.000031
 21
136.634003
  0
LINE
  8
0
 10
154.500000
 20
141.500000
 11
170.999969
 21
141.500000
  0
LINE
  8
0
  6
CENTER
 10
158.000000
 20
143.000000
 11
158.000000
 21
132.000000
  0
LINE
  8
0
  6
CENTER
 10
167.500000
 20
143.000000
 11
167.500000
 21
132.000000
  0
LINE
  8
0
  6
CENTER
 10
152.500000
 20
137.500000
 11
173.000000
 21
137.500000
  0
LINE
  8
0
  6
CENTER
 10
162.749985
 20
169.000000
 11
162.749985
 21
180.000000
  0
LINE
  8
0
  6
CENTER
 10
157.249985
 20
174.500000
 11
168.249985
 21
174.500000
  0
LINE
  8
0
  6
CENTER
 10
158.000000
 20
177.000000
 11
158.000000
 21
188.000000
  0
LINE
  8
0
  6
CENTER
 10
167.500000
 20
177.000000
 11
167.500000
 21
188.000000
  0
LINE
  8
0
  6
CENTER
 10
152.500000
 20
182.500000
 11
173.000000
 21
182.500000
  0
LINE
  8
0
 10
271.500092
 20
60.499992
 11
274.429382
 21
60.499992
  0
LINE
  8
0
 10
309.500092
 20
59.999992
 11
309.500092
 21
57.499992
  0
LINE
  8
0
 10
309.500122
 20
57.499935
 11
307.000122
 21
56.056561
  0
LINE
  8
0
 10
305.570801
 20
60.499992
 11
308.500092
 21
60.499992
  0
LINE
  8
0
 10
302.500092
 20
68.999992
 11
302.500092
 21
69.999992
  0
LINE
  8
0
 10
306.500092
 20
68.999992
 11
306.500092
 21
69.999992
  0
LINE
  8
0
 10
306.121094
 20
68.999992
 11
306.121094
 21
69.999992
  0
LINE
  8
0
 10
302.879089
 20
68.999992
 11
302.879089
 21
69.999992
  0
LINE
  8
0
 10
264.000092
 20
68.499992
 11
264.000092
 21
72.099991
  0
LINE
  8
0
 10
264.000153
 20
72.099937
 11
264.400146
 21
72.499931
  0
LINE
  8
0
 10
264.400085
 20
72.499992
 11
270.600098
 21
72.499992
  0
LINE
  8
0
 10
264.000092
 20
72.099991
 11
271.000092
 21
72.099991
  0
LINE
  8
0
 10
271.000092
 20
68.499992
 11
271.000092
 21
72.099991
  0
LINE
  8
0
 10
271.000153
 20
72.100075
 11
270.600159
 21
72.500084
  0
LINE
  8
0
 10
279.500092
 20
72.999992
 11
279.500092
 21
74.539734
  0
LINE
  8
0
 10
300.500092
 20
72.999992
 11
300.500092
 21
74.539734
  0
LINE
  8
0
 10
272.500092
 20
72.999992
 11
279.500092
 21
72.999992
  0
LINE
  8
0
 10
300.500092
 20
72.999992
 11
308.000092
 21
72.999992
  0
LINE
  8
0
 10
262.500092
 20
57.499992
 11
264.500092
 21
57.499992
  0
LINE
  8
0
 10
262.500092
 20
53.099991
 11
262.500092
 21
67.499992
  0
LINE
  8
0
 10
317.500092
 20
53.099991
 11
317.500092
 21
67.499992
  0
LINE
  8
0
 10
315.500092
 20
57.499992
 11
317.500092
 21
57.499992
  0
LINE
  8
0
 10
315.500092
 20
57.499992
 11
315.500092
 21
60.799995
  0
LINE
  8
0
 10
264.500092
 20
57.499992
 11
264.500092
 21
60.799995
  0
LINE
  8
0
 10
264.500092
 20
60.799995
 11
271.500092
 21
60.799995
  0
LINE
  8
0
 10
308.500092
 20
60.799995
 11
315.500092
 21
60.799995
  0
LINE
  8
0
 10
308.500092
 20
60.499992
 11
308.500092
 21
60.799995
  0
LINE
  8
0
 10
271.500092
 20
60.499992
 11
271.500092
 21
60.799995
  0
LINE
  8
0
 10
308.500092
 20
68.499992
 11
316.500092
 21
68.499992
  0
LINE
  8
0
 10
263.500092
 20
68.499992
 11
271.500092
 21
68.499992
  0
LINE
  8
0
 10
308.500092
 20
68.499992
 11
308.500092
 21
68.999992
  0
LINE
  8
0
 10
271.500092
 20
68.499992
 11
271.500092
 21
71.999992
  0
LINE
  8
0
 10
295.979218
 20
69.999992
 11
308.500092
 21
69.999992
  0
LINE
  8
0
 10
295.979218
 20
68.999992
 11
308.500092
 21
68.999992
  0
LINE
  8
0
 10
308.500092
 20
69.999992
 11
308.500092
 21
71.999992
  0
LINE
  8
0
 10
316.000153
 20
72.100060
 11
315.600159
 21
72.500053
  0
LINE
  8
0
 10
309.500092
 20
59.999992
 11
315.500092
 21
59.999992
  0
LINE
  8
0
 10
309.500092
 20
51.099991
 11
315.500092
 21
51.099991
  0
LINE
  8
0
 10
270.500092
 20
51.099991
 11
264.500092
 21
51.099991
  0
LINE
  8
0
 10
270.500092
 20
59.999992
 11
264.500092
 21
59.999992
  0
LINE
  8
0
 10
270.500092
 20
59.999992
 11
270.500092
 21
57.499992
  0
LINE
  8
0
 10
270.500092
 20
57.499989
 11
273.000122
 21
56.056602
  0
LINE
  8
0
 10
269.500092
 20
59.999992
 11
269.500092
 21
60.799995
  0
LINE
  8
0
 10
265.500092
 20
59.999992
 11
265.500092
 21
60.799995
  0
LINE
  8
0
 10
269.121094
 20
59.999992
 11
269.121094
 21
60.799995
  0
LINE
  8
0
 10
265.879089
 20
59.999992
 11
265.879089
 21
60.799995
  0
LINE
  8
0
 10
308.000092
 20
72.999992
 11
308.000092
 21
76.599991
  0
LINE
  8
0
 10
308.000153
 20
76.600021
 11
307.600128
 21
77.000031
  0
LINE
  8
0
 10
307.600067
 20
76.999992
 11
301.400085
 21
76.999992
  0
LINE
  8
0
 10
308.000092
 20
76.599991
 11
301.000092
 21
76.599991
  0
LINE
  8
0
 10
316.000092
 20
68.499992
 11
316.000092
 21
72.099991
  0
LINE
  8
0
 10
301.000092
 20
72.999992
 11
301.000092
 21
76.599991
  0
LINE
  8
0
 10
300.999939
 20
76.600029
 11
301.399994
 21
77.000061
  0
LINE
  8
0
 10
314.500092
 20
59.999992
 11
314.500092
 21
60.799995
  0
LINE
  8
0
 10
314.121094
 20
59.999992
 11
314.121094
 21
60.799995
  0
LINE
  8
0
 10
310.879089
 20
59.999992
 11
310.879089
 21
60.799995
  0
LINE
  8
0
 10
310.500092
 20
59.999992
 11
310.500092
 21
60.799995
  0
LINE
  8
0
 10
309.000092
 20
68.499992
 11
309.000092
 21
72.099991
  0
LINE
  8
0
 10
316.000092
 20
72.099991
 11
309.000092
 21
72.099991
  0
LINE
  8
0
 10
309.000061
 20
72.100021
 11
309.400055
 21
72.500015
  0
LINE
  8
0
 10
315.600067
 20
72.499992
 11
309.400085
 21
72.499992
  0
LINE
  8
0
  6
CENTER
 10
267.500092
 20
52.499992
 11
267.500092
 21
75.499992
  0
LINE
  8
0
  6
CENTER
 10
281.000092
 20
69.499992
 11
309.500092
 21
69.499992
  0
LINE
  8
0
  6
CENTER
 10
304.500092
 20
62.999992
 11
304.500092
 21
79.999992
  0
LINE
  8
0
  6
CENTER
 10
312.500092
 20
52.499992
 11
312.500092
 21
75.499992
  0
LINE
  8
0
 10
-69.123573
 20
-173.058502
 11
-60.623573
 21
-173.058502
  0
LINE
  8
0
 10
-60.623550
 20
-173.058472
 11
-61.123550
 21
-172.558472
  0
LINE
  8
0
 10
-70.685570
 20
-182.746506
 11
-69.873573
 21
-182.746506
  0
LINE
  8
0
 10
-69.873558
 20
-183.558472
 11
-70.873543
 21
-182.558472
  0
LINE
  8
0
 10
-48.873573
 20
-167.058502
 11
-48.873573
 21
-198.358505
  0
LINE
  8
0
 10
-70.685577
 20
-170.370499
 11
-69.873573
 21
-170.370499
  0
LINE
  8
0
 10
-69.873573
 20
-169.558472
 11
-70.873581
 21
-170.558472
  0
LINE
  8
0
 10
-82.373566
 20
-179.058487
 11
-82.873566
 21
-178.558487
  0
LINE
  8
0
 10
-82.873573
 20
-174.558487
 11
-82.873573
 21
-178.558487
  0
LINE
  8
0
 10
-82.373581
 20
-174.058487
 11
-82.873581
 21
-174.558487
  0
LINE
  8
0
 10
-82.373573
 20
-174.058487
 11
-82.373573
 21
-179.058487
  0
LINE
  8
0
 10
-82.373573
 20
-179.058487
 11
-70.873573
 21
-179.058487
  0
LINE
  8
0
 10
-70.873573
 20
-170.558487
 11
-70.873573
 21
-182.558502
  0
LINE
  8
0
 10
-82.373573
 20
-174.058487
 11
-70.873573
 21
-174.058487
  0
LINE
  8
0
 10
-48.873573
 20
-182.746506
 11
-4.561592
 21
-182.746506
  0
LINE
  8
0
 10
-48.873573
 20
-170.370499
 11
-4.561562
 21
-170.370499
  0
LINE
  8
0
 10
-48.873573
 20
-169.558502
 11
-5.373558
 21
-169.558502
  0
LINE
  8
0
 10
-5.373558
 20
-169.558502
 11
-5.373558
 21
-183.558502
  0
LINE
  8
0
 10
-4.373641
 20
-182.558380
 11
-5.373646
 21
-183.558395
  0
LINE
  8
0
 10
-4.373578
 20
-170.558502
 11
-5.373568
 21
-169.558517
  0
LINE
  8
0
 10
-4.373573
 20
-182.558487
 11
-1.373573
 21
-182.558487
  0
LINE
  8
0
 10
-4.373573
 20
-170.558487
 11
-1.373573
 21
-170.558487
  0
LINE
  8
0
 10
-4.373573
 20
-170.558487
 11
-4.373573
 21
-182.558487
  0
LINE
  8
0
 10
-1.373573
 20
-170.558487
 11
-1.373573
 21
-182.558487
  0
LINE
  8
0
 10
-69.873573
 20
-167.058502
 11
-48.873573
 21
-167.058502
  0
LINE
  8
0
 10
-69.873573
 20
-169.370392
 11
-48.873573
 21
-169.370392
  0
LINE
  8
0
 10
-69.873573
 20
-172.558502
 11
-48.873573
 21
-172.558502
  0
LINE
  8
0
 10
-69.873573
 20
-177.558502
 11
-48.873573
 21
-177.558502
  0
LINE
  8
0
 10
-69.873573
 20
-190.058502
 11
-48.873573
 21
-190.058502
  0
LINE
  8
0
 10
-48.873573
 20
-183.558502
 11
-5.373573
 21
-183.558502
  0
LINE
  8
0
 10
-69.873573
 20
-167.058502
 11
-69.873573
 21
-198.358505
  0
LINE
  8
0
 10
-60.623573
 20
-173.058502
 11
-60.623573
 21
-177.558502
  0
LINE
  8
0
 10
-69.873573
 20
-198.358505
 11
-48.873573
 21
-198.358505
  0
LINE
  8
0
 10
-58.123573
 20
-173.058502
 11
-49.623573
 21
-173.058502
  0
LINE
  8
0
 10
-58.123573
 20
-173.058502
 11
-58.123573
 21
-177.558502
  0
LINE
  8
0
 10
-49.623573
 20
-173.058502
 11
-49.623573
 21
-177.558502
  0
LINE
  8
0
 10
-58.123592
 20
-173.058502
 11
-57.623581
 21
-172.558487
  0
LINE
  8
0
 10
-49.623566
 20
-173.058487
 11
-50.123566
 21
-172.558487
  0
LINE
  8
0
 10
-69.123573
 20
-173.058502
 11
-69.123573
 21
-177.558502
  0
LINE
  8
0
 10
-69.123596
 20
-173.058487
 11
-68.623589
 21
-172.558487
  0
LINE
  8
0
  6
CENTER
 10
-64.873573
 20
-169.558502
 11
-64.873573
 21
-197.558502
  0
LINE
  8
0
  6
CENTER
 10
-53.873573
 20
-169.558502
 11
-53.873573
 21
-197.558502
  0
LINE
  8
0
  6
CENTER
 10
-85.873573
 20
-176.558487
 11
1.626427
 21
-176.558487
  0
LINE
  8
0
 10
-48.873528
 20
-42.558502
 11
-48.873528
 21
-106.558510
  0
LINE
  8
0
 10
-53.873535
 20
-51.367897
 11
-51.873550
 21
-50.213203
  0
LINE
  8
0
 10
-51.873528
 20
-50.213211
 11
-51.873528
 21
-47.903809
  0
LINE
  8
0
 10
-51.873558
 20
-47.903824
 11
-53.873558
 21
-46.749123
  0
LINE
  8
0
 10
-53.873539
 20
-46.749104
 11
-55.873528
 21
-47.903797
  0
LINE
  8
0
 10
-82.373505
 20
-77.058495
 11
-82.873512
 21
-76.558495
  0
LINE
  8
0
 10
-82.373512
 20
-72.058495
 11
-82.873512
 21
-72.558495
  0
LINE
  8
0
 10
-82.373528
 20
-72.058510
 11
-82.373528
 21
-77.058510
  0
LINE
  8
0
 10
-82.873528
 20
-72.558510
 11
-82.873528
 21
-76.558510
  0
LINE
  8
0
 10
-82.373528
 20
-72.058510
 11
-70.873528
 21
-72.058510
  0
LINE
  8
0
 10
-82.373528
 20
-77.058510
 11
-70.873528
 21
-77.058510
  0
LINE
  8
0
 10
-70.873528
 20
-68.558510
 11
-70.873528
 21
-80.558525
  0
LINE
  8
0
 10
-69.873528
 20
-67.558510
 11
-70.873528
 21
-68.558510
  0
LINE
  8
0
 10
-69.873535
 20
-81.558533
 11
-70.873535
 21
-80.558533
  0
LINE
  8
0
 10
-48.873528
 20
-81.558525
 11
-5.373528
 21
-81.558525
  0
LINE
  8
0
 10
-48.873528
 20
-80.746529
 11
-4.561546
 21
-80.746529
  0
LINE
  8
0
 10
-48.873528
 20
-68.370522
 11
-4.561516
 21
-68.370522
  0
LINE
  8
0
 10
-48.873528
 20
-67.558525
 11
-5.373512
 21
-67.558525
  0
LINE
  8
0
 10
-5.373512
 20
-67.558525
 11
-5.373512
 21
-81.558525
  0
LINE
  8
0
 10
-4.373570
 20
-80.558434
 11
-5.373574
 21
-81.558456
  0
LINE
  8
0
 10
-69.873589
 20
-42.558502
 11
-69.873589
 21
-106.558510
  0
LINE
  8
0
 10
-69.873589
 20
-106.558510
 11
-48.873528
 21
-106.558510
  0
LINE
  8
0
 10
-69.873589
 20
-42.558502
 11
-48.873528
 21
-42.558502
  0
LINE
  8
0
 10
-69.873589
 20
-85.058510
 11
-48.873528
 21
-85.058510
  0
LINE
  8
0
 10
-69.873589
 20
-64.058510
 11
-48.873528
 21
-64.058510
  0
LINE
  8
0
 10
-69.873589
 20
-95.058510
 11
-48.873528
 21
-95.058510
  0
LINE
  8
0
 10
-69.873589
 20
-54.058502
 11
-48.873528
 21
-54.058502
  0
LINE
  8
0
 10
-4.373516
 20
-68.558517
 11
-5.373506
 21
-67.558525
  0
LINE
  8
0
 10
-70.685524
 20
-80.746529
 11
-69.873528
 21
-80.746529
  0
LINE
  8
0
 10
-70.685532
 20
-68.370522
 11
-69.873528
 21
-68.370522
  0
LINE
  8
0
 10
-61.373554
 20
-60.213211
 11
-59.373550
 21
-61.367912
  0
LINE
  8
0
 10
-59.373569
 20
-61.367928
 11
-57.373558
 21
-60.213219
  0
LINE
  8
0
 10
-57.373573
 20
-60.213211
 11
-57.373573
 21
-57.903809
  0
LINE
  8
0
 10
-57.373562
 20
-57.903816
 11
-59.373562
 21
-56.749115
  0
LINE
  8
0
 10
-59.373550
 20
-56.749134
 11
-61.373566
 21
-57.903843
  0
LINE
  8
0
 10
-61.373558
 20
-57.903809
 11
-61.373558
 21
-60.213211
  0
LINE
  8
0
 10
-62.873608
 20
-98.903824
 11
-64.873611
 21
-97.749123
  0
LINE
  8
0
 10
-64.873589
 20
-97.749161
 11
-66.873581
 21
-98.903854
  0
LINE
  8
0
 10
-66.873589
 20
-98.903809
 11
-66.873589
 21
-101.213211
  0
LINE
  8
0
 10
-66.873596
 20
-101.213234
 11
-64.873596
 21
-102.367935
  0
LINE
  8
0
 10
-64.873596
 20
-102.367920
 11
-62.873604
 21
-101.213226
  0
LINE
  8
0
 10
-62.873604
 20
-101.213211
 11
-62.873604
 21
-98.903809
  0
LINE
  8
0
 10
-4.373528
 20
-80.558510
 11
-1.373528
 21
-80.558510
  0
LINE
  8
0
 10
-4.373528
 20
-68.558510
 11
-1.373528
 21
-68.558510
  0
LINE
  8
0
 10
-55.873531
 20
-98.903801
 11
-53.873531
 21
-97.749100
  0
LINE
  8
0
 10
-53.873531
 20
-97.749100
 11
-51.873531
 21
-98.903801
  0
LINE
  8
0
 10
-51.873528
 20
-98.903809
 11
-51.873528
 21
-101.213211
  0
LINE
  8
0
 10
-51.873554
 20
-101.213188
 11
-53.873554
 21
-102.367889
  0
LINE
  8
0
 10
-53.873512
 20
-102.367905
 11
-55.873516
 21
-101.213203
  0
LINE
  8
0
 10
-55.873512
 20
-101.213211
 11
-55.873512
 21
-98.903809
  0
LINE
  8
0
 10
-4.373528
 20
-68.558510
 11
-4.373528
 21
-80.558510
  0
LINE
  8
0
 10
-1.373528
 20
-68.558510
 11
-1.373528
 21
-80.558510
  0
LINE
  8
0
 10
-62.873573
 20
-50.213184
 11
-64.873589
 21
-51.367893
  0
LINE
  8
0
 10
-64.873581
 20
-51.367893
 11
-66.873581
 21
-50.213192
  0
LINE
  8
0
 10
-66.873589
 20
-50.213211
 11
-66.873589
 21
-47.903809
  0
LINE
  8
0
 10
-66.873581
 20
-47.903805
 11
-64.873581
 21
-46.749104
  0
LINE
  8
0
 10
-64.873581
 20
-46.749107
 11
-62.873585
 21
-47.903805
  0
LINE
  8
0
 10
-62.873604
 20
-47.903809
 11
-62.873604
 21
-50.213211
  0
LINE
  8
0
 10
-55.873512
 20
-47.903809
 11
-55.873512
 21
-50.213211
  0
LINE
  8
0
 10
-55.873535
 20
-50.213196
 11
-53.873535
 21
-51.367897
  0
LINE
  8
0
  6
CENTER
 10
-64.873589
 20
-92.558510
 11
-64.873589
 21
-107.558510
  0
LINE
  8
0
  6
CENTER
 10
-53.873589
 20
-92.558510
 11
-53.873589
 21
-107.558510
  0
LINE
  8
0
  6
CENTER
 10
-72.373589
 20
-100.058510
 11
-46.373589
 21
-100.058510
  0
LINE
  8
0
  6
CENTER
 10
-64.873589
 20
-56.558510
 11
-64.873589
 21
-41.558502
  0
LINE
  8
0
  6
CENTER
 10
-53.873589
 20
-56.558510
 11
-53.873589
 21
-41.558502
  0
LINE
  8
0
  6
CENTER
 10
-72.373589
 20
-49.058502
 11
-46.373589
 21
-49.058502
  0
LINE
  8
0
  6
CENTER
 10
-66.873558
 20
-59.058510
 11
-51.873558
 21
-59.058510
  0
LINE
  8
0
  6
CENTER
 10
-59.373558
 20
-51.558502
 11
-59.373558
 21
-66.558510
  0
LINE
  8
0
 10
79.626396
 20
-186.558487
 11
90.935982
 21
-186.558487
  0
LINE
  8
0
 10
87.126396
 20
-187.058487
 11
87.126396
 21
-190.558487
  0
LINE
  8
0
 10
87.126434
 20
-190.558487
 11
89.126419
 21
-191.713181
  0
LINE
  8
0
 10
131.126373
 20
-187.058487
 11
131.126373
 21
-190.558487
  0
LINE
  8
0
 10
131.126389
 20
-190.558533
 11
129.126404
 21
-191.713226
  0
LINE
  8
0
 10
127.316811
 20
-186.558487
 11
138.626373
 21
-186.558487
  0
LINE
  8
0
 10
138.876373
 20
-173.058487
 11
138.876373
 21
-177.558487
  0
LINE
  8
0
 10
127.126381
 20
-176.058487
 11
127.126381
 21
-177.058487
  0
LINE
  8
0
 10
122.126381
 20
-176.058487
 11
122.126381
 21
-177.058487
  0
LINE
  8
0
 10
126.693398
 20
-176.058487
 11
126.693398
 21
-177.058487
  0
LINE
  8
0
 10
122.559395
 20
-176.058487
 11
122.559395
 21
-177.058487
  0
LINE
  8
0
 10
79.376396
 20
-173.058487
 11
79.376396
 21
-177.558487
  0
LINE
  8
0
 10
79.376389
 20
-173.058487
 11
79.876373
 21
-172.558502
  0
LINE
  8
0
 10
79.876396
 20
-172.558487
 11
87.376396
 21
-172.558487
  0
LINE
  8
0
 10
79.376396
 20
-173.058487
 11
87.876396
 21
-173.058487
  0
LINE
  8
0
 10
77.126396
 20
-190.058487
 11
79.626396
 21
-190.058487
  0
LINE
  8
0
 10
138.626373
 20
-190.058487
 11
141.126373
 21
-190.058487
  0
LINE
  8
0
 10
141.126373
 20
-179.058487
 11
141.126373
 21
-196.358490
  0
LINE
  8
0
 10
77.126396
 20
-179.058487
 11
77.126396
 21
-196.358490
  0
LINE
  8
0
 10
79.626396
 20
-186.558487
 11
79.626396
 21
-190.058487
  0
LINE
  8
0
 10
138.626373
 20
-186.558487
 11
138.626373
 21
-190.058487
  0
LINE
  8
0
 10
78.626396
 20
-177.558487
 11
88.626396
 21
-177.558487
  0
LINE
  8
0
 10
129.626373
 20
-177.558487
 11
139.626373
 21
-177.558487
  0
LINE
  8
0
 10
129.626373
 20
-173.558487
 11
129.626373
 21
-176.058487
  0
LINE
  8
0
 10
88.626396
 20
-173.558487
 11
88.626396
 21
-177.558487
  0
LINE
  8
0
 10
89.626396
 20
-172.558487
 11
98.626396
 21
-172.558487
  0
LINE
  8
0
 10
119.626381
 20
-172.558487
 11
128.876373
 21
-172.558487
  0
LINE
  8
0
 10
119.626381
 20
-170.018753
 11
119.626381
 21
-172.558487
  0
LINE
  8
0
 10
98.626396
 20
-170.018753
 11
98.626396
 21
-172.558487
  0
LINE
  8
0
 10
87.876381
 20
-173.058472
 11
87.376389
 21
-172.558472
  0
LINE
  8
0
 10
116.108498
 20
-177.058487
 11
129.626373
 21
-177.058487
  0
LINE
  8
0
 10
116.108498
 20
-176.058487
 11
129.626373
 21
-176.058487
  0
LINE
  8
0
 10
129.626373
 20
-177.058487
 11
129.626373
 21
-177.558487
  0
LINE
  8
0
 10
87.876396
 20
-173.058487
 11
87.876396
 21
-177.558487
  0
LINE
  8
0
 10
138.876343
 20
-173.058502
 11
138.376343
 21
-172.558502
  0
LINE
  8
0
 10
131.126373
 20
-187.058487
 11
138.626373
 21
-187.058487
  0
LINE
  8
0
 10
131.126373
 20
-198.358490
 11
139.126373
 21
-198.358490
  0
LINE
  8
0
 10
87.126396
 20
-187.058487
 11
79.626396
 21
-187.058487
  0
LINE
  8
0
 10
87.126396
 20
-198.358490
 11
79.126396
 21
-198.358490
  0
LINE
  8
0
 10
86.126396
 20
-186.558487
 11
86.126396
 21
-187.058487
  0
LINE
  8
0
 10
81.126396
 20
-186.558487
 11
81.126396
 21
-187.058487
  0
LINE
  8
0
 10
85.693398
 20
-186.558487
 11
85.693398
 21
-187.058487
  0
LINE
  8
0
 10
81.559395
 20
-186.558487
 11
81.559395
 21
-187.058487
  0
LINE
  8
0
 10
137.126373
 20
-186.558487
 11
137.126373
 21
-187.058487
  0
LINE
  8
0
 10
136.693390
 20
-186.558487
 11
136.693390
 21
-187.058487
  0
LINE
  8
0
 10
128.876343
 20
-168.058517
 11
128.376343
 21
-167.558502
  0
LINE
  8
0
 10
132.559387
 20
-186.558487
 11
132.559387
 21
-187.058487
  0
LINE
  8
0
 10
132.126373
 20
-186.558487
 11
132.126373
 21
-187.058487
  0
LINE
  8
0
 10
128.376373
 20
-167.558487
 11
120.876381
 21
-167.558487
  0
LINE
  8
0
 10
128.876373
 20
-168.058487
 11
120.376381
 21
-168.058487
  0
LINE
  8
0
 10
120.376366
 20
-168.058502
 11
120.876381
 21
-167.558487
  0
LINE
  8
0
 10
120.376381
 20
-168.058487
 11
120.376381
 21
-172.558487
  0
LINE
  8
0
 10
128.876373
 20
-168.058487
 11
128.876373
 21
-172.558487
  0
LINE
  8
0
 10
138.876373
 20
-173.058487
 11
130.376373
 21
-173.058487
  0
LINE
  8
0
 10
130.376373
 20
-173.058487
 11
130.376373
 21
-177.558487
  0
LINE
  8
0
 10
130.376373
 20
-173.058472
 11
130.876358
 21
-172.558472
  0
LINE
  8
0
 10
138.376373
 20
-172.558487
 11
130.876373
 21
-172.558487
  0
LINE
  8
0
  6
CENTER
 10
83.626396
 20
-169.558487
 11
83.626396
 21
-197.558487
  0
LINE
  8
0
  6
CENTER
 10
99.126396
 20
-176.558487
 11
130.626373
 21
-176.558487
  0
LINE
  8
0
  6
CENTER
 10
124.626381
 20
-164.558487
 11
124.626381
 21
-184.558487
  0
LINE
  8
0
  6
CENTER
 10
134.626373
 20
-169.558487
 11
134.626373
 21
-197.558487
  0
LINE
  8
0
 10
208.349991
 20
75.499954
 11
208.349991
 21
63.499954
  0
LINE
  8
0
 10
208.349960
 20
166.000000
 11
208.349960
 21
154.000000
  0
ARC
  8
0
 62
     5
 10
273.035400
 20
-235.045654
 40
2.211884
 50
0.000000
 51
90.000000
  0
ARC
  8
0
 62
     5
 10
291.283569
 20
-246.934647
 40
2.211899
 50
270.000000
 51
0.000000
  0
ARC
  8
0
 62
     5
 10
290.177551
 20
-236.151566
 40
3.317841
 50
0.000000
 51
90.000000
  0
ARC
  8
0
 62
     5
 10
310.361115
 20
-236.812775
 40
2.211890
 50
294.999969
 51
0.000000
  0
ARC
  8
0
 62
     5
 10
310.361115
 20
-235.045654
 40
2.211884
 50
0.000000
 51
90.000000
  0
ARC
  8
0
 62
     5
 10
327.503357
 20
-232.833755
 40
3.317840
 50
291.688385
 51
0.000000
  0
ARC
  8
0
 62
     5
 10
326.397308
 20
-232.083389
 40
1.105946
 50
291.688965
 51
0.000000
  0
ARC
  8
0
  6
PHANTOM
 10
-94.873642
 20
58.999969
 40
4.500000
 50
90.000000
 51
179.999954
  0
ARC
  8
0
  6
PHANTOM
 10
-76.873642
 20
58.999954
 40
4.500000
 50
0.000000
 51
90.000000
  0
ARC
  8
0
  6
PHANTOM
 10
-94.873672
 20
40.999969
 40
4.500000
 50
180.000000
 51
270.000000
  0
ARC
  8
0
  6
PHANTOM
 10
-76.873672
 20
40.999954
 40
4.500000
 50
270.000000
 51
0.000000
  0
ARC
  8
0
  6
PHANTOM
 10
-91.252335
 20
34.999969
 40
1.500000
 50
90.000000
 51
135.000107
  0
ARC
  8
0
  6
PHANTOM
 10
-80.494980
 20
34.999954
 40
1.500002
 50
45.000000
 51
90.000000
  0
ARC
  8
0
  6
PHANTOM
 10
-101.373642
 20
58.299980
 40
4.299999
 50
270.000000
 51
297.717743
  0
ARC
  8
0
  6
PHANTOM
 10
-100.973663
 20
43.899979
 40
0.399994
 50
0.000000
 51
180.000000
  0
ARC
  8
0
  6
PHANTOM
 10
-100.073669
 20
43.599976
 40
0.500000
 50
180.000000
 51
270.000000
  0
ARC
  8
0
  6
PHANTOM
 10
-99.773666
 20
39.599976
 40
1.000001
 50
293.577759
 51
327.193848
  0
ARC
  8
0
  6
PHANTOM
 10
-71.973679
 20
39.599945
 40
1.000000
 50
90.000000
 51
115.302567
  0
ARC
  8
0
  6
PHANTOM
 10
-71.673676
 20
43.599945
 40
0.500000
 50
270.000000
 51
0.000000
  0
ARC
  8
0
  6
PHANTOM
 10
-70.373642
 20
58.299950
 40
4.299999
 50
242.282242
 51
270.000000
  0
ARC
  8
0
  6
PHANTOM
 10
-70.773651
 20
43.899948
 40
0.399994
 50
0.000000
 51
180.000000
  0
ARC
  8
0
  6
PHANTOM
 10
-99.773666
 20
39.599976
 40
1.000001
 50
64.697433
 51
90.000000
  0
ARC
  8
0
  6
PHANTOM
 10
-71.973679
 20
39.599945
 40
0.999999
 50
212.806137
 51
246.422241
  0
ARC
  8
0
  6
PHANTOM
 10
-107.373627
 20
75.499985
 40
1.000000
 50
90.000000
 51
180.000000
  0
ARC
  8
0
  6
PHANTOM
 10
-65.373657
 20
55.499939
 40
2.000000
 50
270.000000
 51
0.000000
  0
ARC
  8
0
  6
PHANTOM
 10
-106.373657
 20
55.499985
 40
2.000000
 50
180.000000
 51
270.000000
  0
ARC
  8
0
  6
PHANTOM
 10
-64.373627
 20
75.499939
 40
1.000000
 50
0.000000
 51
90.000000
  0
ARC
  8
0
  6
PHANTOM
 10
-302.125854
 20
170.999969
 40
15.000013
 50
156.421844
 51
203.578110
  0
ARC
  8
0
  6
PHANTOM
 10
-329.621277
 20
158.999969
 40
15.000013
 50
336.421844
 51
23.578156
  0
ARC
  8
0
  6
PHANTOM
 10
-302.125854
 20
56.000000
 40
15.000011
 50
156.421860
 51
203.578125
  0
ARC
  8
0
  6
PHANTOM
 10
-328.863953
 20
42.500000
 40
15.000005
 50
330.000000
 51
29.999989
  0
ARC
  8
0
  6
PHANTOM
 10
-71.373657
 20
60.999962
 40
1.000000
 50
0.000000
 51
90.000000
  0
ARC
  8
0
  6
PHANTOM
 10
-100.373657
 20
60.999962
 40
1.000000
 50
90.000000
 51
180.000000
  0
ARC
  8
0
  6
PHANTOM
 10
278.000000
 20
32.999969
 40
5.000000
 50
180.000000
 51
270.000000
  0
ARC
  8
0
  6
PHANTOM
 10
302.000000
 20
32.999969
 40
5.000000
 50
270.000000
 51
0.000000
  0
ARC
  8
0
  6
PHANTOM
 10
278.000000
 20
56.999969
 40
5.000000
 50
90.000000
 51
179.999954
  0
ARC
  8
0
  6
PHANTOM
 10
302.000000
 20
56.999969
 40
5.000000
 50
0.000000
 51
90.000000
  0
ARC
  8
0
  6
PHANTOM
 10
271.500000
 20
59.499969
 40
1.000000
 50
90.000000
 51
180.000000
  0
ARC
  8
0
  6
PHANTOM
 10
270.500000
 20
55.799965
 40
5.049999
 50
270.000000
 51
299.673004
  0
ARC
  8
0
  6
PHANTOM
 10
272.299988
 20
37.499969
 40
0.800011
 50
28.954617
 51
180.000000
  0
ARC
  8
0
  6
PHANTOM
 10
272.600006
 20
31.799965
 40
1.199998
 50
289.470947
 51
314.552979
  0
ARC
  8
0
  6
PHANTOM
 10
298.000000
 20
25.999969
 40
2.000000
 50
0.000000
 51
90.000000
  0
ARC
  8
0
  6
PHANTOM
 10
282.000000
 20
25.999969
 40
2.000000
 50
90.000000
 51
179.999939
  0
ARC
  8
0
  6
PHANTOM
 10
307.399994
 20
31.799965
 40
1.200001
 50
90.000000
 51
109.495544
  0
ARC
  8
0
  6
PHANTOM
 10
308.500000
 20
59.499969
 40
1.000000
 50
0.000000
 51
90.000000
  0
ARC
  8
0
  6
PHANTOM
 10
309.500000
 20
55.799965
 40
5.049997
 50
240.326965
 51
270.000000
  0
ARC
  8
0
  6
PHANTOM
 10
307.700012
 20
37.499969
 40
0.799988
 50
0.000000
 51
151.045380
  0
ARC
  8
0
  6
PHANTOM
 10
272.600006
 20
31.799965
 40
1.200006
 50
70.504456
 51
90.000000
  0
ARC
  8
0
  6
PHANTOM
 10
307.399994
 20
31.799965
 40
1.200008
 50
225.446976
 51
250.529053
  0
ARC
  8
0
  6
PHANTOM
 10
316.500000
 20
75.999969
 40
1.500000
 50
0.000000
 51
90.000000
  0
ARC
  8
0
  6
PHANTOM
 10
263.500000
 20
75.999969
 40
1.500000
 50
90.000000
 51
180.000000
  0
ARC
  8
0
  6
PHANTOM
 10
264.500000
 20
51.999969
 40
2.500000
 50
180.000000
 51
270.000000
  0
ARC
  8
0
  6
PHANTOM
 10
315.500000
 20
51.999969
 40
2.500000
 50
270.000000
 51
0.000000
  0
ARC
  8
0
  6
PHANTOM
 10
68.437393
 20
52.750000
 40
20.000002
 50
157.200989
 51
202.798996
  0
ARC
  8
0
  6
PHANTOM
 10
32.400284
 20
35.500000
 40
20.000000
 50
331.640656
 51
28.359350
  0
ARC
  8
0
  6
PHANTOM
 10
68.437393
 20
167.750000
 40
20.000002
 50
157.200974
 51
202.798981
  0
ARC
  8
0
  6
PHANTOM
 10
31.562607
 20
152.250000
 40
20.000000
 50
337.200958
 51
22.799032
  0
ARC
  8
0
  6
PHANTOM
 10
95.626389
 20
-191.058502
 40
6.500000
 50
90.000000
 51
180.000000
  0
ARC
  8
0
  6
PHANTOM
 10
95.626389
 20
-218.058502
 40
6.500000
 50
180.000000
 51
270.000000
  0
ARC
  8
0
  6
PHANTOM
 10
122.626373
 20
-218.058502
 40
6.500000
 50
270.000000
 51
0.000000
  0
ARC
  8
0
  6
PHANTOM
 10
122.626373
 20
-191.058502
 40
6.500000
 50
0.000000
 51
90.000000
  0
ARC
  8
0
  6
PHANTOM
 10
89.126389
 20
-188.558502
 40
2.000000
 50
90.000000
 51
178.557312
  0
ARC
  8
0
  6
PHANTOM
 10
87.126389
 20
-192.858490
 40
6.000002
 50
278.213257
 51
289.471191
  0
ARC
  8
0
  6
PHANTOM
 10
88.126389
 20
-199.786713
 40
1.000003
 50
98.213371
 51
180.000000
  0
ARC
  8
0
  6
PHANTOM
 10
87.926392
 20
-213.058502
 40
0.800003
 50
0.000000
 51
180.000000
  0
ARC
  8
0
  6
PHANTOM
 10
89.576385
 20
-213.058502
 40
0.849998
 50
180.000000
 51
238.034622
  0
ARC
  8
0
  6
PHANTOM
 10
87.926392
 20
-217.158508
 40
0.800003
 50
180.000000
 51
0.000000
  0
ARC
  8
0
  6
PHANTOM
 10
89.576385
 20
-217.158508
 40
0.850003
 50
121.965370
 51
180.000000
  0
ARC
  8
0
  6
PHANTOM
 10
128.676361
 20
-217.158508
 40
0.850006
 50
0.000000
 51
58.033211
  0
ARC
  8
0
  6
PHANTOM
 10
129.126373
 20
-188.558502
 40
2.000000
 50
0.000000
 51
90.000000
  0
ARC
  8
0
  6
PHANTOM
 10
131.126373
 20
-192.858490
 40
6.000006
 50
250.528793
 51
261.786743
  0
ARC
  8
0
  6
PHANTOM
 10
130.126373
 20
-199.786713
 40
1.000000
 50
0.000000
 51
81.787056
  0
ARC
  8
0
  6
PHANTOM
 10
130.326385
 20
-213.058502
 40
0.800003
 50
0.000000
 51
180.000000
  0
ARC
  8
0
  6
PHANTOM
 10
128.676361
 20
-213.058502
 40
0.849998
 50
301.966797
 51
0.000000
  0
ARC
  8
0
  6
PHANTOM
 10
130.326385
 20
-217.158508
 40
0.800003
 50
180.000000
 51
0.000000
  0
ARC
  8
0
  6
PHANTOM
 10
99.126389
 20
-226.558502
 40
2.000000
 50
90.000000
 51
180.000000
  0
ARC
  8
0
  6
PHANTOM
 10
119.126373
 20
-226.558502
 40
2.000000
 50
0.000000
 51
90.000000
  0
ARC
  8
0
  6
PHANTOM
 10
77.626389
 20
-168.058502
 40
1.000000
 50
90.000000
 51
180.000000
  0
ARC
  8
0
  6
PHANTOM
 10
140.626373
 20
-168.058502
 40
1.000000
 50
0.000000
 51
90.000000
  0
ARC
  8
0
  6
PHANTOM
 10
79.626389
 20
-197.558502
 40
3.000000
 50
180.000000
 51
270.000000
  0
ARC
  8
0
  6
PHANTOM
 10
88.126389
 20
-199.786713
 40
2.000004
 50
134.430328
 51
180.000000
  0
ARC
  8
0
  6
PHANTOM
 10
130.126373
 20
-199.786713
 40
2.000000
 50
0.000000
 51
45.569679
  0
ARC
  8
0
  6
PHANTOM
 10
138.626373
 20
-197.558502
 40
3.000000
 50
270.000000
 51
0.000000
  0
ARC
  8
0
  6
PHANTOM
 10
-172.549759
 20
-65.558495
 40
24.999998
 50
158.899811
 51
201.100159
  0
ARC
  8
0
  6
PHANTOM
 10
-219.197372
 20
-83.558495
 40
25.000000
 50
338.899811
 51
21.100197
  0
ARC
  8
0
  6
PHANTOM
 10
-172.549759
 20
-195.558487
 40
25.000000
 50
158.899811
 51
201.100159
  0
ARC
  8
0
  6
PHANTOM
 10
-218.323517
 20
-215.558487
 40
25.000006
 50
333.896118
 51
26.103874
  0
CIRCLE
  8
0
 10
-218.873505
 20
146.999954
 40
2.750000
  0
CIRCLE
  8
0
 10
-218.873505
 20
182.999954
 40
2.750000
  0
CIRCLE
  8
0
 10
-227.373535
 20
146.999954
 40
2.750000
  0
CIRCLE
  8
0
 10
-223.123505
 20
176.499954
 40
2.750000
  0
CIRCLE
  8
0
 10
-227.373535
 20
182.999954
 40
2.750000
  0
ARC
  8
0
 10
-101.373650
 20
58.299969
 40
3.900001
 50
283.002686
 51
300.851898
  0
ARC
  8
0
 10
-106.373650
 20
55.999966
 40
1.500000
 50
180.000000
 51
270.000000
  0
ARC
  8
0
 10
-70.373650
 20
58.299969
 40
3.899999
 50
239.148102
 51
256.997314
  0
ARC
  8
0
 10
-65.373650
 20
55.999966
 40
1.500000
 50
270.000000
 51
0.000000
  0
CIRCLE
  8
0
 10
-85.873650
 20
69.499969
 40
4.459000
  0
CIRCLE
  8
0
 10
-85.873650
 20
69.499969
 40
5.000000
  0
ARC
  8
0
 10
-64.873650
 20
67.499969
 40
1.000000
 50
0.000000
 51
90.000000
  0
ARC
  8
0
 10
-106.873650
 20
67.499969
 40
1.000000
 50
90.000000
 51
180.000000
  0
ARC
  8
0
 10
-72.123650
 20
71.999969
 40
1.000000
 50
0.000000
 51
90.000000
  0
ARC
  8
0
 10
-99.623650
 20
71.999969
 40
1.000000
 50
90.000000
 51
180.000000
  0
ARC
  8
0
 10
-93.123650
 20
74.062347
 40
1.000002
 50
112.431328
 51
180.000000
  0
ARC
  8
0
 10
-78.623650
 20
74.062347
 40
1.000000
 50
0.000000
 51
67.568672
  0
ARC
  8
0
 10
-105.573647
 20
61.499966
 40
0.799999
 50
90.000000
 51
180.000000
  0
ARC
  8
0
 10
-66.173653
 20
61.499966
 40
0.800003
 50
0.000000
 51
90.000000
  0
ARC
  8
0
 10
-85.873650
 20
56.499966
 40
20.000002
 50
67.568489
 51
112.431541
  0
CIRCLE
  8
0
 10
167.500000
 20
137.500000
 40
3.500000
  0
CIRCLE
  8
0
 10
158.000000
 20
182.500000
 40
3.500000
  0
CIRCLE
  8
0
 10
167.500000
 20
182.500000
 40
3.500000
  0
CIRCLE
  8
0
 10
158.000000
 20
137.500000
 40
3.500000
  0
CIRCLE
  8
0
 10
162.749985
 20
174.500000
 40
3.500000
  0
ARC
  8
0
 10
264.500092
 20
53.099991
 40
2.000000
 50
180.000000
 51
270.000000
  0
ARC
  8
0
 10
270.500092
 20
55.749992
 40
4.650002
 50
270.000000
 51
302.522766
  0
ARC
  8
0
 10
315.500092
 20
53.099991
 40
2.000000
 50
270.000000
 51
0.000000
  0
ARC
  8
0
 10
309.500092
 20
55.749992
 40
4.649999
 50
237.477249
 51
270.000000
  0
ARC
  8
0
 10
299.500092
 20
74.539734
 40
1.000000
 50
0.000000
 51
66.681618
  0
ARC
  8
0
 10
280.500092
 20
74.539734
 40
1.000009
 50
113.318382
 51
180.000000
  0
ARC
  8
0
 10
307.500092
 20
71.999992
 40
1.000000
 50
0.000000
 51
90.000000
  0
ARC
  8
0
 10
272.500092
 20
71.999992
 40
1.000000
 50
90.000000
 51
180.000000
  0
ARC
  8
0
 10
316.500092
 20
67.499992
 40
1.000000
 50
0.000000
 51
90.000000
  0
ARC
  8
0
 10
263.500092
 20
67.499992
 40
1.000000
 50
90.000000
 51
180.000000
  0
ARC
  8
0
 10
290.000092
 20
52.499992
 40
24.999994
 50
66.682091
 51
113.317978
  0
CIRCLE
  8
0
 10
290.000092
 20
69.499992
 40
5.459000
  0
CIRCLE
  8
0
 10
290.000092
 20
69.499992
 40
6.000000
  0
CIRCLE
  8
0
 10
-53.873528
 20
-49.058502
 40
4.250000
  0
CIRCLE
  8
0
 10
-64.873589
 20
-49.058502
 40
4.250000
  0
CIRCLE
  8
0
 10
-53.873528
 20
-100.058510
 40
4.250000
  0
CIRCLE
  8
0
 10
-64.873589
 20
-100.058510
 40
4.250000
  0
CIRCLE
  8
0
 10
-59.373558
 20
-59.058510
 40
4.250000
  0
CIRCLE
  8
0
 10
109.126396
 20
-176.558487
 40
6.188000
  0
ARC
  8
0
 10
87.126396
 20
-192.858490
 40
5.500000
 50
270.000000
 51
291.323700
  0
ARC
  8
0
 10
79.126396
 20
-196.358490
 40
2.000000
 50
180.000000
 51
270.000000
  0
ARC
  8
0
 10
131.126373
 20
-192.858490
 40
5.499999
 50
248.676315
 51
270.000000
  0
ARC
  8
0
 10
139.126373
 20
-196.358490
 40
2.000000
 50
270.000000
 51
0.000000
  0
ARC
  8
0
 10
99.626396
 20
-170.018753
 40
0.999996
 50
113.317749
 51
180.000000
  0
ARC
  8
0
 10
118.626381
 20
-170.018753
 40
1.000000
 50
0.000000
 51
66.682251
  0
ARC
  8
0
 10
109.126396
 20
-192.058487
 40
24.999992
 50
66.682045
 51
113.317970
  0
ARC
  8
0
 10
128.626373
 20
-173.558487
 40
1.000000
 50
0.000000
 51
90.000000
  0
ARC
  8
0
 10
89.626396
 20
-173.558487
 40
1.000000
 50
90.000000
 51
180.000000
  0
CIRCLE
  8
0
 10
109.126396
 20
-176.558487
 40
7.000000
  0
ARC
  8
0
 10
139.626373
 20
-179.058487
 40
1.500000
 50
0.000000
 51
90.000000
  0
ARC
  8
0
 10
78.626396
 20
-179.058487
 40
1.500000
 50
90.000000
 51
180.000000
  0
TEXT
  8
0
 10
226.462494
 20
233.607468
 40
8.500000
  1
DATE : OCT ,1991
 50
0.000000
 41
1.052631
 51
0.000000
  7
STANDARD
  0
TEXT
  8
0
 10
-367.069794
 20
232.257462
 40
10.000000
  1
ORGA S-ABSORBER
 50
0.000000
 41
1.001533
 51
0.000000
  7
STANDARD
  0
TEXT
  8
0
 10
-197.052139
 20
222.956390
 40
10.000000
  1
BORE : 16
 50
0.000000
 41
1.052632
 51
0.000000
  7
STANDARD
  0
TEXT
  8
0
 10
23.821430
 20
222.956390
 40
10.000000
  1
BORE : 20
 50
0.000000
 41
1.052632
 51
0.000000
  7
STANDARD
  0
TEXT
  8
0
 10
-347.052124
 20
-38.000000
 40
10.000000
  1
BORE : 25
 50
0.000000
 41
1.052632
 51
0.000000
  7
STANDARD
  0
ENDSEC
  0
EOF
