  0
SECTION
  2
HEADER
  0
ENDSEC
  0
SECTION
  2
TABLES
  0
TABLE
  2
LTYPE
 70
     4
  0
LTYPE
  2
CONTINUOUS
 70
    64
  3
Solid line
 72
    65
 73
     0
 40
0.000000
  0
LTYPE
  2
DASHED
 70
    64
  3
__ __ __ __ __ __ __ __ __ __ __ __ __ __ __
 72
    65
 73
     2
 40
3.500000
 49
2.000000
 49
-1.500000
  0
LTYPE
  2
CENTER
 70
    64
  3
____ _ ____ _ ____ _ ____ _ ____ _ ____ _ ____
 72
    65
 73
     4
 40
17.500000
 49
13.000000
 49
-1.500000
 49
1.500000
 49
-1.500000
  0
LTYPE
  2
PHANTOM
 70
    64
  3
_____ _ _ _____ _ _ _____ _ _ _____ _ _ ____  
 72
    65
 73
     6
 40
15.500000
 49
8.000000
 49
-1.500000
 49
1.500000
 49
-1.500000
 49
1.500000
 49
-1.500000
  0
LTYPE
  2
DASHED1
 70
    64
  3
__ __ __ __ __ __ __ __ __ __ __ __ __ __ __
 72
    65
 73
     2
 40
1.500000
 49
1.000000
 49
-0.500000
  0
LTYPE
  2
DASHED2
 70
    64
  3
__ __ __ __ __ __ __ __ __ __ __ __ __ __ __
 72
    65
 73
     2
 40
3.500000
 49
2.500000
 49
-1.000000
  0
LTYPE
  2
DASHED3
 70
    64
  3
__ __ __ __ __ __ __ __ __ __ __ __ __ __ __
 72
    65
 73
     2
 40
6.000000
 49
4.000000
 49
-2.000000
  0
LTYPE
  2
DASHED4
 70
    64
  3
__ __ __ __ __ __ __ __ __ __ __ __ __ __ __
 72
    65
 73
     2
 40
12.000000
 49
10.000000
 49
-2.000000
  0
LTYPE
  2
DASHED5
 70
    64
  3
__ __ __ __ __ __ __ __ __ __ __ __ __ __ __
 72
    65
 73
     2
 40
17.000000
 49
15.000000
 49
-2.000000
  0
LTYPE
  2
DASHED6
 70
    64
  3
__ __ __ __ __ __ __ __ __ __ __ __ __ __ __
 72
    65
 73
     2
 40
29.000000
 49
27.000000
 49
-2.000000
  0
LTYPE
  2
PHANTOM1
 70
    64
  3
_____ _ _ _____ _ _ _____ _ _ _____ _ _ ____  
 72
    65
 73
     6
 40
31.000000
 49
25.000000
 49
-1.500000
 49
1.000000
 49
-1.000000
 49
1.000000
 49
-1.500000
  0
LTYPE
  2
PHANTOM2
 70
    64
  3
_____ _ _ _____ _ _ _____ _ _ _____ _ _ ____  
 72
    65
 73
     6
 40
36.000000
 49
27.000000
 49
-1.500000
 49
2.500000
 49
-1.000000
 49
2.500000
 49
-1.500000
  0
LTYPE
  2
PHANTOM3
 70
    64
  3
_____ _ _ _____ _ _ _____ _ _ _____ _ _ ____  
 72
    65
 73
     6
 40
78.000000
 49
64.000000
 49
-2.000000
 49
4.000000
 49
-2.000000
 49
4.000000
 49
-2.000000
  0
LTYPE
  2
CENTER1
 70
    64
  3
____ _ ____ _ ____ _ ____ _ ____ _ ____ _ ____
 72
    65
 73
     4
 40
19.000000
 49
14.000000
 49
-1.000000
 49
3.000000
 49
-1.000000
  0
LTYPE
  2
CENTER2
 70
    64
  3
____ _ ____ _ ____ _ ____ _ ____ _ ____ _ ____
 72
    65
 73
     4
 40
28.500000
 49
25.000000
 49
-1.000000
 49
1.500000
 49
-1.000000
  0
LTYPE
  2
CENTER3
 70
    64
  3
____ _ ____ _ ____ _ ____ _ ____ _ ____ _ ____
 72
    65
 73
     4
 40
31.500000
 49
27.000000
 49
-1.000000
 49
2.500000
 49
-1.000000
  0
LTYPE
  2
CENTER4
 70
    64
  3
____ _ ____ _ ____ _ ____ _ ____ _ ____ _ ____
 72
    65
 73
     4
 40
50.000000
 49
45.000000
 49
-1.000000
 49
3.000000
 49
-1.000000
  0
LTYPE
  2
CENTER5
 70
    64
  3
____ _ ____ _ ____ _ ____ _ ____ _ ____ _ ____
 72
    65
 73
     4
 40
100.000000
 49
92.000000
 49
-2.000000
 49
4.000000
 49
-2.000000
  0
LTYPE
  2
SBK1
 70
    64
  3
______ _ _ _ ______ _ _ _ ______ _ _ _ _____  
 72
    65
 73
     8
 40
60.500000
 49
45.000000
 49
-2.000000
 49
2.500000
 49
-2.000000
 49
2.500000
 49
-2.000000
 49
2.500000
 49
-2.000000
  0
LTYPE
  2
SBK2
 70
    64
  3
______ _ _ _ ______ _ _ _ ______ _ _ _ _____  
 72
    65
 73
     8
 40
84.000000
 49
64.000000
 49
-2.000000
 49
4.000000
 49
-2.000000
 49
4.000000
 49
-2.000000
 49
4.000000
 49
-2.000000
  0
LTYPE
  2
STCH
 70
    64
  3
__ __ __ __ __ __ __ __ __ __ __ __ __ __ __
 72
    65
 73
     2
 40
3.000000
 49
1.000000
 49
-2.000000
  0
LTYPE
  2
MTCH
 70
    64
  3
_____ _ _ _____ _ _ _____ _ _ _____ _ _ ____  
 72
    65
 73
     6
 40
80.000000
 49
66.000000
 49
-2.000000
 49
4.000000
 49
-2.000000
 49
4.000000
 49
-2.000000
  0
ENDTAB
  0
TABLE
  2
LAYER
 70
     1
  0
LAYER
  2
0
 70
     0
 62
     7
  6
CONTINUOUS
  0
ENDTAB
  0
TABLE
  2
STYLE
 70
     1
  0
STYLE
  2
STANDARD
 70
     0
 40
0.000000
 41
1.000000
 50
0.000000
 71
     0
 42
0.200000
  3
txt
  4
BIGFONT
  0
ENDTAB
  0
TABLE
  2
VIEW
 70
     0
  0
ENDTAB
  0
ENDSEC
  0
SECTION
  2
BLOCKS
  0
ENDSEC
  0
SECTION
  2
ENTITIES
  0
POINT
  8
0
 10
-213.123505
 20
49.999981
  0
POINT
  8
0
 10
-213.123505
 20
164.999954
  0
POINT
  8
0
 10
-85.873650
 20
49.999966
  0
POINT
  8
0
 10
-190.873535
 20
49.999981
  0
POINT
  8
0
 10
-190.873581
 20
164.999954
  0
POINT
  8
0
 10
-72.373672
 20
49.999966
  0
POINT
  8
0
 10
162.749985
 20
160.000000
  0
POINT
  8
0
 10
162.749985
 20
44.999985
  0
POINT
  8
0
 10
280.000092
 20
44.999992
  0
POINT
  8
0
 10
190.000061
 20
44.999985
  0
POINT
  8
0
 10
189.999924
 20
160.000000
  0
POINT
  8
0
 10
297.000061
 20
44.999992
  0
POINT
  8
0
 10
-59.373543
 20
-204.558487
  0
POINT
  8
0
 10
-59.373558
 20
-74.558510
  0
POINT
  8
0
 10
109.126396
 20
-204.558487
  0
POINT
  8
0
 10
-25.873608
 20
-204.558487
  0
POINT
  8
0
 10
-25.873512
 20
-74.558510
  0
POINT
  8
0
 10
129.126373
 20
-204.558487
  0
LINE
  8
0
 62
     3
 10
218.329163
 20
-225.956436
 11
370.873566
 21
-225.956436
  0
LINE
  8
0
 62
     3
 10
-218.329163
 20
225.956390
 11
-218.329163
 21
254.558487
  0
LINE
  8
0
 62
     3
 10
-370.873566
 20
225.956390
 11
-218.329163
 21
225.956390
  0
LINE
  8
0
 62
     3
 10
-370.873566
 20
254.558487
 11
370.873566
 21
254.558487
  0
LINE
  8
0
 62
     3
 10
-370.873566
 20
-254.558487
 11
370.873566
 21
-254.558487
  0
LINE
  8
0
 62
     3
 10
370.873566
 20
254.558487
 11
370.873566
 21
-254.558487
  0
LINE
  8
0
 62
     3
 10
-370.873566
 20
-254.558487
 11
-370.873566
 21
254.558487
  0
LINE
  8
0
 62
     3
 10
218.329163
 20
-225.956436
 11
218.329163
 21
-254.558487
  0
LINE
  8
0
 62
     3
 10
218.329163
 20
254.558487
 11
218.329163
 21
225.956390
  0
LINE
  8
0
 62
     3
 10
218.329163
 20
225.956390
 11
370.873566
 21
225.956390
  0
LINE
  8
0
 62
     5
 10
258.381622
 20
-232.833740
 11
258.381622
 21
-236.151566
  0
LINE
  8
0
 62
     5
 10
258.381622
 20
-236.151566
 11
270.823547
 21
-236.151566
  0
LINE
  8
0
 62
     5
 10
258.381622
 20
-249.146469
 11
275.247345
 21
-249.146469
  0
LINE
  8
0
 62
     5
 10
258.381622
 20
-245.828644
 11
270.823547
 21
-245.828644
  0
LINE
  8
0
 62
     5
 10
258.381622
 20
-232.833740
 11
273.035400
 21
-232.833740
  0
LINE
  8
0
 62
     5
 10
270.823547
 20
-236.151566
 11
270.823547
 21
-245.828644
  0
LINE
  8
0
 62
     5
 10
275.247345
 20
-235.045654
 11
275.247345
 21
-249.146469
  0
LINE
  8
0
 62
     5
 10
258.381622
 20
-245.828644
 11
258.381622
 21
-249.146469
  0
LINE
  8
0
 62
     5
 10
293.495392
 20
-236.151566
 11
293.495392
 21
-246.934647
  0
LINE
  8
0
 62
     5
 10
277.735657
 20
-232.833740
 11
277.735657
 21
-236.151566
  0
LINE
  8
0
 62
     5
 10
293.937836
 20
-232.584961
 11
295.513824
 21
-232.584961
  0
LINE
  8
0
 62
     5
 10
293.937836
 20
-230.373016
 11
295.513824
 21
-230.373016
  0
LINE
  8
0
 62
     5
 10
295.513824
 20
-230.373016
 11
295.513824
 21
-232.584961
  0
LINE
  8
0
 62
     5
 10
293.937836
 20
-230.373016
 11
293.937836
 21
-232.584961
  0
LINE
  8
0
 62
     5
 10
293.108276
 20
-230.373016
 11
293.108276
 21
-232.584961
  0
LINE
  8
0
 62
     5
 10
282.766052
 20
-230.373016
 11
286.200897
 21
-230.373016
  0
LINE
  8
0
 62
     5
 10
285.541260
 20
-232.833466
 11
286.200562
 21
-230.372711
  0
LINE
  8
0
 62
     5
 10
282.106689
 20
-232.833710
 11
282.766022
 21
-230.372986
  0
LINE
  8
0
 62
     5
 10
285.541565
 20
-232.833740
 11
290.177551
 21
-232.833740
  0
LINE
  8
0
 62
     5
 10
284.652557
 20
-236.151566
 11
289.071625
 21
-236.151566
  0
LINE
  8
0
 62
     5
 10
286.642853
 20
-249.146469
 11
291.283569
 21
-249.146469
  0
LINE
  8
0
 62
     5
 10
285.753693
 20
-245.828583
 11
286.642731
 21
-249.146347
  0
LINE
  8
0
 62
     5
 10
285.753754
 20
-245.828644
 11
289.071625
 21
-245.828644
  0
LINE
  8
0
 62
     5
 10
281.170746
 20
-249.146637
 11
284.652679
 21
-236.151733
  0
LINE
  8
0
 62
     5
 10
277.735657
 20
-236.151566
 11
281.217682
 21
-236.151566
  0
LINE
  8
0
 62
     5
 10
277.735413
 20
-249.146210
 11
281.217468
 21
-236.151337
  0
LINE
  8
0
 62
     5
 10
277.735657
 20
-249.146469
 11
281.170593
 21
-249.146469
  0
LINE
  8
0
 62
     5
 10
277.735657
 20
-232.833740
 11
282.106689
 21
-232.833740
  0
LINE
  8
0
 62
     5
 10
289.071625
 20
-236.151566
 11
289.071625
 21
-245.828644
  0
LINE
  8
0
 62
     5
 10
291.532288
 20
-230.373016
 11
293.108276
 21
-230.373016
  0
LINE
  8
0
 62
     5
 10
291.532288
 20
-232.584961
 11
293.108276
 21
-232.584961
  0
LINE
  8
0
 62
     5
 10
291.532288
 20
-230.373016
 11
291.532288
 21
-232.584961
  0
LINE
  8
0
 62
     5
 10
301.513550
 20
-230.373016
 11
305.937286
 21
-230.373016
  0
LINE
  8
0
 62
     5
 10
308.342316
 20
-240.195053
 11
311.296204
 21
-238.817642
  0
LINE
  8
0
 62
     5
 10
305.937286
 20
-242.734406
 11
305.937286
 21
-249.146469
  0
LINE
  8
0
 62
     5
 10
301.513550
 20
-243.379044
 11
301.513550
 21
-249.146469
  0
LINE
  8
0
 62
     5
 10
305.937286
 20
-232.833740
 11
310.361115
 21
-232.833740
  0
LINE
  8
0
 62
     5
 10
305.937286
 20
-230.373016
 11
305.937286
 21
-232.833740
  0
LINE
  8
0
 62
     5
 10
301.513550
 20
-230.373016
 11
301.513550
 21
-232.833740
  0
LINE
  8
0
 62
     5
 10
312.572998
 20
-235.045654
 11
312.572998
 21
-236.812775
  0
LINE
  8
0
 62
     5
 10
308.342377
 20
-240.195038
 11
312.573395
 21
-242.168030
  0
LINE
  8
0
 62
     5
 10
305.937256
 20
-242.734329
 11
312.573059
 21
-245.828613
  0
LINE
  8
0
 62
     5
 10
296.260284
 20
-242.167801
 11
296.260284
 21
-245.828644
  0
LINE
  8
0
 62
     5
 10
296.260742
 20
-242.168167
 11
309.162567
 21
-236.151932
  0
LINE
  8
0
 62
     5
 10
296.260254
 20
-245.828598
 11
301.513580
 21
-243.378937
  0
LINE
  8
0
 62
     5
 10
312.572998
 20
-242.167801
 11
312.572998
 21
-245.828644
  0
LINE
  8
0
 62
     5
 10
296.260284
 20
-232.833740
 11
296.260284
 21
-236.151566
  0
LINE
  8
0
 62
     5
 10
301.513550
 20
-249.146469
 11
305.937286
 21
-249.146469
  0
LINE
  8
0
 62
     5
 10
296.260284
 20
-236.151566
 11
309.162079
 21
-236.151566
  0
LINE
  8
0
 62
     5
 10
296.260284
 20
-232.833740
 11
301.513550
 21
-232.833740
  0
LINE
  8
0
 62
     5
 10
327.503998
 20
-236.404739
 11
328.730042
 21
-235.917068
  0
LINE
  8
0
 62
     5
 10
327.503357
 20
-236.404404
 11
327.503357
 21
-249.146469
  0
LINE
  8
0
 62
     5
 10
323.079498
 20
-249.146469
 11
327.503357
 21
-249.146469
  0
LINE
  8
0
 62
     5
 10
313.955292
 20
-241.792511
 11
323.079376
 21
-238.163742
  0
LINE
  8
0
 62
     5
 10
313.955536
 20
-238.221954
 11
326.806152
 21
-233.111084
  0
LINE
  8
0
 62
     5
 10
323.079498
 20
-238.163773
 11
323.079498
 21
-249.146469
  0
LINE
  8
0
 62
     5
 10
327.503357
 20
-231.368408
 11
327.503357
 21
-232.083389
  0
LINE
  8
0
 62
     5
 10
330.821106
 20
-231.368408
 11
330.821106
 21
-232.833755
  0
LINE
  8
0
 62
     5
 10
313.955444
 20
-238.221893
 11
313.955444
 21
-241.792496
  0
LINE
  8
0
 62
     5
 10
327.503357
 20
-231.368408
 11
330.821106
 21
-231.368408
  0
LINE
  8
0
 10
-370.873566
 20
0.000000
 11
370.873566
 21
0.000000
  0
LINE
  8
0
 10
0.000000
 20
0.000000
 11
0.000000
 21
254.558487
  0
LINE
  8
0
  6
PHANTOM
 10
-305.873566
 20
35.000000
 11
-205.873566
 21
35.000000
  0
LINE
  8
0
  6
PHANTOM
 10
-305.873566
 20
62.000000
 11
-290.873566
 21
62.000000
  0
LINE
  8
0
  6
CENTER
 10
-255.873566
 20
30.000008
 11
-255.873566
 21
81.999969
  0
LINE
  8
0
  6
CENTER
 10
-310.873566
 20
50.000000
 11
-185.873566
 21
50.000000
  0
LINE
  8
0
  6
PHANTOM
 10
-190.873566
 20
36.500031
 11
-190.873566
 21
63.500031
  0
LINE
  8
0
  6
PHANTOM
 10
-205.873566
 20
63.500000
 11
-190.873566
 21
63.500000
  0
LINE
  8
0
  6
PHANTOM
 10
-205.873566
 20
36.500000
 11
-190.873566
 21
36.500000
  0
LINE
  8
0
  6
PHANTOM
 10
-205.873566
 20
35.000031
 11
-205.873566
 21
54.499962
  0
LINE
  8
0
  6
PHANTOM
 10
-283.873566
 20
76.999962
 11
-227.873566
 21
76.999962
  0
LINE
  8
0
  6
PHANTOM
 10
-290.873566
 20
53.499962
 11
-220.873566
 21
53.499962
  0
LINE
  8
0
  6
PHANTOM
 10
-220.873566
 20
53.499977
 11
-220.873566
 21
65.999962
  0
LINE
  8
0
  6
PHANTOM
 10
-290.873566
 20
53.499969
 11
-290.873566
 21
76.499969
  0
LINE
  8
0
  6
PHANTOM
 10
-220.873566
 20
62.000000
 11
-220.373566
 21
62.000000
  0
LINE
  8
0
  6
PHANTOM
 10
-290.873566
 20
76.499962
 11
-220.873566
 21
76.499962
  0
LINE
  8
0
  6
PHANTOM
 10
-283.873566
 20
53.499969
 11
-283.873566
 21
76.999969
  0
LINE
  8
0
  6
PHANTOM
 10
-227.873566
 20
53.499977
 11
-227.873566
 21
76.999977
  0
LINE
  8
0
  6
PHANTOM
 10
-306.582672
 20
59.999962
 11
-290.873566
 21
59.999962
  0
LINE
  8
0
  6
PHANTOM
 10
-306.991913
 20
53.999962
 11
-290.873566
 21
53.999962
  0
LINE
  8
0
  6
PHANTOM
 10
-306.711792
 20
52.499962
 11
-205.873566
 21
52.499962
  0
LINE
  8
0
  6
PHANTOM
 10
-303.972321
 20
44.299957
 11
-205.873566
 21
44.299957
  0
LINE
  8
0
  6
PHANTOM
 10
-303.984772
 20
40.599960
 11
-205.873566
 21
40.599960
  0
LINE
  8
0
  6
PHANTOM
 10
-304.357605
 20
38.683441
 11
-205.873566
 21
38.683441
  0
LINE
  8
0
  6
PHANTOM
 10
-304.586700
 20
37.899963
 11
-205.873566
 21
37.899963
  0
LINE
  8
0
  6
PHANTOM
 10
-220.873566
 20
59.999962
 11
-220.373566
 21
59.999962
  0
LINE
  8
0
  6
PHANTOM
 10
-220.873566
 20
53.999962
 11
-205.873566
 21
53.999962
  0
LINE
  8
0
  6
CENTER
 10
-310.873566
 20
164.999969
 11
-185.873581
 21
164.999969
  0
LINE
  8
0
  6
PHANTOM
 10
-190.873581
 20
151.499969
 11
-190.873581
 21
178.499969
  0
LINE
  8
0
  6
PHANTOM
 10
-205.873581
 20
178.499969
 11
-190.873581
 21
178.499969
  0
LINE
  8
0
  6
PHANTOM
 10
-205.873581
 20
151.499969
 11
-190.873581
 21
151.499969
  0
LINE
  8
0
  6
PHANTOM
 10
-305.873566
 20
152.999969
 11
-290.873566
 21
152.999969
  0
LINE
  8
0
  6
PHANTOM
 10
-305.873566
 20
176.999969
 11
-290.873566
 21
176.999969
  0
LINE
  8
0
  6
PHANTOM
 10
-304.677734
 20
160.299957
 11
-290.873566
 21
160.299957
  0
LINE
  8
0
  6
PHANTOM
 10
-307.069397
 20
169.699966
 11
-290.873566
 21
169.699966
  0
LINE
  8
0
  6
PHANTOM
 10
-290.873566
 20
186.999969
 11
-290.873566
 21
142.999969
  0
LINE
  8
0
  6
PHANTOM
 10
-283.873566
 20
187.499969
 11
-283.873566
 21
142.499969
  0
LINE
  8
0
  6
PHANTOM
 10
-227.873566
 20
187.499969
 11
-227.873566
 21
142.499969
  0
LINE
  8
0
  6
PHANTOM
 10
-220.873566
 20
186.999969
 11
-220.873566
 21
168.499969
  0
LINE
  8
0
  6
PHANTOM
 10
-283.873566
 20
187.499969
 11
-227.873566
 21
187.499969
  0
LINE
  8
0
  6
PHANTOM
 10
-283.873566
 20
142.499969
 11
-227.873566
 21
142.499969
  0
LINE
  8
0
  6
PHANTOM
 10
-290.873566
 20
142.999969
 11
-283.873566
 21
142.999969
  0
LINE
  8
0
  6
PHANTOM
 10
-290.873566
 20
186.999969
 11
-283.873566
 21
186.999969
  0
LINE
  8
0
  6
PHANTOM
 10
-227.873566
 20
142.999969
 11
-220.873566
 21
142.999969
  0
LINE
  8
0
  6
PHANTOM
 10
-227.873566
 20
186.999969
 11
-220.873566
 21
186.999969
  0
LINE
  8
0
  6
PHANTOM
 10
-220.873566
 20
176.999969
 11
-220.373596
 21
176.999969
  0
LINE
  8
0
  6
PHANTOM
 10
-220.873566
 20
152.999969
 11
-220.373596
 21
152.999969
  0
LINE
  8
0
  6
CENTER
 10
-255.873596
 20
139.499969
 11
-255.873596
 21
190.499969
  0
LINE
  8
0
  6
PHANTOM
 10
-283.873566
 20
182.499969
 11
-227.873566
 21
182.499969
  0
LINE
  8
0
  6
PHANTOM
 10
-283.873566
 20
147.499969
 11
-227.873566
 21
147.499969
  0
LINE
  8
0
  6
CENTER
 10
-85.873657
 20
29.999962
 11
-85.873657
 21
81.999962
  0
LINE
  8
0
  6
CENTER
 10
-104.373657
 20
49.999962
 11
-67.373657
 21
49.999962
  0
LINE
  8
0
  6
PHANTOM
 10
-72.373657
 20
40.999947
 11
-72.373657
 21
58.999947
  0
LINE
  8
0
  6
PHANTOM
 10
-99.373657
 20
40.999977
 11
-99.373657
 21
58.999977
  0
LINE
  8
0
  6
PHANTOM
 10
-94.873642
 20
63.499962
 11
-76.873642
 21
63.499962
  0
LINE
  8
0
  6
PHANTOM
 10
-94.873672
 20
36.499962
 11
-76.873672
 21
36.499962
  0
LINE
  8
0
  6
PHANTOM
 10
-101.373672
 20
34.999962
 11
-93.373672
 21
34.999962
  0
LINE
  8
0
  6
PHANTOM
 10
-78.373672
 20
34.999962
 11
-70.373672
 21
34.999962
  0
LINE
  8
0
  6
PHANTOM
 10
-93.373558
 20
34.999851
 11
-92.312897
 21
36.060516
  0
LINE
  8
0
  6
PHANTOM
 10
-78.373627
 20
35.000011
 11
-79.434288
 21
36.060673
  0
LINE
  8
0
  6
PHANTOM
 10
-101.373657
 20
53.999977
 11
-101.373657
 21
52.499977
  0
LINE
  8
0
  6
PHANTOM
 10
-101.373657
 20
52.499962
 11
-99.373657
 21
52.499962
  0
LINE
  8
0
  6
PHANTOM
 10
-101.373657
 20
43.899979
 11
-101.373657
 21
40.599976
  0
LINE
  8
0
  6
PHANTOM
 10
-100.073669
 20
43.099960
 11
-99.373672
 21
43.099960
  0
LINE
  8
0
  6
PHANTOM
 10
-100.573654
 20
43.899979
 11
-100.573654
 21
43.599976
  0
LINE
  8
0
  6
PHANTOM
 10
-101.373672
 20
40.599960
 11
-99.773666
 21
40.599960
  0
LINE
  8
0
  6
PHANTOM
 10
-99.373657
 20
38.683456
 11
-99.373657
 21
37.547325
  0
LINE
  8
0
  6
PHANTOM
 10
-101.373657
 20
37.899979
 11
-101.373657
 21
34.999977
  0
LINE
  8
0
  6
PHANTOM
 10
-101.373688
 20
37.899906
 11
-99.373688
 21
37.547253
  0
LINE
  8
0
  6
PHANTOM
 10
-70.373657
 20
53.999947
 11
-70.373657
 21
52.499947
  0
LINE
  8
0
  6
PHANTOM
 10
-70.373657
 20
52.499962
 11
-72.373657
 21
52.499962
  0
LINE
  8
0
  6
PHANTOM
 10
-70.373657
 20
43.899948
 11
-70.373657
 21
40.599945
  0
LINE
  8
0
  6
PHANTOM
 10
-71.673676
 20
43.099960
 11
-72.373672
 21
43.099960
  0
LINE
  8
0
  6
PHANTOM
 10
-71.173660
 20
43.899948
 11
-71.173660
 21
43.599945
  0
LINE
  8
0
  6
PHANTOM
 10
-70.373672
 20
40.599960
 11
-71.973679
 21
40.599960
  0
LINE
  8
0
  6
PHANTOM
 10
-72.373657
 20
38.683426
 11
-72.373657
 21
37.547295
  0
LINE
  8
0
  6
PHANTOM
 10
-70.373657
 20
37.899948
 11
-70.373657
 21
34.999947
  0
LINE
  8
0
  6
PHANTOM
 10
-70.373672
 20
37.899860
 11
-72.373672
 21
37.547207
  0
LINE
  8
0
  6
PHANTOM
 10
-107.373627
 20
76.499962
 11
-103.873657
 21
76.499962
  0
LINE
  8
0
  6
PHANTOM
 10
-106.373657
 20
53.499962
 11
-102.373657
 21
53.499962
  0
LINE
  8
0
  6
PHANTOM
 10
-69.373657
 20
53.499962
 11
-65.373657
 21
53.499962
  0
LINE
  8
0
  6
PHANTOM
 10
-63.373657
 20
55.499939
 11
-63.373657
 21
75.499939
  0
LINE
  8
0
  6
PHANTOM
 10
-108.373657
 20
55.499985
 11
-108.373657
 21
75.499985
  0
LINE
  8
0
  6
PHANTOM
 10
-102.373657
 20
54.499962
 11
-102.373657
 21
53.499977
  0
LINE
  8
0
  6
PHANTOM
 10
-69.373657
 20
54.499962
 11
-69.373657
 21
53.499947
  0
LINE
  8
0
  6
PHANTOM
 10
-103.373627
 20
76.999962
 11
-68.373627
 21
76.999962
  0
LINE
  8
0
  6
PHANTOM
 10
-68.373627
 20
76.999939
 11
-67.873611
 21
76.499924
  0
LINE
  8
0
  6
PHANTOM
 10
-103.373619
 20
76.999969
 11
-103.873619
 21
76.499962
  0
LINE
  8
0
  6
PHANTOM
 10
-67.873657
 20
76.499962
 11
-64.373627
 21
76.499962
  0
LINE
  8
0
  6
PHANTOM
 10
-220.873566
 20
72.999962
 11
-220.873566
 21
76.499977
  0
LINE
  8
0
  6
PHANTOM
 10
-220.873566
 20
161.499969
 11
-220.873566
 21
142.999969
  0
LINE
  8
0
  6
PHANTOM
 10
-306.978363
 20
58.098297
 11
-290.873566
 21
58.098297
  0
LINE
  8
0
  6
CENTER
 10
45.000000
 20
160.000000
 11
194.999969
 21
160.000000
  0
LINE
  8
0
  6
PHANTOM
 10
170.999969
 20
177.000000
 11
189.999969
 21
177.000000
  0
LINE
  8
0
  6
PHANTOM
 10
170.999969
 20
143.000000
 11
189.999969
 21
143.000000
  0
LINE
  8
0
  6
PHANTOM
 10
50.000000
 20
144.500000
 11
66.000000
 21
144.500000
  0
LINE
  8
0
  6
PHANTOM
 10
50.000000
 20
175.500000
 11
66.000000
 21
175.500000
  0
LINE
  8
0
  6
PHANTOM
 10
51.555042
 20
152.800018
 11
66.000000
 21
152.800018
  0
LINE
  8
0
  6
PHANTOM
 10
48.444958
 20
167.200012
 11
66.000000
 21
167.200012
  0
LINE
  8
0
  6
PHANTOM
 10
154.000000
 20
167.200012
 11
154.500000
 21
167.200012
  0
LINE
  8
0
  6
PHANTOM
 10
154.000000
 20
152.800018
 11
154.500000
 21
152.800018
  0
LINE
  8
0
  6
CENTER
 10
258.000000
 20
44.999969
 11
302.000000
 21
44.999969
  0
LINE
  8
0
  6
CENTER
 10
280.000000
 20
20.999977
 11
280.000000
 21
82.999969
  0
LINE
  8
0
  6
PHANTOM
 10
297.000000
 20
32.999969
 11
297.000000
 21
56.999969
  0
LINE
  8
0
  6
PHANTOM
 10
263.000000
 20
32.999969
 11
263.000000
 21
56.999969
  0
LINE
  8
0
  6
PHANTOM
 10
268.000000
 20
27.999969
 11
292.000000
 21
27.999969
  0
LINE
  8
0
  6
PHANTOM
 10
268.000000
 20
61.999969
 11
292.000000
 21
61.999969
  0
LINE
  8
0
  6
PHANTOM
 10
260.500000
 20
25.999969
 11
270.000000
 21
25.999969
  0
LINE
  8
0
  6
PHANTOM
 10
260.500000
 20
50.749969
 11
260.500000
 21
48.499969
  0
LINE
  8
0
  6
PHANTOM
 10
260.500000
 20
48.499969
 11
263.000000
 21
48.499969
  0
LINE
  8
0
  6
PHANTOM
 10
260.500000
 20
29.599968
 11
260.500000
 21
25.999969
  0
LINE
  8
0
  6
PHANTOM
 10
261.500000
 20
37.499969
 11
261.500000
 21
32.999969
  0
LINE
  8
0
  6
PHANTOM
 10
263.000000
 20
30.668602
 11
263.000000
 21
29.159157
  0
LINE
  8
0
  6
PHANTOM
 10
261.500000
 20
32.999969
 11
262.600006
 21
32.999969
  0
LINE
  8
0
  6
PHANTOM
 10
260.499969
 20
29.599983
 11
263.000000
 21
29.159166
  0
LINE
  8
0
  6
PHANTOM
 10
290.000000
 20
25.999969
 11
299.500000
 21
25.999969
  0
LINE
  8
0
  6
PHANTOM
 10
299.500000
 20
50.749969
 11
299.500000
 21
48.499969
  0
LINE
  8
0
  6
PHANTOM
 10
299.500000
 20
48.499969
 11
297.000000
 21
48.499969
  0
LINE
  8
0
  6
PHANTOM
 10
299.500000
 20
29.599968
 11
299.500000
 21
25.999969
  0
LINE
  8
0
  6
PHANTOM
 10
298.500000
 20
37.499969
 11
298.500000
 21
32.999969
  0
LINE
  8
0
  6
PHANTOM
 10
297.000000
 20
30.668602
 11
297.000000
 21
29.159157
  0
LINE
  8
0
  6
PHANTOM
 10
298.500000
 20
32.999969
 11
297.399994
 21
32.999969
  0
LINE
  8
0
  6
PHANTOM
 10
299.499939
 20
29.600069
 11
296.999908
 21
29.159254
  0
LINE
  8
0
  6
PHANTOM
 10
257.000000
 20
77.999969
 11
303.000000
 21
77.999969
  0
LINE
  8
0
  6
PHANTOM
 10
308.000000
 20
51.999969
 11
308.000000
 21
75.999969
  0
LINE
  8
0
  6
PHANTOM
 10
252.000000
 20
51.999969
 11
252.000000
 21
75.999969
  0
LINE
  8
0
  6
PHANTOM
 10
253.500000
 20
77.499969
 11
256.500000
 21
77.499969
  0
LINE
  8
0
  6
PHANTOM
 10
257.000000
 20
78.000000
 11
256.499969
 21
77.499985
  0
LINE
  8
0
  6
PHANTOM
 10
302.999969
 20
77.999931
 11
303.499939
 21
77.499962
  0
LINE
  8
0
  6
PHANTOM
 10
254.500000
 20
49.499969
 11
259.500000
 21
49.499969
  0
LINE
  8
0
  6
PHANTOM
 10
300.500000
 20
49.499969
 11
305.500000
 21
49.499969
  0
LINE
  8
0
  6
PHANTOM
 10
259.500000
 20
51.099968
 11
259.500000
 21
49.499969
  0
LINE
  8
0
  6
PHANTOM
 10
300.500000
 20
51.099968
 11
300.500000
 21
49.499969
  0
LINE
  8
0
  6
PHANTOM
 10
66.000000
 20
187.500000
 11
66.000000
 21
132.500000
  0
LINE
  8
0
  6
PHANTOM
 10
73.000000
 20
188.000000
 11
73.000000
 21
132.000000
  0
LINE
  8
0
  6
PHANTOM
 10
147.000000
 20
188.000000
 11
147.000000
 21
132.000000
  0
LINE
  8
0
  6
PHANTOM
 10
154.000000
 20
187.500000
 11
154.000000
 21
164.499969
  0
LINE
  8
0
  6
CENTER
 10
110.000000
 20
193.000000
 11
110.000000
 21
127.000008
  0
LINE
  8
0
  6
PHANTOM
 10
73.000000
 20
132.000000
 11
147.000000
 21
132.000000
  0
LINE
  8
0
  6
PHANTOM
 10
73.000000
 20
188.000000
 11
147.000000
 21
188.000000
  0
LINE
  8
0
  6
PHANTOM
 10
66.000000
 20
187.500000
 11
73.000000
 21
187.500000
  0
LINE
  8
0
  6
PHANTOM
 10
66.000000
 20
132.500000
 11
73.000000
 21
132.500000
  0
LINE
  8
0
  6
PHANTOM
 10
147.000000
 20
132.500000
 11
154.000000
 21
132.500000
  0
LINE
  8
0
  6
PHANTOM
 10
147.000000
 20
187.500000
 11
154.000000
 21
187.500000
  0
LINE
  8
0
  6
PHANTOM
 10
154.000000
 20
175.500000
 11
154.500000
 21
175.500000
  0
LINE
  8
0
  6
PHANTOM
 10
154.000000
 20
144.500000
 11
154.500000
 21
144.500000
  0
LINE
  8
0
  6
CENTER
 10
45.000000
 20
45.000000
 11
195.000000
 21
45.000000
  0
LINE
  8
0
  6
PHANTOM
 10
190.000000
 20
28.000000
 11
190.000000
 21
62.000000
  0
LINE
  8
0
  6
PHANTOM
 10
171.000000
 20
26.000000
 11
171.000000
 21
51.099968
  0
LINE
  8
0
  6
PHANTOM
 10
171.000000
 20
62.000000
 11
190.000000
 21
62.000000
  0
LINE
  8
0
  6
PHANTOM
 10
171.000000
 20
28.000000
 11
190.000000
 21
28.000000
  0
LINE
  8
0
  6
PHANTOM
 10
50.000000
 20
26.000000
 11
171.000000
 21
26.000000
  0
LINE
  8
0
  6
PHANTOM
 10
50.000000
 20
60.500000
 11
66.000000
 21
60.500000
  0
LINE
  8
0
  6
CENTER
 10
110.000000
 20
21.000008
 11
110.000000
 21
82.999969
  0
LINE
  8
0
  6
PHANTOM
 10
73.000000
 20
77.999969
 11
147.000000
 21
77.999969
  0
LINE
  8
0
  6
PHANTOM
 10
66.000000
 20
77.499969
 11
154.000000
 21
77.499969
  0
LINE
  8
0
  6
PHANTOM
 10
66.000000
 20
49.499969
 11
154.000000
 21
49.499969
  0
LINE
  8
0
  6
PHANTOM
 10
154.000000
 20
49.499969
 11
154.000000
 21
64.999969
  0
LINE
  8
0
  6
PHANTOM
 10
66.000000
 20
49.499969
 11
66.000000
 21
77.499969
  0
LINE
  8
0
  6
PHANTOM
 10
73.000000
 20
49.499969
 11
73.000000
 21
77.999969
  0
LINE
  8
0
  6
PHANTOM
 10
147.000000
 20
49.499969
 11
147.000000
 21
77.999969
  0
LINE
  8
0
  6
PHANTOM
 10
154.000000
 20
60.500000
 11
154.500000
 21
60.500000
  0
LINE
  8
0
  6
PHANTOM
 10
49.009636
 20
57.499969
 11
66.000000
 21
57.499969
  0
LINE
  8
0
  6
PHANTOM
 10
48.537647
 20
50.749969
 11
66.000000
 21
50.749969
  0
LINE
  8
0
  6
PHANTOM
 10
48.894180
 20
48.499969
 11
171.000000
 21
48.499969
  0
LINE
  8
0
  6
PHANTOM
 10
52.203320
 20
38.299965
 11
171.000000
 21
38.299965
  0
LINE
  8
0
  6
PHANTOM
 10
52.243416
 20
32.999969
 11
171.000000
 21
32.999969
  0
LINE
  8
0
  6
PHANTOM
 10
51.807953
 20
30.668602
 11
171.000000
 21
30.668602
  0
LINE
  8
0
  6
PHANTOM
 10
51.510220
 20
29.599968
 11
171.000000
 21
29.599968
  0
LINE
  8
0
  6
PHANTOM
 10
154.000000
 20
57.499969
 11
154.500000
 21
57.499969
  0
LINE
  8
0
  6
PHANTOM
 10
154.000000
 20
50.749969
 11
171.000000
 21
50.749969
  0
LINE
  8
0
  6
PHANTOM
 10
73.000000
 20
137.000000
 11
147.000000
 21
137.000000
  0
LINE
  8
0
  6
PHANTOM
 10
73.000000
 20
183.000000
 11
147.000000
 21
183.000000
  0
LINE
  8
0
  6
PHANTOM
 10
303.499969
 20
77.499969
 11
306.500000
 21
77.499969
  0
LINE
  8
0
  6
PHANTOM
 10
189.999969
 20
143.000000
 11
189.999969
 21
177.000000
  0
LINE
  8
0
  6
PHANTOM
 10
154.000000
 20
155.499969
 11
154.000000
 21
132.500000
  0
LINE
  8
0
  6
PHANTOM
 10
154.000000
 20
73.999969
 11
154.000000
 21
77.499969
  0
LINE
  8
0
  6
PHANTOM
 10
48.586609
 20
55.188499
 11
66.000000
 21
55.188499
  0
LINE
  8
0
  6
CENTER
 10
-200.873566
 20
-204.558487
 11
-20.873581
 21
-204.558487
  0
LINE
  8
0
  6
PHANTOM
 10
-25.873581
 20
-184.558487
 11
-25.873581
 21
-224.558487
  0
LINE
  8
0
  6
PHANTOM
 10
-48.873581
 20
-184.558487
 11
-25.873581
 21
-184.558487
  0
LINE
  8
0
  6
PHANTOM
 10
-48.873581
 20
-224.558487
 11
-25.873581
 21
-224.558487
  0
LINE
  8
0
  6
PHANTOM
 10
-195.873566
 20
-226.558487
 11
-48.873581
 21
-226.558487
  0
LINE
  8
0
  6
PHANTOM
 10
-195.873566
 20
-186.558487
 11
-178.373581
 21
-186.558487
  0
LINE
  8
0
  6
CENTER
 10
-125.873566
 20
-161.558487
 11
-125.873566
 21
-231.558502
  0
LINE
  8
0
  6
CENTER
 10
-200.873566
 20
-74.558495
 11
-20.873520
 21
-74.558495
  0
LINE
  8
0
  6
PHANTOM
 10
-25.873520
 20
-54.558502
 11
-25.873520
 21
-94.558502
  0
LINE
  8
0
  6
PHANTOM
 10
-48.873520
 20
-54.558502
 11
-25.873520
 21
-54.558502
  0
LINE
  8
0
  6
PHANTOM
 10
-48.873520
 20
-94.558502
 11
-25.873520
 21
-94.558502
  0
LINE
  8
0
  6
PHANTOM
 10
-195.873566
 20
-56.558495
 11
-178.373581
 21
-56.558495
  0
LINE
  8
0
  6
PHANTOM
 10
-195.873566
 20
-92.558495
 11
-178.373581
 21
-92.558495
  0
LINE
  8
0
  6
PHANTOM
 10
-194.262253
 20
-81.758499
 11
-178.373581
 21
-81.758499
  0
LINE
  8
0
  6
PHANTOM
 10
-197.484879
 20
-67.358498
 11
-178.373581
 21
-67.358498
  0
LINE
  8
0
  6
CENTER
 10
-125.873520
 20
-37.058487
 11
-125.873520
 21
-112.058502
  0
LINE
  8
0
  6
CENTER
 10
109.126389
 20
-161.558502
 11
109.126389
 21
-231.558502
  0
LINE
  8
0
  6
CENTER
 10
84.126389
 20
-204.558502
 11
134.126389
 21
-204.558502
  0
LINE
  8
0
  6
PHANTOM
 10
89.126389
 20
-191.058502
 11
89.126389
 21
-218.058502
  0
LINE
  8
0
  6
PHANTOM
 10
129.126389
 20
-191.058502
 11
129.126389
 21
-218.058502
  0
LINE
  8
0
  6
PHANTOM
 10
95.626389
 20
-184.558502
 11
122.626389
 21
-184.558502
  0
LINE
  8
0
  6
PHANTOM
 10
95.626389
 20
-224.558502
 11
122.626389
 21
-224.558502
  0
LINE
  8
0
  6
PHANTOM
 10
-170.873581
 20
-166.558487
 11
-80.873581
 21
-166.558487
  0
LINE
  8
0
  6
PHANTOM
 10
-73.373581
 20
-167.058487
 11
-73.373581
 21
-200.558487
  0
LINE
  8
0
  6
PHANTOM
 10
-178.373581
 20
-167.058487
 11
-178.373581
 21
-200.558487
  0
LINE
  8
0
  6
PHANTOM
 10
-178.373581
 20
-167.058487
 11
-170.873581
 21
-167.058487
  0
LINE
  8
0
  6
PHANTOM
 10
-80.873581
 20
-167.058487
 11
-73.373581
 21
-167.058487
  0
LINE
  8
0
  6
PHANTOM
 10
-170.873581
 20
-166.558487
 11
-170.873581
 21
-200.558487
  0
LINE
  8
0
  6
PHANTOM
 10
-80.873581
 20
-166.558487
 11
-80.873581
 21
-200.558487
  0
LINE
  8
0
  6
PHANTOM
 10
-178.373581
 20
-200.558487
 11
-73.373581
 21
-200.558487
  0
LINE
  8
0
  6
PHANTOM
 10
-73.373581
 20
-186.558487
 11
-69.873581
 21
-186.558487
  0
LINE
  8
0
  6
PHANTOM
 10
-70.873581
 20
-169.558487
 11
-70.873581
 21
-171.558487
  0
LINE
  8
0
  6
PHANTOM
 10
-72.873581
 20
-169.558487
 11
-72.873581
 21
-183.558487
  0
LINE
  8
0
  6
PHANTOM
 10
-72.873581
 20
-169.558487
 11
-70.873581
 21
-169.558487
  0
LINE
  8
0
  6
PHANTOM
 10
-72.873581
 20
-183.558487
 11
-70.873581
 21
-183.558487
  0
LINE
  8
0
  6
PHANTOM
 10
-73.373581
 20
-181.558487
 11
-72.873581
 21
-181.558487
  0
LINE
  8
0
  6
PHANTOM
 10
-73.373581
 20
-171.558487
 11
-72.873581
 21
-171.558487
  0
LINE
  8
0
  6
CENTER
 10
-167.873581
 20
-176.558487
 11
-183.873581
 21
-176.558487
  0
LINE
  8
0
  6
PHANTOM
 10
-178.873581
 20
-169.558487
 11
-178.873581
 21
-183.558487
  0
LINE
  8
0
  6
PHANTOM
 10
-178.373581
 20
-171.558487
 11
-178.873581
 21
-171.558487
  0
LINE
  8
0
  6
PHANTOM
 10
-178.373581
 20
-181.558487
 11
-178.873581
 21
-181.558487
  0
LINE
  8
0
  6
PHANTOM
 10
-178.873581
 20
-183.558487
 11
-180.873581
 21
-183.558487
  0
LINE
  8
0
  6
PHANTOM
 10
-180.873581
 20
-169.558487
 11
-180.873581
 21
-183.558487
  0
LINE
  8
0
  6
PHANTOM
 10
-178.873581
 20
-169.558487
 11
-180.873581
 21
-169.558487
  0
LINE
  8
0
  6
PHANTOM
 10
-180.873581
 20
-67.558495
 11
-180.873581
 21
-81.558495
  0
LINE
  8
0
  6
PHANTOM
 10
-178.873581
 20
-67.558495
 11
-178.873581
 21
-81.558495
  0
LINE
  8
0
  6
PHANTOM
 10
-178.373581
 20
-42.558487
 11
-178.373581
 21
-106.558495
  0
LINE
  8
0
  6
PHANTOM
 10
-170.873581
 20
-42.058487
 11
-170.873581
 21
-107.058495
  0
LINE
  8
0
  6
PHANTOM
 10
-80.873581
 20
-42.058487
 11
-80.873581
 21
-107.058495
  0
LINE
  8
0
  6
PHANTOM
 10
-73.373581
 20
-42.558487
 11
-73.373581
 21
-106.558495
  0
LINE
  8
0
  6
PHANTOM
 10
-170.873581
 20
-107.058495
 11
-80.873581
 21
-107.058495
  0
LINE
  8
0
  6
PHANTOM
 10
-170.873581
 20
-42.058487
 11
-80.873581
 21
-42.058487
  0
LINE
  8
0
  6
PHANTOM
 10
-73.373581
 20
-92.558495
 11
-69.873581
 21
-92.558495
  0
LINE
  8
0
  6
PHANTOM
 10
-73.373581
 20
-56.558495
 11
-69.873581
 21
-56.558495
  0
LINE
  8
0
  6
PHANTOM
 10
-178.373581
 20
-42.558487
 11
-170.873581
 21
-42.558487
  0
LINE
  8
0
  6
PHANTOM
 10
-178.373581
 20
-106.558495
 11
-170.873581
 21
-106.558495
  0
LINE
  8
0
  6
PHANTOM
 10
-80.873581
 20
-106.558495
 11
-73.373581
 21
-106.558495
  0
LINE
  8
0
  6
PHANTOM
 10
-80.873581
 20
-42.558487
 11
-73.373581
 21
-42.558487
  0
LINE
  8
0
  6
PHANTOM
 10
-170.873581
 20
-99.558495
 11
-80.873581
 21
-99.558495
  0
LINE
  8
0
  6
PHANTOM
 10
-170.873581
 20
-49.558487
 11
-80.873581
 21
-49.558487
  0
LINE
  8
0
  6
PHANTOM
 10
-180.873581
 20
-67.558495
 11
-178.873581
 21
-67.558495
  0
LINE
  8
0
  6
PHANTOM
 10
-180.873581
 20
-81.558495
 11
-178.873581
 21
-81.558495
  0
LINE
  8
0
  6
PHANTOM
 10
-178.873581
 20
-79.558495
 11
-178.373581
 21
-79.558495
  0
LINE
  8
0
  6
PHANTOM
 10
-178.873581
 20
-69.558495
 11
-178.373581
 21
-69.558495
  0
LINE
  8
0
  6
PHANTOM
 10
-70.873459
 20
-81.558495
 11
-72.873459
 21
-81.558495
  0
LINE
  8
0
  6
PHANTOM
 10
-72.873459
 20
-79.558495
 11
-73.373459
 21
-79.558495
  0
LINE
  8
0
  6
PHANTOM
 10
-70.873459
 20
-67.558495
 11
-72.873459
 21
-67.558495
  0
LINE
  8
0
  6
PHANTOM
 10
-70.873459
 20
-67.558495
 11
-70.873459
 21
-69.558495
  0
LINE
  8
0
  6
PHANTOM
 10
-72.873459
 20
-67.558495
 11
-72.873459
 21
-81.558495
  0
LINE
  8
0
  6
PHANTOM
 10
-72.873459
 20
-69.558495
 11
-73.373459
 21
-69.558495
  0
LINE
  8
0
  6
PHANTOM
 10
-73.373581
 20
-67.358498
 11
-69.873581
 21
-67.358498
  0
LINE
  8
0
  6
PHANTOM
 10
-73.373581
 20
-81.758499
 11
-69.873581
 21
-81.758499
  0
LINE
  8
0
  6
PHANTOM
 10
84.126389
 20
-166.558502
 11
134.126389
 21
-166.558502
  0
LINE
  8
0
  6
PHANTOM
 10
87.126389
 20
-226.558502
 11
97.126389
 21
-226.558502
  0
LINE
  8
0
  6
PHANTOM
 10
87.126389
 20
-199.786713
 11
87.126389
 21
-202.058502
  0
LINE
  8
0
  6
PHANTOM
 10
87.126389
 20
-202.058502
 11
89.126389
 21
-202.058502
  0
LINE
  8
0
  6
PHANTOM
 10
87.126389
 20
-213.058502
 11
87.126389
 21
-217.158508
  0
LINE
  8
0
 10
88.726395
 20
-213.058502
 11
88.726395
 21
-213.058502
  0
LINE
  8
0
  6
PHANTOM
 10
87.126389
 20
-222.258514
 11
87.126389
 21
-226.558502
  0
LINE
  8
0
  6
PHANTOM
 10
90.126389
 20
-221.522614
 11
90.126389
 21
-222.787476
  0
LINE
  8
0
  6
PHANTOM
 10
87.126389
 20
-222.258499
 11
90.126389
 21
-222.787476
  0
LINE
  8
0
  6
PHANTOM
 10
131.126389
 20
-199.786713
 11
131.126389
 21
-202.058502
  0
LINE
  8
0
  6
PHANTOM
 10
131.126389
 20
-202.058502
 11
129.126389
 21
-202.058502
  0
LINE
  8
0
  6
PHANTOM
 10
131.126389
 20
-213.058502
 11
131.126389
 21
-217.158508
  0
LINE
  8
0
  6
PHANTOM
 10
131.126389
 20
-222.258514
 11
131.126389
 21
-226.558502
  0
LINE
  8
0
  6
PHANTOM
 10
128.126389
 20
-221.522614
 11
128.126389
 21
-222.787476
  0
LINE
  8
0
  6
PHANTOM
 10
131.126389
 20
-222.258469
 11
128.126373
 21
-222.787460
  0
LINE
  8
0
  6
PHANTOM
 10
121.126389
 20
-226.558502
 11
131.126389
 21
-226.558502
  0
LINE
  8
0
  6
PHANTOM
 10
141.626389
 20
-168.058502
 11
141.626389
 21
-197.558502
  0
LINE
  8
0
  6
PHANTOM
 10
76.626389
 20
-168.058502
 11
76.626389
 21
-197.558502
  0
LINE
  8
0
  6
PHANTOM
 10
77.626389
 20
-167.058502
 11
83.626389
 21
-167.058502
  0
LINE
  8
0
  6
PHANTOM
 10
84.126373
 20
-166.558487
 11
83.626373
 21
-167.058487
  0
LINE
  8
0
  6
PHANTOM
 10
134.126373
 20
-166.558502
 11
134.626358
 21
-167.058487
  0
LINE
  8
0
  6
PHANTOM
 10
79.626389
 20
-200.558502
 11
86.126389
 21
-200.558502
  0
LINE
  8
0
  6
PHANTOM
 10
86.126389
 20
-199.786713
 11
86.126389
 21
-200.558502
  0
LINE
  8
0
  6
PHANTOM
 10
132.126389
 20
-199.786713
 11
132.126389
 21
-200.558502
  0
LINE
  8
0
  6
PHANTOM
 10
132.126389
 20
-200.558502
 11
138.626389
 21
-200.558502
  0
LINE
  8
0
  6
PHANTOM
 10
-197.044662
 20
-190.558502
 11
-178.373581
 21
-190.558502
  0
LINE
  8
0
  6
PHANTOM
 10
-196.689972
 20
-202.058502
 11
-48.873581
 21
-202.058502
  0
LINE
  8
0
  6
PHANTOM
 10
-197.330994
 20
-198.858490
 11
-178.373581
 21
-198.858490
  0
LINE
  8
0
  6
PHANTOM
 10
-197.458694
 20
-193.426544
 11
-178.373581
 21
-193.426544
  0
LINE
  8
0
  6
PHANTOM
 10
-193.542267
 20
-212.258514
 11
-48.873581
 21
-212.258514
  0
LINE
  8
0
  6
PHANTOM
 10
-193.438980
 20
-217.958496
 11
-48.873581
 21
-217.958496
  0
LINE
  8
0
  6
PHANTOM
 10
-194.238037
 20
-222.258514
 11
-48.873581
 21
-222.258514
  0
LINE
  8
0
  6
PHANTOM
 10
-73.373581
 20
-190.558502
 11
-69.873581
 21
-190.558502
  0
LINE
  8
0
  6
PHANTOM
 10
-73.373581
 20
-193.426544
 11
-69.873581
 21
-193.426544
  0
LINE
  8
0
  6
PHANTOM
 10
-73.373581
 20
-198.858490
 11
-48.873581
 21
-198.858490
  0
LINE
  8
0
  6
PHANTOM
 10
134.626373
 20
-167.058502
 11
140.626389
 21
-167.058502
  0
LINE
  8
0
  6
PHANTOM
 10
-48.873581
 20
-198.358505
 11
-48.873581
 21
-226.558487
  0
LINE
  8
0
  6
PHANTOM
 10
-70.873581
 20
-181.558487
 11
-70.873581
 21
-183.558487
  0
LINE
  8
0
  6
PHANTOM
 10
-70.873459
 20
-79.558495
 11
-70.873459
 21
-81.558495
  0
LINE
  8
0
 10
-220.873535
 20
65.999962
 11
-220.373535
 21
65.999962
  0
LINE
  8
0
 10
-220.873535
 20
72.999962
 11
-220.373535
 21
72.999962
  0
LINE
  8
0
 10
-206.123566
 20
68.499954
 11
-206.123566
 21
71.199966
  0
LINE
  8
0
 10
-211.623566
 20
68.499962
 11
-211.623566
 21
71.199966
  0
LINE
  8
0
 10
-200.673584
 20
74.499939
 11
-199.873581
 21
73.114296
  0
LINE
  8
0
 10
-200.673569
 20
64.499977
 11
-199.873581
 21
65.885612
  0
LINE
  8
0
 10
-200.673569
 20
64.499954
 11
-200.673569
 21
74.499954
  0
LINE
  8
0
 10
-199.873566
 20
65.885582
 11
-199.873566
 21
73.114311
  0
LINE
  8
0
 10
-220.873566
 20
65.999969
 11
-220.873566
 21
72.999969
  0
LINE
  8
0
 10
-211.623611
 20
71.199989
 11
-211.323624
 21
71.499992
  0
LINE
  8
0
 10
-205.873550
 20
73.958961
 11
-200.361206
 21
73.958961
  0
LINE
  8
0
 10
-205.873550
 20
65.040962
 11
-200.361191
 21
65.040962
  0
LINE
  8
0
 10
-206.123581
 20
71.199959
 11
-206.423584
 21
71.499954
  0
LINE
  8
0
 10
-205.873550
 20
74.499962
 11
-200.673553
 21
74.499962
  0
LINE
  8
0
 10
-205.873566
 20
64.499962
 11
-200.673569
 21
64.499962
  0
LINE
  8
0
 10
-220.373566
 20
54.499962
 11
-205.873566
 21
54.499962
  0
LINE
  8
0
 10
-220.373535
 20
74.719116
 11
-205.873550
 21
74.719116
  0
LINE
  8
0
 10
-214.623566
 20
68.499962
 11
-214.623566
 21
71.199966
  0
LINE
  8
0
 10
-214.623566
 20
71.199959
 11
-214.923584
 21
71.499962
  0
LINE
  8
0
 10
-220.123535
 20
71.199966
 11
-214.623550
 21
71.199966
  0
LINE
  8
0
 10
-219.823547
 20
71.499962
 11
-214.923553
 21
71.499962
  0
LINE
  8
0
 10
-220.123566
 20
71.199966
 11
-219.823563
 21
71.499962
  0
LINE
  8
0
 10
-220.123566
 20
68.499969
 11
-220.123566
 21
71.199966
  0
LINE
  8
0
 10
-220.373535
 20
76.499962
 11
-205.873550
 21
76.499962
  0
LINE
  8
0
 10
-220.373535
 20
72.999962
 11
-205.873550
 21
72.999962
  0
LINE
  8
0
 10
-220.373535
 20
68.499962
 11
-205.873550
 21
68.499962
  0
LINE
  8
0
 10
-220.373566
 20
59.499962
 11
-205.873566
 21
59.499962
  0
LINE
  8
0
 10
-220.373566
 20
54.499966
 11
-220.373566
 21
76.499969
  0
LINE
  8
0
 10
-205.873566
 20
54.499958
 11
-205.873566
 21
76.499954
  0
LINE
  8
0
 10
-211.323547
 20
71.499962
 11
-206.423553
 21
71.499962
  0
LINE
  8
0
 10
-211.623550
 20
71.199966
 11
-206.123550
 21
71.199966
  0
LINE
  8
0
  6
CENTER
 10
-217.373566
 20
56.499966
 11
-217.373566
 21
74.499969
  0
LINE
  8
0
  6
CENTER
 10
-208.873566
 20
56.499958
 11
-208.873566
 21
74.499954
  0
LINE
  8
0
  6
CENTER
 10
-223.873535
 20
69.499962
 11
-196.873550
 21
69.499962
  0
LINE
  8
0
 10
-207.623550
 20
147.721634
 11
-208.873535
 21
148.443314
  0
LINE
  8
0
 10
-207.623581
 20
146.278275
 11
-207.623581
 21
147.721649
  0
LINE
  8
0
 10
-205.873581
 20
142.999985
 11
-205.873581
 21
186.999985
  0
LINE
  8
0
 10
-220.873596
 20
168.499969
 11
-220.373596
 21
168.499969
  0
LINE
  8
0
 10
-220.873596
 20
161.499969
 11
-220.373596
 21
161.499969
  0
LINE
  8
0
 10
-200.673569
 20
170.000000
 11
-199.873550
 21
168.614349
  0
LINE
  8
0
 10
-200.673676
 20
160.000061
 11
-199.873672
 21
161.385712
  0
LINE
  8
0
 10
-200.673569
 20
169.999985
 11
-200.673569
 21
159.999985
  0
LINE
  8
0
 10
-199.873566
 20
168.614334
 11
-199.873566
 21
161.385605
  0
LINE
  8
0
 10
-220.373596
 20
142.999954
 11
-220.373596
 21
186.999954
  0
LINE
  8
0
 10
-220.373566
 20
142.999969
 11
-205.873550
 21
142.999969
  0
LINE
  8
0
 10
-220.373627
 20
186.999969
 11
-205.873611
 21
186.999969
  0
LINE
  8
0
 10
-220.373596
 20
156.749969
 11
-205.873566
 21
156.749969
  0
LINE
  8
0
 10
-220.373596
 20
173.249969
 11
-205.873596
 21
173.249969
  0
LINE
  8
0
 10
-220.373596
 20
150.249969
 11
-205.873566
 21
150.249969
  0
LINE
  8
0
 10
-220.373596
 20
179.749969
 11
-205.873596
 21
179.749969
  0
LINE
  8
0
 10
-208.873550
 20
148.443314
 11
-210.123550
 21
147.721634
  0
LINE
  8
0
 10
-220.873596
 20
161.499954
 11
-220.873596
 21
168.499954
  0
LINE
  8
0
 10
-218.623627
 20
182.278336
 11
-217.373642
 21
181.556656
  0
LINE
  8
0
 10
-217.373611
 20
181.556610
 11
-216.123611
 21
182.278305
  0
LINE
  8
0
 10
-216.123596
 20
182.278275
 11
-216.123596
 21
183.721649
  0
LINE
  8
0
 10
-216.123596
 20
183.721680
 11
-217.373581
 21
184.443359
  0
LINE
  8
0
 10
-217.373672
 20
184.443481
 11
-218.623672
 21
183.721802
  0
LINE
  8
0
 10
-218.623596
 20
183.721649
 11
-218.623596
 21
182.278275
  0
LINE
  8
0
 10
-205.873581
 20
169.999969
 11
-200.673569
 21
169.999969
  0
LINE
  8
0
 10
-214.373581
 20
177.221649
 11
-214.373581
 21
175.778275
  0
LINE
  8
0
 10
-213.123657
 20
177.943466
 11
-214.373657
 21
177.221786
  0
LINE
  8
0
 10
-211.873596
 20
177.221695
 11
-213.123581
 21
177.943375
  0
LINE
  8
0
 10
-205.873581
 20
159.999969
 11
-200.673569
 21
159.999969
  0
LINE
  8
0
 10
-211.873581
 20
175.778275
 11
-211.873581
 21
177.221649
  0
LINE
  8
0
 10
-213.123596
 20
175.056641
 11
-211.873596
 21
175.778320
  0
LINE
  8
0
 10
-214.373627
 20
175.778351
 11
-213.123642
 21
175.056671
  0
LINE
  8
0
 10
-216.123459
 20
146.278152
 11
-217.373474
 21
145.556458
  0
LINE
  8
0
 10
-217.373581
 20
145.556564
 11
-218.623581
 21
146.278259
  0
LINE
  8
0
 10
-218.623596
 20
146.278275
 11
-218.623596
 21
147.721649
  0
LINE
  8
0
 10
-218.623474
 20
147.721512
 11
-217.373474
 21
148.443192
  0
LINE
  8
0
 10
-217.373611
 20
148.443375
 11
-216.123566
 21
147.721664
  0
LINE
  8
0
 10
-216.123596
 20
147.721649
 11
-216.123596
 21
146.278275
  0
LINE
  8
0
 10
-205.873581
 20
169.458969
 11
-200.361221
 21
169.458969
  0
LINE
  8
0
 10
-205.873581
 20
160.540970
 11
-200.361206
 21
160.540970
  0
LINE
  8
0
 10
-210.123474
 20
183.721542
 11
-208.873489
 21
184.443222
  0
LINE
  8
0
 10
-208.873596
 20
184.443390
 11
-207.623596
 21
183.721695
  0
LINE
  8
0
 10
-207.623581
 20
183.721649
 11
-207.623581
 21
182.278275
  0
LINE
  8
0
 10
-207.623505
 20
182.278183
 11
-208.873520
 21
181.556488
  0
LINE
  8
0
 10
-208.873596
 20
181.556625
 11
-210.123596
 21
182.278320
  0
LINE
  8
0
 10
-210.123581
 20
182.278275
 11
-210.123581
 21
183.721649
  0
LINE
  8
0
 10
-210.123581
 20
147.721649
 11
-210.123581
 21
146.278275
  0
LINE
  8
0
 10
-210.123550
 20
146.278275
 11
-208.873566
 21
145.556595
  0
LINE
  8
0
 10
-208.873642
 20
145.556671
 11
-207.623627
 21
146.278366
  0
LINE
  8
0
  6
CENTER
 10
-217.373596
 20
142.499969
 11
-217.373596
 21
151.499969
  0
LINE
  8
0
  6
CENTER
 10
-208.873581
 20
142.499969
 11
-208.873581
 21
151.499969
  0
LINE
  8
0
  6
CENTER
 10
-221.873566
 20
146.999969
 11
-204.373550
 21
146.999969
  0
LINE
  8
0
  6
CENTER
 10
-217.623596
 20
176.499969
 11
-208.623596
 21
176.499969
  0
LINE
  8
0
  6
CENTER
 10
-213.123581
 20
180.999969
 11
-213.123581
 21
171.999969
  0
LINE
  8
0
  6
CENTER
 10
-217.373596
 20
187.499969
 11
-217.373596
 21
178.499969
  0
LINE
  8
0
  6
CENTER
 10
-208.873581
 20
187.499969
 11
-208.873581
 21
178.499969
  0
LINE
  8
0
  6
CENTER
 10
-221.873627
 20
182.999969
 11
-204.373611
 21
182.999969
  0
LINE
  8
0
 10
-106.623657
 20
68.499954
 11
-106.623657
 21
71.199959
  0
LINE
  8
0
 10
-106.623672
 20
71.199974
 11
-106.323677
 21
71.499969
  0
LINE
  8
0
 10
-75.603149
 20
68.999969
 11
-75.603149
 21
69.999969
  0
LINE
  8
0
 10
-73.144165
 20
68.999969
 11
-73.144165
 21
69.999969
  0
LINE
  8
0
 10
-106.323662
 20
71.499962
 11
-101.423668
 21
71.499962
  0
LINE
  8
0
 10
-106.623665
 20
71.199966
 11
-101.123665
 21
71.199966
  0
LINE
  8
0
 10
-101.123672
 20
71.199974
 11
-101.423668
 21
71.499969
  0
LINE
  8
0
 10
-101.123657
 20
68.499954
 11
-101.123657
 21
71.199966
  0
LINE
  8
0
 10
-83.373657
 20
70.943336
 11
-85.873657
 21
72.386711
  0
LINE
  8
0
 10
-88.373657
 20
68.056602
 11
-85.873665
 21
66.613228
  0
LINE
  8
0
 10
-85.873672
 20
66.613220
 11
-83.373672
 21
68.056595
  0
LINE
  8
0
 10
-71.251144
 20
54.499962
 11
-65.373657
 21
54.499962
  0
LINE
  8
0
 10
-77.623657
 20
72.999969
 11
-77.623657
 21
74.062347
  0
LINE
  8
0
 10
-94.123657
 20
72.999954
 11
-94.123657
 21
74.062347
  0
LINE
  8
0
 10
-77.623665
 20
72.999962
 11
-71.623665
 21
72.999962
  0
LINE
  8
0
 10
-99.623665
 20
72.999962
 11
-94.123665
 21
72.999962
  0
LINE
  8
0
 10
-100.373657
 20
61.999962
 11
-98.227753
 21
61.999962
  0
LINE
  8
0
 10
-107.873657
 20
59.499962
 11
-106.373657
 21
59.499962
  0
LINE
  8
0
 10
-63.873657
 20
55.999969
 11
-63.873657
 21
67.499969
  0
LINE
  8
0
 10
-107.873657
 20
55.999954
 11
-107.873657
 21
67.499954
  0
LINE
  8
0
 10
-65.373657
 20
59.499962
 11
-63.873657
 21
59.499962
  0
LINE
  8
0
 10
-65.373657
 20
59.499969
 11
-65.373657
 21
61.499969
  0
LINE
  8
0
 10
-106.373657
 20
59.499954
 11
-106.373657
 21
61.499954
  0
LINE
  8
0
 10
-71.373657
 20
62.299965
 11
-66.173660
 21
62.299965
  0
LINE
  8
0
 10
-71.373657
 20
61.999966
 11
-71.373657
 21
62.299969
  0
LINE
  8
0
 10
-100.373657
 20
61.999958
 11
-100.373657
 21
62.299961
  0
LINE
  8
0
 10
-105.573654
 20
62.299965
 11
-100.373657
 21
62.299965
  0
LINE
  8
0
 10
-73.519547
 20
61.999962
 11
-71.373657
 21
61.999962
  0
LINE
  8
0
 10
-100.623657
 20
68.499954
 11
-100.623657
 21
71.999954
  0
LINE
  8
0
 10
-71.123657
 20
68.499969
 11
-71.123657
 21
68.999969
  0
LINE
  8
0
 10
-71.123665
 20
68.499962
 11
-64.873665
 21
68.499962
  0
LINE
  8
0
 10
-106.873665
 20
68.499962
 11
-100.623665
 21
68.499962
  0
LINE
  8
0
 10
-83.373657
 20
68.056580
 11
-83.373657
 21
70.943329
  0
LINE
  8
0
 10
-80.898720
 20
69.999962
 11
-71.123665
 21
69.999962
  0
LINE
  8
0
 10
-80.898720
 20
68.999962
 11
-71.123665
 21
68.999962
  0
LINE
  8
0
 10
-71.123657
 20
69.999969
 11
-71.123657
 21
71.999969
  0
LINE
  8
0
 10
-88.373657
 20
70.943344
 11
-88.373657
 21
68.056595
  0
LINE
  8
0
 10
-70.373657
 20
61.499962
 11
-65.373657
 21
61.499962
  0
LINE
  8
0
 10
-70.373657
 20
59.999966
 11
-70.373657
 21
61.499966
  0
LINE
  8
0
 10
-72.373665
 20
58.845249
 11
-70.373672
 21
59.999943
  0
LINE
  8
0
 10
-101.373657
 20
59.999958
 11
-101.373657
 21
61.499958
  0
LINE
  8
0
 10
-99.373672
 20
58.845264
 11
-101.373665
 21
59.999954
  0
LINE
  8
0
 10
-101.373657
 20
61.499962
 11
-106.373657
 21
61.499962
  0
LINE
  8
0
 10
-100.496170
 20
54.499962
 11
-106.373657
 21
54.499962
  0
LINE
  8
0
 10
-105.373657
 20
61.499958
 11
-105.373657
 21
62.299961
  0
LINE
  8
0
 10
-102.373657
 20
61.499958
 11
-102.373657
 21
62.299961
  0
LINE
  8
0
 10
-102.644165
 20
61.499958
 11
-102.644165
 21
62.299961
  0
LINE
  8
0
 10
-105.103149
 20
61.499958
 11
-105.103149
 21
62.299961
  0
LINE
  8
0
 10
-85.873672
 20
72.386711
 11
-88.373672
 21
70.943336
  0
LINE
  8
0
 10
-71.923668
 20
75.999962
 11
-76.823662
 21
75.999962
  0
LINE
  8
0
 10
-71.623665
 20
75.699966
 11
-77.123665
 21
75.699966
  0
LINE
  8
0
 10
-71.623657
 20
72.999969
 11
-71.623657
 21
75.699966
  0
LINE
  8
0
 10
-77.123657
 20
72.999969
 11
-77.123657
 21
75.699966
  0
LINE
  8
0
 10
-71.623665
 20
75.699982
 11
-71.923668
 21
75.999985
  0
LINE
  8
0
 10
-77.123665
 20
75.699944
 11
-76.823669
 21
75.999947
  0
LINE
  8
0
 10
-66.644165
 20
61.499966
 11
-66.644165
 21
62.299969
  0
LINE
  8
0
 10
-66.373657
 20
61.499966
 11
-66.373657
 21
62.299969
  0
LINE
  8
0
 10
-69.103149
 20
61.499966
 11
-69.103149
 21
62.299969
  0
LINE
  8
0
 10
-69.373657
 20
61.499966
 11
-69.373657
 21
62.299969
  0
LINE
  8
0
 10
-70.623657
 20
68.499969
 11
-70.623657
 21
71.199966
  0
LINE
  8
0
 10
-70.623657
 20
71.199959
 11
-70.323669
 21
71.499954
  0
LINE
  8
0
 10
-65.423668
 20
71.499962
 11
-70.323662
 21
71.499962
  0
LINE
  8
0
 10
-65.123665
 20
71.199966
 11
-70.623665
 21
71.199966
  0
LINE
  8
0
 10
-65.123642
 20
71.199974
 11
-65.423660
 21
71.499985
  0
LINE
  8
0
 10
-65.123657
 20
68.499969
 11
-65.123657
 21
71.199974
  0
LINE
  8
0
 10
-72.873657
 20
68.999969
 11
-72.873657
 21
69.999969
  0
LINE
  8
0
 10
-75.873657
 20
68.999969
 11
-75.873657
 21
69.999969
  0
LINE
  8
0
  6
CENTER
 10
-103.873657
 20
56.499958
 11
-103.873657
 21
74.499954
  0
LINE
  8
0
  6
CENTER
 10
-93.873665
 20
69.499962
 11
-70.123665
 21
69.499962
  0
LINE
  8
0
  6
CENTER
 10
-74.373657
 20
64.999969
 11
-74.373657
 21
78.999969
  0
LINE
  8
0
  6
CENTER
 10
-67.873657
 20
56.499966
 11
-67.873657
 21
74.499969
  0
LINE
  8
0
 10
154.000076
 20
73.999969
 11
154.500046
 21
73.999969
  0
LINE
  8
0
 10
154.000061
 20
64.999969
 11
154.500031
 21
64.999969
  0
LINE
  8
0
 10
171.000031
 20
63.499969
 11
177.000031
 21
63.499969
  0
LINE
  8
0
 10
154.500046
 20
72.099983
 11
154.900070
 21
72.499992
  0
LINE
  8
0
 10
171.000046
 20
72.099937
 11
170.600052
 21
72.499947
  0
LINE
  8
0
 10
171.000031
 20
64.040970
 11
177.312378
 21
64.040970
  0
LINE
  8
0
 10
176.999954
 20
63.499981
 11
177.999954
 21
65.232033
  0
LINE
  8
0
 10
178.000000
 20
65.231995
 11
178.000000
 21
73.767883
  0
LINE
  8
0
 10
177.000000
 20
75.499901
 11
178.000000
 21
73.767845
  0
LINE
  8
0
 10
177.000000
 20
63.499947
 11
177.000000
 21
75.499947
  0
LINE
  8
0
 10
171.000046
 20
75.499969
 11
177.000046
 21
75.499969
  0
LINE
  8
0
 10
171.000046
 20
74.958969
 11
177.312393
 21
74.958969
  0
LINE
  8
0
 10
154.900055
 20
72.499969
 11
161.100052
 21
72.499969
  0
LINE
  8
0
 10
154.500046
 20
72.099968
 11
161.500046
 21
72.099968
  0
LINE
  8
0
 10
154.000031
 20
73.999985
 11
154.000031
 21
64.999985
  0
LINE
  8
0
 10
161.500000
 20
68.499969
 11
161.500000
 21
72.099976
  0
LINE
  8
0
 10
161.500061
 20
72.099960
 11
161.100067
 21
72.499962
  0
LINE
  8
0
 10
154.500015
 20
57.499969
 11
171.000015
 21
57.499969
  0
LINE
  8
0
 10
154.500046
 20
68.499969
 11
171.000046
 21
68.499969
  0
LINE
  8
0
 10
154.500046
 20
72.999969
 11
171.000046
 21
72.999969
  0
LINE
  8
0
 10
154.500061
 20
77.499969
 11
171.000061
 21
77.499969
  0
LINE
  8
0
 10
154.500046
 20
75.188072
 11
171.000046
 21
75.188072
  0
LINE
  8
0
 10
154.500000
 20
51.099983
 11
154.500000
 21
77.499985
  0
LINE
  8
0
 10
171.000000
 20
51.099953
 11
171.000000
 21
77.499954
  0
LINE
  8
0
 10
154.500015
 20
51.099968
 11
171.000015
 21
51.099968
  0
LINE
  8
0
 10
164.000000
 20
68.499969
 11
164.000000
 21
72.099960
  0
LINE
  8
0
 10
164.400055
 20
72.499969
 11
170.600052
 21
72.499969
  0
LINE
  8
0
 10
164.000046
 20
72.099968
 11
171.000046
 21
72.099968
  0
LINE
  8
0
 10
164.000061
 20
72.099968
 11
164.400070
 21
72.499969
  0
LINE
  8
0
  6
CENTER
 10
158.000000
 20
52.499977
 11
158.000000
 21
75.499977
  0
LINE
  8
0
  6
CENTER
 10
167.500000
 20
52.499962
 11
167.500000
 21
75.499962
  0
LINE
  8
0
  6
CENTER
 10
151.000076
 20
69.499969
 11
183.000046
 21
69.499969
  0
LINE
  8
0
 10
169.000000
 20
136.633987
 11
169.000000
 21
138.366043
  0
LINE
  8
0
 10
169.000031
 20
138.366043
 11
167.500031
 21
139.232071
  0
LINE
  8
0
 10
170.999969
 20
132.500015
 11
170.999969
 21
187.500015
  0
LINE
  8
0
 10
154.000031
 20
155.499969
 11
154.500000
 21
155.499969
  0
LINE
  8
0
 10
154.000031
 20
164.499969
 11
154.500000
 21
164.499969
  0
LINE
  8
0
 10
176.999969
 20
154.000015
 11
177.999969
 21
155.732056
  0
LINE
  8
0
 10
176.999893
 20
165.999939
 11
177.999893
 21
164.267883
  0
LINE
  8
0
 10
177.000000
 20
154.000000
 11
177.000000
 21
166.000000
  0
LINE
  8
0
 10
178.000000
 20
155.732056
 11
178.000000
 21
164.267944
  0
LINE
  8
0
 10
154.000000
 20
164.499954
 11
154.000000
 21
155.499954
  0
LINE
  8
0
 10
167.500015
 20
135.767975
 11
169.000031
 21
136.634003
  0
LINE
  8
0
 10
154.500000
 20
187.499985
 11
154.500000
 21
132.499985
  0
LINE
  8
0
 10
154.499954
 20
187.500000
 11
170.999924
 21
187.500000
  0
LINE
  8
0
 10
154.500046
 20
132.500000
 11
171.000015
 21
132.500000
  0
LINE
  8
0
 10
154.500015
 20
149.500000
 11
170.999985
 21
149.500000
  0
LINE
  8
0
 10
154.499985
 20
170.500000
 11
170.999954
 21
170.500000
  0
LINE
  8
0
 10
154.499969
 20
178.500000
 11
170.999939
 21
178.500000
  0
LINE
  8
0
 10
154.500031
 20
141.500000
 11
171.000000
 21
141.500000
  0
LINE
  8
0
 10
166.000046
 20
136.634018
 11
167.500046
 21
135.767990
  0
LINE
  8
0
 10
171.000015
 20
153.999969
 11
177.000015
 21
153.999969
  0
LINE
  8
0
 10
161.249954
 20
175.366028
 11
162.749969
 21
176.232056
  0
LINE
  8
0
 10
162.750031
 20
176.232224
 11
164.250031
 21
175.366196
  0
LINE
  8
0
 10
164.249985
 20
175.366028
 11
164.249985
 21
173.633972
  0
LINE
  8
0
 10
164.250000
 20
173.634003
 11
162.749985
 21
172.767960
  0
LINE
  8
0
 10
162.749969
 20
172.767990
 11
161.249954
 21
173.634018
  0
LINE
  8
0
 10
161.249985
 20
173.633972
 11
161.249985
 21
175.366028
  0
LINE
  8
0
 10
158.000031
 20
139.232101
 11
156.500031
 21
138.366074
  0
LINE
  8
0
 10
156.500000
 20
138.366013
 11
156.500000
 21
136.633957
  0
LINE
  8
0
 10
156.500031
 20
136.633987
 11
158.000046
 21
135.767960
  0
LINE
  8
0
 10
158.000031
 20
135.767975
 11
159.500031
 21
136.634003
  0
LINE
  8
0
 10
159.500046
 20
138.366028
 11
158.000046
 21
139.232056
  0
LINE
  8
0
 10
159.500000
 20
136.633972
 11
159.500000
 21
138.366028
  0
LINE
  8
0
 10
171.000015
 20
154.540970
 11
177.312363
 21
154.540970
  0
LINE
  8
0
 10
170.999985
 20
165.458969
 11
177.312332
 21
165.458969
  0
LINE
  8
0
 10
170.999985
 20
165.999969
 11
176.999985
 21
165.999969
  0
LINE
  8
0
 10
166.000000
 20
183.365997
 11
167.500000
 21
184.232025
  0
LINE
  8
0
 10
167.499893
 20
184.231979
 11
168.999893
 21
183.365936
  0
LINE
  8
0
 10
169.000000
 20
183.366043
 11
169.000000
 21
181.633987
  0
LINE
  8
0
 10
169.000000
 20
181.633942
 11
167.500000
 21
180.767914
  0
LINE
  8
0
 10
167.499924
 20
180.767914
 11
165.999908
 21
181.633942
  0
LINE
  8
0
 10
166.000000
 20
181.633972
 11
166.000000
 21
183.366028
  0
LINE
  8
0
 10
157.999969
 20
180.767960
 11
156.499969
 21
181.633987
  0
LINE
  8
0
 10
156.500000
 20
181.633957
 11
156.500000
 21
183.366013
  0
LINE
  8
0
 10
156.499954
 20
183.366013
 11
157.999969
 21
184.232040
  0
LINE
  8
0
 10
157.999954
 20
184.232071
 11
159.499954
 21
183.366043
  0
LINE
  8
0
 10
159.499985
 20
181.633972
 11
157.999969
 21
180.767944
  0
LINE
  8
0
 10
159.500000
 20
183.366028
 11
159.500000
 21
181.633972
  0
LINE
  8
0
 10
166.000000
 20
138.366028
 11
166.000000
 21
136.633972
  0
LINE
  8
0
 10
167.500031
 20
139.232101
 11
166.000031
 21
138.366074
  0
LINE
  8
0
  6
CENTER
 10
158.000000
 20
142.999985
 11
158.000000
 21
131.999985
  0
LINE
  8
0
  6
CENTER
 10
167.500000
 20
143.000015
 11
167.500000
 21
132.000015
  0
LINE
  8
0
  6
CENTER
 10
152.500031
 20
137.500000
 11
173.000031
 21
137.500000
  0
LINE
  8
0
  6
CENTER
 10
158.000000
 20
176.999985
 11
158.000000
 21
187.999985
  0
LINE
  8
0
  6
CENTER
 10
167.500000
 20
177.000015
 11
167.500000
 21
188.000015
  0
LINE
  8
0
  6
CENTER
 10
152.499969
 20
182.500000
 11
172.999969
 21
182.500000
  0
LINE
  8
0
  6
CENTER
 10
162.749985
 20
169.000000
 11
162.749985
 21
180.000000
  0
LINE
  8
0
  6
CENTER
 10
157.249954
 20
174.500000
 11
168.249954
 21
174.500000
  0
LINE
  8
0
 10
306.000000
 20
68.499969
 11
306.000000
 21
72.099968
  0
LINE
  8
0
 10
306.000031
 20
72.099983
 11
305.600037
 21
72.499969
  0
LINE
  8
0
 10
261.500000
 20
60.499969
 11
264.429291
 21
60.499969
  0
LINE
  8
0
 10
299.500000
 20
59.999969
 11
299.500000
 21
57.499969
  0
LINE
  8
0
 10
292.500000
 20
68.999969
 11
292.500000
 21
69.999969
  0
LINE
  8
0
 10
299.500000
 20
57.499931
 11
297.000000
 21
56.056557
  0
LINE
  8
0
 10
296.500000
 20
68.999969
 11
296.500000
 21
69.999969
  0
LINE
  8
0
 10
295.570709
 20
60.499969
 11
298.500000
 21
60.499969
  0
LINE
  8
0
 10
296.121002
 20
68.999969
 11
296.121002
 21
69.999969
  0
LINE
  8
0
 10
292.878998
 20
68.999969
 11
292.878998
 21
69.999969
  0
LINE
  8
0
 10
254.000000
 20
68.499969
 11
254.000000
 21
72.099968
  0
LINE
  8
0
 10
254.000061
 20
72.099937
 11
254.400085
 21
72.499947
  0
LINE
  8
0
 10
254.400009
 20
72.499969
 11
260.600006
 21
72.499969
  0
LINE
  8
0
 10
254.000000
 20
72.099968
 11
261.000000
 21
72.099968
  0
LINE
  8
0
 10
280.000000
 20
66.035851
 11
282.999969
 21
67.767891
  0
LINE
  8
0
 10
261.000031
 20
72.099983
 11
260.600037
 21
72.499992
  0
LINE
  8
0
 10
261.000000
 20
68.499969
 11
261.000000
 21
72.099968
  0
LINE
  8
0
 10
277.000000
 20
67.767929
 11
280.000031
 21
66.035873
  0
LINE
  8
0
 10
277.000000
 20
71.232025
 11
277.000000
 21
67.767914
  0
LINE
  8
0
 10
280.000061
 20
72.964035
 11
277.000061
 21
71.231979
  0
LINE
  8
0
 10
269.500000
 20
72.999969
 11
269.500000
 21
74.539711
  0
LINE
  8
0
 10
290.500000
 20
72.999969
 11
290.500000
 21
74.539711
  0
LINE
  8
0
 10
262.500000
 20
72.999969
 11
269.500000
 21
72.999969
  0
LINE
  8
0
 10
290.500000
 20
72.999969
 11
298.000000
 21
72.999969
  0
LINE
  8
0
 10
252.500000
 20
57.499969
 11
254.500000
 21
57.499969
  0
LINE
  8
0
 10
252.500000
 20
53.099968
 11
252.500000
 21
67.499969
  0
LINE
  8
0
 10
307.500000
 20
53.099968
 11
307.500000
 21
67.499969
  0
LINE
  8
0
 10
305.500000
 20
57.499969
 11
307.500000
 21
57.499969
  0
LINE
  8
0
 10
305.500000
 20
57.499969
 11
305.500000
 21
60.799973
  0
LINE
  8
0
 10
254.500000
 20
57.499969
 11
254.500000
 21
60.799973
  0
LINE
  8
0
 10
254.500000
 20
60.799973
 11
261.500000
 21
60.799973
  0
LINE
  8
0
 10
298.500000
 20
60.799973
 11
305.500000
 21
60.799973
  0
LINE
  8
0
 10
298.500000
 20
60.499969
 11
298.500000
 21
60.799973
  0
LINE
  8
0
 10
261.500000
 20
60.499969
 11
261.500000
 21
60.799973
  0
LINE
  8
0
 10
298.500000
 20
68.499969
 11
306.500000
 21
68.499969
  0
LINE
  8
0
 10
253.500000
 20
68.499969
 11
261.500000
 21
68.499969
  0
LINE
  8
0
 10
298.500000
 20
68.499969
 11
298.500000
 21
68.999969
  0
LINE
  8
0
 10
261.500000
 20
68.499969
 11
261.500000
 21
71.999969
  0
LINE
  8
0
 10
285.979126
 20
69.999969
 11
298.500000
 21
69.999969
  0
LINE
  8
0
 10
285.979126
 20
68.999969
 11
298.500000
 21
68.999969
  0
LINE
  8
0
 10
298.500000
 20
69.999969
 11
298.500000
 21
71.999969
  0
LINE
  8
0
 10
283.000031
 20
71.232040
 11
280.000031
 21
72.964096
  0
LINE
  8
0
 10
299.500000
 20
59.999969
 11
305.500000
 21
59.999969
  0
LINE
  8
0
 10
299.500000
 20
51.099968
 11
305.500000
 21
51.099968
  0
LINE
  8
0
 10
260.500000
 20
51.099968
 11
254.500000
 21
51.099968
  0
LINE
  8
0
 10
260.500000
 20
59.999969
 11
254.500000
 21
59.999969
  0
LINE
  8
0
 10
260.500000
 20
59.999969
 11
260.500000
 21
57.499969
  0
LINE
  8
0
 10
260.500000
 20
57.499966
 11
263.000031
 21
56.056576
  0
LINE
  8
0
 10
259.500000
 20
59.999969
 11
259.500000
 21
60.799973
  0
LINE
  8
0
 10
255.500000
 20
59.999969
 11
255.500000
 21
60.799973
  0
LINE
  8
0
 10
259.121002
 20
59.999969
 11
259.121002
 21
60.799973
  0
LINE
  8
0
 10
255.878998
 20
59.999969
 11
255.878998
 21
60.799973
  0
LINE
  8
0
 10
298.000000
 20
72.999969
 11
298.000000
 21
76.599968
  0
LINE
  8
0
 10
298.000061
 20
76.599998
 11
297.600067
 21
77.000000
  0
LINE
  8
0
 10
297.599976
 20
76.999969
 11
291.399994
 21
76.999969
  0
LINE
  8
0
 10
298.000000
 20
76.599968
 11
291.000000
 21
76.599968
  0
LINE
  8
0
 10
283.000000
 20
67.767921
 11
283.000000
 21
71.232025
  0
LINE
  8
0
 10
291.000000
 20
72.999969
 11
291.000000
 21
76.599968
  0
LINE
  8
0
 10
290.999908
 20
76.599968
 11
291.399933
 21
77.000008
  0
LINE
  8
0
 10
304.500000
 20
59.999969
 11
304.500000
 21
60.799973
  0
LINE
  8
0
 10
304.121002
 20
59.999969
 11
304.121002
 21
60.799973
  0
LINE
  8
0
 10
300.878998
 20
59.999969
 11
300.878998
 21
60.799973
  0
LINE
  8
0
 10
300.500000
 20
59.999969
 11
300.500000
 21
60.799973
  0
LINE
  8
0
 10
299.000000
 20
68.499969
 11
299.000000
 21
72.099968
  0
LINE
  8
0
 10
306.000000
 20
72.099968
 11
299.000000
 21
72.099968
  0
LINE
  8
0
 10
299.000000
 20
72.099945
 11
299.399994
 21
72.499962
  0
LINE
  8
0
 10
305.599976
 20
72.499969
 11
299.399994
 21
72.499969
  0
LINE
  8
0
  6
CENTER
 10
257.500000
 20
52.499969
 11
257.500000
 21
75.499969
  0
LINE
  8
0
  6
CENTER
 10
271.000000
 20
69.499969
 11
299.500000
 21
69.499969
  0
LINE
  8
0
  6
CENTER
 10
294.500000
 20
62.999969
 11
294.500000
 21
79.999969
  0
LINE
  8
0
  6
CENTER
 10
302.500000
 20
52.499969
 11
302.500000
 21
75.499969
  0
LINE
  8
0
 10
-49.623581
 20
-173.058487
 11
-49.623581
 21
-177.558487
  0
LINE
  8
0
 10
-48.873581
 20
-167.058487
 11
-48.873581
 21
-198.358490
  0
LINE
  8
0
 10
-70.873619
 20
-181.558487
 11
-69.873619
 21
-181.558487
  0
LINE
  8
0
 10
-70.873642
 20
-171.558487
 11
-69.873642
 21
-171.558487
  0
LINE
  8
0
 10
-48.873619
 20
-183.558502
 11
-40.873619
 21
-183.558502
  0
LINE
  8
0
 10
-48.873619
 20
-182.746506
 11
-40.404816
 21
-182.746506
  0
LINE
  8
0
 10
-40.873566
 20
-183.558533
 11
-39.873566
 21
-181.826508
  0
LINE
  8
0
 10
-39.873581
 20
-171.290527
 11
-39.873581
 21
-181.826416
  0
LINE
  8
0
 10
-40.873573
 20
-169.558426
 11
-39.873577
 21
-171.290466
  0
LINE
  8
0
 10
-40.873581
 20
-169.558472
 11
-40.873581
 21
-183.558472
  0
LINE
  8
0
 10
-48.873642
 20
-170.370499
 11
-40.404839
 21
-170.370499
  0
LINE
  8
0
 10
-48.873642
 20
-169.558502
 11
-40.873642
 21
-169.558502
  0
LINE
  8
0
 10
-70.873581
 20
-171.558502
 11
-70.873581
 21
-181.558502
  0
LINE
  8
0
 10
-58.123623
 20
-173.058517
 11
-57.623634
 21
-172.558517
  0
LINE
  8
0
 10
-69.873589
 20
-198.358505
 11
-48.873589
 21
-198.358505
  0
LINE
  8
0
 10
-60.623581
 20
-173.058502
 11
-60.623581
 21
-177.558502
  0
LINE
  8
0
 10
-60.623592
 20
-173.058441
 11
-61.123596
 21
-172.558441
  0
LINE
  8
0
 10
-69.123642
 20
-173.058502
 11
-60.623642
 21
-173.058502
  0
LINE
  8
0
 10
-69.873650
 20
-167.058502
 11
-48.873650
 21
-167.058502
  0
LINE
  8
0
 10
-69.873642
 20
-169.370392
 11
-48.873642
 21
-169.370392
  0
LINE
  8
0
 10
-69.873642
 20
-172.558502
 11
-48.873642
 21
-172.558502
  0
LINE
  8
0
 10
-69.873627
 20
-177.558502
 11
-48.873627
 21
-177.558502
  0
LINE
  8
0
 10
-69.873604
 20
-190.058502
 11
-48.873604
 21
-190.058502
  0
LINE
  8
0
 10
-69.123642
 20
-173.058533
 11
-68.623650
 21
-172.558533
  0
LINE
  8
0
 10
-69.873581
 20
-167.058517
 11
-69.873581
 21
-198.358521
  0
LINE
  8
0
 10
-69.123581
 20
-173.058517
 11
-69.123581
 21
-177.558517
  0
LINE
  8
0
 10
-49.623577
 20
-173.058411
 11
-50.123577
 21
-172.558411
  0
LINE
  8
0
 10
-58.123642
 20
-173.058502
 11
-49.623642
 21
-173.058502
  0
LINE
  8
0
 10
-58.123581
 20
-173.058502
 11
-58.123581
 21
-177.558502
  0
LINE
  8
0
  6
CENTER
 10
-64.873581
 20
-169.558517
 11
-64.873581
 21
-197.558517
  0
LINE
  8
0
  6
CENTER
 10
-53.873581
 20
-169.558487
 11
-53.873581
 21
-197.558487
  0
LINE
  8
0
  6
CENTER
 10
-76.373634
 20
-176.558487
 11
-36.873634
 21
-176.558487
  0
LINE
  8
0
 10
-66.873581
 20
-50.213188
 11
-66.873581
 21
-47.903786
  0
LINE
  8
0
 10
-48.873520
 20
-42.558495
 11
-48.873520
 21
-106.558502
  0
LINE
  8
0
 10
-70.873520
 20
-79.558495
 11
-69.873520
 21
-79.558495
  0
LINE
  8
0
 10
-70.873520
 20
-69.558495
 11
-69.873520
 21
-69.558495
  0
LINE
  8
0
 10
-40.873520
 20
-81.558517
 11
-39.873520
 21
-79.826485
  0
LINE
  8
0
 10
-40.873501
 20
-67.558533
 11
-39.873501
 21
-69.290588
  0
LINE
  8
0
 10
-40.873520
 20
-67.558525
 11
-40.873520
 21
-81.558525
  0
LINE
  8
0
 10
-39.873520
 20
-69.290588
 11
-39.873520
 21
-79.826469
  0
LINE
  8
0
 10
-66.873543
 20
-47.903774
 11
-64.873543
 21
-46.749073
  0
LINE
  8
0
 10
-48.873528
 20
-80.746513
 11
-40.404724
 21
-80.746513
  0
LINE
  8
0
 10
-48.873512
 20
-68.370506
 11
-40.404709
 21
-68.370506
  0
LINE
  8
0
 10
-48.873512
 20
-67.558510
 11
-40.873512
 21
-67.558510
  0
LINE
  8
0
 10
-48.873528
 20
-81.558510
 11
-40.873528
 21
-81.558510
  0
LINE
  8
0
 10
-70.873520
 20
-69.558487
 11
-70.873520
 21
-79.558487
  0
LINE
  8
0
 10
-55.873512
 20
-47.903793
 11
-55.873512
 21
-50.213196
  0
LINE
  8
0
 10
-69.873581
 20
-42.558479
 11
-69.873581
 21
-106.558487
  0
LINE
  8
0
 10
-69.873604
 20
-106.558495
 11
-48.873543
 21
-106.558495
  0
LINE
  8
0
 10
-69.873558
 20
-42.558487
 11
-48.873497
 21
-42.558487
  0
LINE
  8
0
 10
-69.873589
 20
-85.058495
 11
-48.873528
 21
-85.058495
  0
LINE
  8
0
 10
-69.873573
 20
-64.058495
 11
-48.873512
 21
-64.058495
  0
LINE
  8
0
 10
-69.873596
 20
-95.058495
 11
-48.873535
 21
-95.058495
  0
LINE
  8
0
 10
-69.873566
 20
-54.058487
 11
-48.873505
 21
-54.058487
  0
LINE
  8
0
 10
-53.873516
 20
-46.749081
 11
-55.873520
 21
-47.903782
  0
LINE
  8
0
 10
-51.873505
 20
-47.903812
 11
-53.873505
 21
-46.749111
  0
LINE
  8
0
 10
-51.873520
 20
-50.213203
 11
-51.873520
 21
-47.903801
  0
LINE
  8
0
 10
-61.373539
 20
-60.213211
 11
-59.373535
 21
-61.367912
  0
LINE
  8
0
 10
-59.373528
 20
-61.367901
 11
-57.373524
 21
-60.213200
  0
LINE
  8
0
 10
-57.373558
 20
-60.213196
 11
-57.373558
 21
-57.903793
  0
LINE
  8
0
 10
-57.373547
 20
-57.903824
 11
-59.373547
 21
-56.749123
  0
LINE
  8
0
 10
-59.373539
 20
-56.749123
 11
-61.373543
 21
-57.903824
  0
LINE
  8
0
 10
-61.373550
 20
-57.903793
 11
-61.373550
 21
-60.213196
  0
LINE
  8
0
 10
-62.873608
 20
-98.903801
 11
-64.873611
 21
-97.749100
  0
LINE
  8
0
 10
-64.873596
 20
-97.749146
 11
-66.873581
 21
-98.903839
  0
LINE
  8
0
 10
-66.873581
 20
-98.903786
 11
-66.873581
 21
-101.213188
  0
LINE
  8
0
 10
-66.873596
 20
-101.213188
 11
-64.873596
 21
-102.367889
  0
LINE
  8
0
 10
-64.873581
 20
-102.367912
 11
-62.873592
 21
-101.213219
  0
LINE
  8
0
 10
-62.873589
 20
-101.213196
 11
-62.873589
 21
-98.903793
  0
LINE
  8
0
 10
-53.873520
 20
-51.367878
 11
-51.873520
 21
-50.213177
  0
LINE
  8
0
 10
-55.873520
 20
-50.213177
 11
-53.873516
 21
-51.367878
  0
LINE
  8
0
 10
-55.873535
 20
-98.903793
 11
-53.873535
 21
-97.749092
  0
LINE
  8
0
 10
-53.873524
 20
-97.749054
 11
-51.873524
 21
-98.903755
  0
LINE
  8
0
 10
-51.873520
 20
-98.903801
 11
-51.873520
 21
-101.213203
  0
LINE
  8
0
 10
-51.873550
 20
-101.213165
 11
-53.873550
 21
-102.367867
  0
LINE
  8
0
 10
-53.873501
 20
-102.367851
 11
-55.873501
 21
-101.213150
  0
LINE
  8
0
 10
-55.873512
 20
-101.213196
 11
-55.873512
 21
-98.903793
  0
LINE
  8
0
 10
-64.873566
 20
-46.749081
 11
-62.873566
 21
-47.903782
  0
LINE
  8
0
 10
-62.873589
 20
-47.903793
 11
-62.873589
 21
-50.213196
  0
LINE
  8
0
 10
-62.873566
 20
-50.213181
 11
-64.873566
 21
-51.367882
  0
LINE
  8
0
 10
-64.873558
 20
-51.367870
 11
-66.873558
 21
-50.213169
  0
LINE
  8
0
  6
CENTER
 10
-64.873581
 20
-56.558495
 11
-64.873581
 21
-41.558487
  0
LINE
  8
0
  6
CENTER
 10
-53.873581
 20
-56.558495
 11
-53.873581
 21
-41.558487
  0
LINE
  8
0
  6
CENTER
 10
-72.373566
 20
-49.058487
 11
-46.373566
 21
-49.058487
  0
LINE
  8
0
  6
CENTER
 10
-66.873543
 20
-59.058495
 11
-51.873543
 21
-59.058495
  0
LINE
  8
0
  6
CENTER
 10
-59.373550
 20
-51.558487
 11
-59.373550
 21
-66.558495
  0
LINE
  8
0
  6
CENTER
 10
-64.873581
 20
-92.558495
 11
-64.873581
 21
-107.558495
  0
LINE
  8
0
  6
CENTER
 10
-53.873581
 20
-92.558495
 11
-53.873581
 21
-107.558495
  0
LINE
  8
0
  6
CENTER
 10
-72.373596
 20
-100.058495
 11
-46.373596
 21
-100.058495
  0
LINE
  8
0
 10
79.376396
 20
-173.058456
 11
79.876396
 21
-172.558456
  0
LINE
  8
0
 10
79.626411
 20
-186.558487
 11
90.935997
 21
-186.558487
  0
LINE
  8
0
 10
87.126396
 20
-187.058472
 11
87.126396
 21
-190.558472
  0
LINE
  8
0
 10
87.126411
 20
-190.558533
 11
89.126396
 21
-191.713226
  0
LINE
  8
0
 10
131.126404
 20
-187.058502
 11
131.126404
 21
-190.558502
  0
LINE
  8
0
 10
131.126404
 20
-190.558517
 11
129.126419
 21
-191.713226
  0
LINE
  8
0
 10
127.316841
 20
-186.558487
 11
138.626404
 21
-186.558487
  0
LINE
  8
0
 10
79.876419
 20
-172.558487
 11
87.376419
 21
-172.558487
  0
LINE
  8
0
 10
79.376419
 20
-173.058487
 11
87.876419
 21
-173.058487
  0
LINE
  8
0
 10
87.876404
 20
-173.058487
 11
87.376396
 21
-172.558472
  0
LINE
  8
0
 10
87.876396
 20
-173.058472
 11
87.876396
 21
-177.558472
  0
LINE
  8
0
 10
106.126434
 20
-178.290588
 11
109.126419
 21
-180.022629
  0
LINE
  8
0
 10
109.126427
 20
-180.022644
 11
112.126434
 21
-178.290588
  0
LINE
  8
0
 10
77.126404
 20
-190.058487
 11
79.626404
 21
-190.058487
  0
LINE
  8
0
 10
138.626404
 20
-190.058487
 11
141.126404
 21
-190.058487
  0
LINE
  8
0
 10
141.126404
 20
-179.058517
 11
141.126404
 21
-196.358521
  0
LINE
  8
0
 10
77.126396
 20
-179.058456
 11
77.126396
 21
-196.358459
  0
LINE
  8
0
 10
79.626396
 20
-186.558472
 11
79.626396
 21
-190.058472
  0
LINE
  8
0
 10
138.626404
 20
-186.558502
 11
138.626404
 21
-190.058502
  0
LINE
  8
0
 10
78.626419
 20
-177.558487
 11
88.626419
 21
-177.558487
  0
LINE
  8
0
 10
129.626419
 20
-177.558487
 11
139.626419
 21
-177.558487
  0
LINE
  8
0
 10
129.626404
 20
-173.558502
 11
129.626404
 21
-176.058502
  0
LINE
  8
0
 10
88.626396
 20
-173.558472
 11
88.626396
 21
-177.558472
  0
LINE
  8
0
 10
89.626419
 20
-172.558487
 11
98.626419
 21
-172.558487
  0
LINE
  8
0
 10
119.626419
 20
-172.558487
 11
128.876419
 21
-172.558487
  0
LINE
  8
0
 10
119.626396
 20
-170.018768
 11
119.626396
 21
-172.558502
  0
LINE
  8
0
 10
98.626396
 20
-170.018738
 11
98.626396
 21
-172.558472
  0
LINE
  8
0
 10
112.126396
 20
-178.290543
 11
112.126396
 21
-174.826431
  0
LINE
  8
0
 10
116.108536
 20
-177.058487
 11
129.626419
 21
-177.058487
  0
LINE
  8
0
 10
116.108536
 20
-176.058487
 11
129.626419
 21
-176.058487
  0
LINE
  8
0
 10
129.626404
 20
-177.058502
 11
129.626404
 21
-177.558502
  0
LINE
  8
0
 10
112.126404
 20
-174.826462
 11
109.126411
 21
-173.094406
  0
LINE
  8
0
 10
109.126450
 20
-173.094467
 11
106.126465
 21
-174.826508
  0
LINE
  8
0
 10
131.126404
 20
-187.058487
 11
138.626404
 21
-187.058487
  0
LINE
  8
0
 10
131.126404
 20
-198.358490
 11
139.126404
 21
-198.358490
  0
LINE
  8
0
 10
87.126411
 20
-187.058487
 11
79.626411
 21
-187.058487
  0
LINE
  8
0
 10
87.126404
 20
-198.358490
 11
79.126404
 21
-198.358490
  0
LINE
  8
0
 10
86.126396
 20
-186.558472
 11
86.126396
 21
-187.058472
  0
LINE
  8
0
 10
81.126396
 20
-186.558472
 11
81.126396
 21
-187.058472
  0
LINE
  8
0
 10
85.693398
 20
-186.558472
 11
85.693398
 21
-187.058472
  0
LINE
  8
0
 10
81.559395
 20
-186.558472
 11
81.559395
 21
-187.058472
  0
LINE
  8
0
 10
137.126404
 20
-186.558502
 11
137.126404
 21
-187.058502
  0
LINE
  8
0
 10
136.693390
 20
-186.558502
 11
136.693390
 21
-187.058502
  0
LINE
  8
0
 10
128.876373
 20
-168.058533
 11
128.376358
 21
-167.558517
  0
LINE
  8
0
 10
132.559387
 20
-186.558502
 11
132.559387
 21
-187.058502
  0
LINE
  8
0
 10
132.126404
 20
-186.558502
 11
132.126404
 21
-187.058502
  0
LINE
  8
0
 10
128.376434
 20
-167.558487
 11
120.876427
 21
-167.558487
  0
LINE
  8
0
 10
128.876434
 20
-168.058487
 11
120.376427
 21
-168.058487
  0
LINE
  8
0
 10
120.376381
 20
-168.058487
 11
120.876381
 21
-167.558487
  0
LINE
  8
0
 10
120.376396
 20
-168.058502
 11
120.376396
 21
-172.558502
  0
LINE
  8
0
 10
128.876404
 20
-168.058502
 11
128.876404
 21
-172.558502
  0
LINE
  8
0
 10
106.126396
 20
-174.826462
 11
106.126396
 21
-178.290543
  0
LINE
  8
0
 10
130.376404
 20
-173.058502
 11
130.376404
 21
-177.558502
  0
LINE
  8
0
 10
130.376358
 20
-173.058472
 11
130.876358
 21
-172.558472
  0
LINE
  8
0
 10
138.376419
 20
-172.558487
 11
130.876419
 21
-172.558487
  0
LINE
  8
0
 10
138.876419
 20
-173.058487
 11
130.376419
 21
-173.058487
  0
LINE
  8
0
 10
138.876358
 20
-173.058502
 11
138.376373
 21
-172.558517
  0
LINE
  8
0
 10
138.876404
 20
-173.058502
 11
138.876404
 21
-177.558502
  0
LINE
  8
0
 10
127.126396
 20
-176.058502
 11
127.126396
 21
-177.058502
  0
LINE
  8
0
 10
122.126396
 20
-176.058502
 11
122.126396
 21
-177.058502
  0
LINE
  8
0
 10
126.693398
 20
-176.058502
 11
126.693398
 21
-177.058502
  0
LINE
  8
0
 10
122.559395
 20
-176.058502
 11
122.559395
 21
-177.058502
  0
LINE
  8
0
 10
79.376396
 20
-173.058472
 11
79.376396
 21
-177.558472
  0
LINE
  8
0
  6
CENTER
 10
83.626396
 20
-169.558472
 11
83.626396
 21
-197.558472
  0
LINE
  8
0
  6
CENTER
 10
99.126419
 20
-176.558487
 11
130.626419
 21
-176.558487
  0
LINE
  8
0
  6
CENTER
 10
124.626396
 20
-164.558502
 11
124.626396
 21
-184.558502
  0
LINE
  8
0
  6
CENTER
 10
134.626404
 20
-169.558502
 11
134.626404
 21
-197.558502
  0
ARC
  8
0
 62
     5
 10
273.035400
 20
-235.045654
 40
2.211884
 50
0.000000
 51
90.000000
  0
ARC
  8
0
 62
     5
 10
291.283569
 20
-246.934647
 40
2.211899
 50
270.000000
 51
0.000000
  0
ARC
  8
0
 62
     5
 10
290.177551
 20
-236.151566
 40
3.317841
 50
0.000000
 51
90.000000
  0
ARC
  8
0
 62
     5
 10
310.361115
 20
-236.812775
 40
2.211890
 50
294.999969
 51
0.000000
  0
ARC
  8
0
 62
     5
 10
310.361115
 20
-235.045654
 40
2.211884
 50
0.000000
 51
90.000000
  0
ARC
  8
0
 62
     5
 10
327.503357
 20
-232.833755
 40
3.317840
 50
291.688385
 51
0.000000
  0
ARC
  8
0
 62
     5
 10
326.397308
 20
-232.083389
 40
1.105946
 50
291.688965
 51
0.000000
  0
ARC
  8
0
  6
PHANTOM
 10
-94.873642
 20
58.999969
 40
4.500000
 50
90.000000
 51
179.999954
  0
ARC
  8
0
  6
PHANTOM
 10
-76.873642
 20
58.999954
 40
4.500000
 50
0.000000
 51
90.000000
  0
ARC
  8
0
  6
PHANTOM
 10
-94.873672
 20
40.999969
 40
4.500000
 50
180.000000
 51
270.000000
  0
ARC
  8
0
  6
PHANTOM
 10
-76.873672
 20
40.999954
 40
4.500000
 50
270.000000
 51
0.000000
  0
ARC
  8
0
  6
PHANTOM
 10
-91.252335
 20
34.999969
 40
1.500000
 50
90.000000
 51
135.000107
  0
ARC
  8
0
  6
PHANTOM
 10
-80.494980
 20
34.999954
 40
1.500002
 50
45.000000
 51
90.000000
  0
ARC
  8
0
  6
PHANTOM
 10
-101.373642
 20
58.299980
 40
4.299999
 50
270.000000
 51
297.717743
  0
ARC
  8
0
  6
PHANTOM
 10
-100.973663
 20
43.899979
 40
0.399994
 50
0.000000
 51
180.000000
  0
ARC
  8
0
  6
PHANTOM
 10
-100.073669
 20
43.599976
 40
0.500000
 50
180.000000
 51
270.000000
  0
ARC
  8
0
  6
PHANTOM
 10
-99.773666
 20
39.599976
 40
1.000001
 50
293.577759
 51
327.193848
  0
ARC
  8
0
  6
PHANTOM
 10
-71.973679
 20
39.599945
 40
1.000000
 50
90.000000
 51
115.302567
  0
ARC
  8
0
  6
PHANTOM
 10
-71.673676
 20
43.599945
 40
0.500000
 50
270.000000
 51
0.000000
  0
ARC
  8
0
  6
PHANTOM
 10
-70.373642
 20
58.299950
 40
4.299999
 50
242.282242
 51
270.000000
  0
ARC
  8
0
  6
PHANTOM
 10
-70.773651
 20
43.899948
 40
0.399994
 50
0.000000
 51
180.000000
  0
ARC
  8
0
  6
PHANTOM
 10
-99.773666
 20
39.599976
 40
1.000001
 50
64.697433
 51
90.000000
  0
ARC
  8
0
  6
PHANTOM
 10
-71.973679
 20
39.599945
 40
0.999999
 50
212.806137
 51
246.422241
  0
ARC
  8
0
  6
PHANTOM
 10
-107.373627
 20
75.499985
 40
1.000000
 50
90.000000
 51
180.000000
  0
ARC
  8
0
  6
PHANTOM
 10
-65.373657
 20
55.499939
 40
2.000000
 50
270.000000
 51
0.000000
  0
ARC
  8
0
  6
PHANTOM
 10
-106.373657
 20
55.499985
 40
2.000000
 50
180.000000
 51
270.000000
  0
ARC
  8
0
  6
PHANTOM
 10
-64.373627
 20
75.499939
 40
1.000000
 50
0.000000
 51
90.000000
  0
ARC
  8
0
  6
PHANTOM
 10
-292.125854
 20
170.999969
 40
15.000013
 50
156.421844
 51
203.578110
  0
ARC
  8
0
  6
PHANTOM
 10
-319.621277
 20
158.999969
 40
15.000013
 50
336.421844
 51
23.578156
  0
ARC
  8
0
  6
PHANTOM
 10
-292.125854
 20
56.000000
 40
15.000011
 50
156.421860
 51
203.578125
  0
ARC
  8
0
  6
PHANTOM
 10
-318.863953
 20
42.500000
 40
15.000005
 50
330.000000
 51
29.999989
  0
ARC
  8
0
  6
PHANTOM
 10
-71.373657
 20
60.999962
 40
1.000000
 50
0.000000
 51
90.000000
  0
ARC
  8
0
  6
PHANTOM
 10
-100.373657
 20
60.999962
 40
1.000000
 50
90.000000
 51
180.000000
  0
ARC
  8
0
  6
PHANTOM
 10
268.000000
 20
32.999969
 40
5.000000
 50
180.000000
 51
270.000000
  0
ARC
  8
0
  6
PHANTOM
 10
292.000000
 20
32.999969
 40
5.000000
 50
270.000000
 51
0.000000
  0
ARC
  8
0
  6
PHANTOM
 10
268.000000
 20
56.999969
 40
5.000000
 50
90.000000
 51
179.999954
  0
ARC
  8
0
  6
PHANTOM
 10
292.000000
 20
56.999969
 40
5.000000
 50
0.000000
 51
90.000000
  0
ARC
  8
0
  6
PHANTOM
 10
261.500000
 20
59.499969
 40
1.000000
 50
90.000000
 51
180.000000
  0
ARC
  8
0
  6
PHANTOM
 10
260.500000
 20
55.799965
 40
5.049999
 50
270.000000
 51
299.673004
  0
ARC
  8
0
  6
PHANTOM
 10
262.299988
 20
37.499969
 40
0.800011
 50
28.954617
 51
180.000000
  0
ARC
  8
0
  6
PHANTOM
 10
262.600006
 20
31.799965
 40
1.199998
 50
289.470947
 51
314.552979
  0
ARC
  8
0
  6
PHANTOM
 10
288.000000
 20
25.999969
 40
2.000000
 50
0.000000
 51
90.000000
  0
ARC
  8
0
  6
PHANTOM
 10
272.000000
 20
25.999969
 40
2.000000
 50
90.000000
 51
179.999939
  0
ARC
  8
0
  6
PHANTOM
 10
297.399994
 20
31.799965
 40
1.200001
 50
90.000000
 51
109.495544
  0
ARC
  8
0
  6
PHANTOM
 10
298.500000
 20
59.499969
 40
1.000000
 50
0.000000
 51
90.000000
  0
ARC
  8
0
  6
PHANTOM
 10
299.500000
 20
55.799965
 40
5.049997
 50
240.326965
 51
270.000000
  0
ARC
  8
0
  6
PHANTOM
 10
297.700012
 20
37.499969
 40
0.799988
 50
0.000000
 51
151.045380
  0
ARC
  8
0
  6
PHANTOM
 10
262.600006
 20
31.799965
 40
1.200006
 50
70.504456
 51
90.000000
  0
ARC
  8
0
  6
PHANTOM
 10
297.399994
 20
31.799965
 40
1.200008
 50
225.446976
 51
250.529053
  0
ARC
  8
0
  6
PHANTOM
 10
306.500000
 20
75.999969
 40
1.500000
 50
0.000000
 51
90.000000
  0
ARC
  8
0
  6
PHANTOM
 10
253.500000
 20
75.999969
 40
1.500000
 50
90.000000
 51
180.000000
  0
ARC
  8
0
  6
PHANTOM
 10
254.500000
 20
51.999969
 40
2.500000
 50
180.000000
 51
270.000000
  0
ARC
  8
0
  6
PHANTOM
 10
305.500000
 20
51.999969
 40
2.500000
 50
270.000000
 51
0.000000
  0
ARC
  8
0
  6
PHANTOM
 10
68.437393
 20
52.750000
 40
20.000002
 50
157.200989
 51
202.798996
  0
ARC
  8
0
  6
PHANTOM
 10
32.400284
 20
35.500000
 40
20.000000
 50
331.640656
 51
28.359350
  0
ARC
  8
0
  6
PHANTOM
 10
68.437393
 20
167.750000
 40
20.000002
 50
157.200974
 51
202.798981
  0
ARC
  8
0
  6
PHANTOM
 10
31.562607
 20
152.250000
 40
20.000000
 50
337.200958
 51
22.799032
  0
ARC
  8
0
  6
PHANTOM
 10
95.626389
 20
-191.058502
 40
6.500000
 50
90.000000
 51
180.000000
  0
ARC
  8
0
  6
PHANTOM
 10
95.626389
 20
-218.058502
 40
6.500000
 50
180.000000
 51
270.000000
  0
ARC
  8
0
  6
PHANTOM
 10
122.626389
 20
-218.058502
 40
6.500000
 50
270.000000
 51
0.000000
  0
ARC
  8
0
  6
PHANTOM
 10
122.626389
 20
-191.058502
 40
6.500000
 50
0.000000
 51
90.000000
  0
ARC
  8
0
  6
PHANTOM
 10
89.126389
 20
-188.558502
 40
2.000000
 50
90.000000
 51
178.557312
  0
ARC
  8
0
  6
PHANTOM
 10
87.126389
 20
-192.858490
 40
6.000002
 50
278.213257
 51
289.471191
  0
ARC
  8
0
  6
PHANTOM
 10
88.126389
 20
-199.786713
 40
1.000003
 50
98.213371
 51
180.000000
  0
ARC
  8
0
  6
PHANTOM
 10
87.926392
 20
-213.058502
 40
0.800003
 50
0.000000
 51
180.000000
  0
ARC
  8
0
  6
PHANTOM
 10
89.576385
 20
-213.058502
 40
0.849998
 50
180.000000
 51
238.034622
  0
ARC
  8
0
  6
PHANTOM
 10
87.926392
 20
-217.158508
 40
0.800003
 50
180.000000
 51
0.000000
  0
ARC
  8
0
  6
PHANTOM
 10
89.576385
 20
-217.158508
 40
0.850003
 50
121.965370
 51
180.000000
  0
ARC
  8
0
  6
PHANTOM
 10
128.676376
 20
-217.158508
 40
0.850006
 50
0.000000
 51
58.033211
  0
ARC
  8
0
  6
PHANTOM
 10
129.126389
 20
-188.558502
 40
2.000000
 50
0.000000
 51
90.000000
  0
ARC
  8
0
  6
PHANTOM
 10
131.126389
 20
-192.858490
 40
6.000006
 50
250.528793
 51
261.786743
  0
ARC
  8
0
  6
PHANTOM
 10
130.126389
 20
-199.786713
 40
1.000000
 50
0.000000
 51
81.787056
  0
ARC
  8
0
  6
PHANTOM
 10
130.326401
 20
-213.058502
 40
0.800003
 50
0.000000
 51
180.000000
  0
ARC
  8
0
  6
PHANTOM
 10
128.676376
 20
-213.058502
 40
0.849998
 50
301.966797
 51
0.000000
  0
ARC
  8
0
  6
PHANTOM
 10
130.326401
 20
-217.158508
 40
0.800003
 50
180.000000
 51
0.000000
  0
ARC
  8
0
  6
PHANTOM
 10
99.126389
 20
-226.558502
 40
2.000000
 50
90.000000
 51
180.000000
  0
ARC
  8
0
  6
PHANTOM
 10
119.126389
 20
-226.558502
 40
2.000000
 50
0.000000
 51
90.000000
  0
ARC
  8
0
  6
PHANTOM
 10
77.626389
 20
-168.058502
 40
1.000000
 50
90.000000
 51
180.000000
  0
ARC
  8
0
  6
PHANTOM
 10
140.626389
 20
-168.058502
 40
1.000000
 50
0.000000
 51
90.000000
  0
ARC
  8
0
  6
PHANTOM
 10
79.626389
 20
-197.558502
 40
3.000000
 50
180.000000
 51
270.000000
  0
ARC
  8
0
  6
PHANTOM
 10
88.126389
 20
-199.786713
 40
2.000004
 50
134.430328
 51
180.000000
  0
ARC
  8
0
  6
PHANTOM
 10
130.126389
 20
-199.786713
 40
2.000000
 50
0.000000
 51
45.569679
  0
ARC
  8
0
  6
PHANTOM
 10
138.626389
 20
-197.558502
 40
3.000000
 50
270.000000
 51
0.000000
  0
ARC
  8
0
  6
PHANTOM
 10
-172.549759
 20
-65.558495
 40
24.999998
 50
158.899811
 51
201.100159
  0
ARC
  8
0
  6
PHANTOM
 10
-219.197372
 20
-83.558495
 40
25.000000
 50
338.899811
 51
21.100197
  0
ARC
  8
0
  6
PHANTOM
 10
-172.549759
 20
-195.558487
 40
25.000000
 50
158.899811
 51
201.100159
  0
ARC
  8
0
  6
PHANTOM
 10
-218.323517
 20
-215.558487
 40
25.000006
 50
333.896118
 51
26.103874
  0
CIRCLE
  8
0
 10
-208.873550
 20
146.999969
 40
2.750000
  0
CIRCLE
  8
0
 10
-208.873611
 20
182.999969
 40
2.750000
  0
CIRCLE
  8
0
 10
-217.373566
 20
146.999969
 40
2.750000
  0
CIRCLE
  8
0
 10
-213.123596
 20
176.499969
 40
2.750000
  0
CIRCLE
  8
0
 10
-217.373627
 20
182.999969
 40
2.750000
  0
ARC
  8
0
 10
-101.373657
 20
58.299961
 40
3.900001
 50
283.002686
 51
300.851898
  0
ARC
  8
0
 10
-106.373657
 20
55.999954
 40
1.500000
 50
180.000000
 51
270.000000
  0
ARC
  8
0
 10
-70.373657
 20
58.299969
 40
3.899999
 50
239.148102
 51
256.997314
  0
ARC
  8
0
 10
-65.373657
 20
55.999969
 40
1.500000
 50
270.000000
 51
0.000000
  0
CIRCLE
  8
0
 10
-85.873665
 20
69.499962
 40
4.459000
  0
CIRCLE
  8
0
 10
-85.873665
 20
69.499962
 40
5.000000
  0
ARC
  8
0
 10
-64.873665
 20
67.499969
 40
1.000000
 50
0.000000
 51
90.000000
  0
ARC
  8
0
 10
-106.873665
 20
67.499954
 40
1.000000
 50
90.000000
 51
180.000000
  0
ARC
  8
0
 10
-72.123665
 20
71.999969
 40
1.000000
 50
0.000000
 51
90.000000
  0
ARC
  8
0
 10
-99.623665
 20
71.999954
 40
1.000000
 50
90.000000
 51
180.000000
  0
ARC
  8
0
 10
-93.123665
 20
74.062347
 40
1.000002
 50
112.431328
 51
180.000000
  0
ARC
  8
0
 10
-78.623665
 20
74.062347
 40
1.000000
 50
0.000000
 51
67.568672
  0
ARC
  8
0
 10
-105.573654
 20
61.499954
 40
0.799999
 50
90.000000
 51
180.000000
  0
ARC
  8
0
 10
-66.173660
 20
61.499969
 40
0.800003
 50
0.000000
 51
90.000000
  0
ARC
  8
0
 10
-85.873657
 20
56.499962
 40
19.999998
 50
67.568489
 51
112.431534
  0
CIRCLE
  8
0
 10
167.500031
 20
137.500000
 40
3.500000
  0
CIRCLE
  8
0
 10
157.999969
 20
182.500000
 40
3.500000
  0
CIRCLE
  8
0
 10
167.499969
 20
182.500000
 40
3.500000
  0
CIRCLE
  8
0
 10
158.000031
 20
137.500000
 40
3.500000
  0
CIRCLE
  8
0
 10
162.749954
 20
174.500000
 40
3.500000
  0
ARC
  8
0
 10
254.500000
 20
53.099968
 40
2.000000
 50
180.000000
 51
270.000000
  0
ARC
  8
0
 10
260.500000
 20
55.749969
 40
4.650002
 50
270.000000
 51
302.522766
  0
ARC
  8
0
 10
305.500000
 20
53.099968
 40
2.000000
 50
270.000000
 51
0.000000
  0
ARC
  8
0
 10
299.500000
 20
55.749969
 40
4.649999
 50
237.477249
 51
270.000000
  0
ARC
  8
0
 10
289.500000
 20
74.539711
 40
1.000000
 50
0.000000
 51
66.681618
  0
ARC
  8
0
 10
270.500000
 20
74.539711
 40
1.000009
 50
113.318382
 51
180.000000
  0
ARC
  8
0
 10
297.500000
 20
71.999969
 40
1.000000
 50
0.000000
 51
90.000000
  0
ARC
  8
0
 10
262.500000
 20
71.999969
 40
1.000000
 50
90.000000
 51
180.000000
  0
ARC
  8
0
 10
306.500000
 20
67.499969
 40
1.000000
 50
0.000000
 51
90.000000
  0
ARC
  8
0
 10
253.500000
 20
67.499969
 40
1.000000
 50
90.000000
 51
180.000000
  0
ARC
  8
0
 10
280.000000
 20
52.499969
 40
24.999994
 50
66.682091
 51
113.317978
  0
CIRCLE
  8
0
 10
280.000000
 20
69.499969
 40
5.459000
  0
CIRCLE
  8
0
 10
280.000000
 20
69.499969
 40
6.000000
  0
CIRCLE
  8
0
 10
-53.873505
 20
-49.058491
 40
4.250000
  0
CIRCLE
  8
0
 10
-64.873566
 20
-49.058483
 40
4.250000
  0
CIRCLE
  8
0
 10
-53.873535
 20
-100.058502
 40
4.250000
  0
CIRCLE
  8
0
 10
-64.873596
 20
-100.058487
 40
4.250000
  0
CIRCLE
  8
0
 10
-59.373543
 20
-59.058495
 40
4.250000
  0
CIRCLE
  8
0
 10
109.126419
 20
-176.558487
 40
6.188000
  0
ARC
  8
0
 10
87.126404
 20
-192.858475
 40
5.500000
 50
270.000000
 51
291.323700
  0
ARC
  8
0
 10
79.126404
 20
-196.358459
 40
2.000000
 50
180.000000
 51
270.000000
  0
ARC
  8
0
 10
131.126404
 20
-192.858505
 40
5.499999
 50
248.676315
 51
270.000000
  0
ARC
  8
0
 10
139.126404
 20
-196.358521
 40
2.000000
 50
270.000000
 51
0.000000
  0
ARC
  8
0
 10
99.626419
 20
-170.018738
 40
0.999996
 50
113.317749
 51
180.000000
  0
ARC
  8
0
 10
118.626419
 20
-170.018768
 40
1.000000
 50
0.000000
 51
66.682251
  0
ARC
  8
0
 10
109.126404
 20
-192.058487
 40
24.999992
 50
66.682045
 51
113.317970
  0
ARC
  8
0
 10
128.626419
 20
-173.558502
 40
1.000000
 50
0.000000
 51
90.000000
  0
ARC
  8
0
 10
89.626419
 20
-173.558472
 40
1.000000
 50
90.000000
 51
180.000000
  0
CIRCLE
  8
0
 10
109.126419
 20
-176.558487
 40
7.000000
  0
ARC
  8
0
 10
139.626419
 20
-179.058502
 40
1.500000
 50
0.000000
 51
90.000000
  0
ARC
  8
0
 10
78.626419
 20
-179.058472
 40
1.500000
 50
90.000000
 51
180.000000
  0
TEXT
  8
0
 10
226.462494
 20
233.607468
 40
8.500000
  1
DATE : OCT ,1991
 50
0.000000
 41
1.052631
 51
0.000000
  7
STANDARD
  0
TEXT
  8
0
 10
-197.052139
 20
222.956390
 40
10.000000
  1
BORE : 16
 50
0.000000
 41
1.052632
 51
0.000000
  7
STANDARD
  0
TEXT
  8
0
 10
23.821430
 20
222.956390
 40
10.000000
  1
BORE : 20
 50
0.000000
 41
1.052632
 51
0.000000
  7
STANDARD
  0
TEXT
  8
0
 10
-347.052124
 20
-38.000000
 40
10.000000
  1
BORE : 25
 50
0.000000
 41
1.052632
 51
0.000000
  7
STANDARD
  0
TEXT
  8
0
 10
-350.779907
 20
232.257462
 40
10.000000
  1
ORGA A-BOLT
 50
0.000000
 41
1.052632
 51
0.000000
  7
STANDARD
  0
ENDSEC
  0
EOF
