  0
SECTION
  2
HEADER
  0
ENDSEC
  0
SECTION
  2
TABLES
  0
TABLE
  2
LTYPE
 70
     4
  0
LTYPE
  2
CONTINUOUS
 70
    64
  3
Solid line
 72
    65
 73
     0
 40
0.000000
  0
LTYPE
  2
DASHED
 70
    64
  3
__ __ __ __ __ __ __ __ __ __ __ __ __ __ __
 72
    65
 73
     2
 40
3.500000
 49
2.000000
 49
-1.500000
  0
LTYPE
  2
CENTER
 70
    64
  3
____ _ ____ _ ____ _ ____ _ ____ _ ____ _ ____
 72
    65
 73
     4
 40
17.500000
 49
13.000000
 49
-1.500000
 49
1.500000
 49
-1.500000
  0
LTYPE
  2
PHANTOM
 70
    64
  3
_____ _ _ _____ _ _ _____ _ _ _____ _ _ ____  
 72
    65
 73
     6
 40
15.500000
 49
8.000000
 49
-1.500000
 49
1.500000
 49
-1.500000
 49
1.500000
 49
-1.500000
  0
LTYPE
  2
DASHED1
 70
    64
  3
__ __ __ __ __ __ __ __ __ __ __ __ __ __ __
 72
    65
 73
     2
 40
1.500000
 49
1.000000
 49
-0.500000
  0
LTYPE
  2
DASHED2
 70
    64
  3
__ __ __ __ __ __ __ __ __ __ __ __ __ __ __
 72
    65
 73
     2
 40
3.500000
 49
2.500000
 49
-1.000000
  0
LTYPE
  2
DASHED3
 70
    64
  3
__ __ __ __ __ __ __ __ __ __ __ __ __ __ __
 72
    65
 73
     2
 40
6.000000
 49
4.000000
 49
-2.000000
  0
LTYPE
  2
DASHED4
 70
    64
  3
__ __ __ __ __ __ __ __ __ __ __ __ __ __ __
 72
    65
 73
     2
 40
12.000000
 49
10.000000
 49
-2.000000
  0
LTYPE
  2
DASHED5
 70
    64
  3
__ __ __ __ __ __ __ __ __ __ __ __ __ __ __
 72
    65
 73
     2
 40
17.000000
 49
15.000000
 49
-2.000000
  0
LTYPE
  2
DASHED6
 70
    64
  3
__ __ __ __ __ __ __ __ __ __ __ __ __ __ __
 72
    65
 73
     2
 40
29.000000
 49
27.000000
 49
-2.000000
  0
LTYPE
  2
PHANTOM1
 70
    64
  3
_____ _ _ _____ _ _ _____ _ _ _____ _ _ ____  
 72
    65
 73
     6
 40
31.000000
 49
25.000000
 49
-1.500000
 49
1.000000
 49
-1.000000
 49
1.000000
 49
-1.500000
  0
LTYPE
  2
PHANTOM2
 70
    64
  3
_____ _ _ _____ _ _ _____ _ _ _____ _ _ ____  
 72
    65
 73
     6
 40
36.000000
 49
27.000000
 49
-1.500000
 49
2.500000
 49
-1.000000
 49
2.500000
 49
-1.500000
  0
LTYPE
  2
PHANTOM3
 70
    64
  3
_____ _ _ _____ _ _ _____ _ _ _____ _ _ ____  
 72
    65
 73
     6
 40
78.000000
 49
64.000000
 49
-2.000000
 49
4.000000
 49
-2.000000
 49
4.000000
 49
-2.000000
  0
LTYPE
  2
CENTER1
 70
    64
  3
____ _ ____ _ ____ _ ____ _ ____ _ ____ _ ____
 72
    65
 73
     4
 40
19.000000
 49
14.000000
 49
-1.000000
 49
3.000000
 49
-1.000000
  0
LTYPE
  2
CENTER2
 70
    64
  3
____ _ ____ _ ____ _ ____ _ ____ _ ____ _ ____
 72
    65
 73
     4
 40
28.500000
 49
25.000000
 49
-1.000000
 49
1.500000
 49
-1.000000
  0
LTYPE
  2
CENTER3
 70
    64
  3
____ _ ____ _ ____ _ ____ _ ____ _ ____ _ ____
 72
    65
 73
     4
 40
31.500000
 49
27.000000
 49
-1.000000
 49
2.500000
 49
-1.000000
  0
LTYPE
  2
CENTER4
 70
    64
  3
____ _ ____ _ ____ _ ____ _ ____ _ ____ _ ____
 72
    65
 73
     4
 40
50.000000
 49
45.000000
 49
-1.000000
 49
3.000000
 49
-1.000000
  0
LTYPE
  2
CENTER5
 70
    64
  3
____ _ ____ _ ____ _ ____ _ ____ _ ____ _ ____
 72
    65
 73
     4
 40
100.000000
 49
92.000000
 49
-2.000000
 49
4.000000
 49
-2.000000
  0
LTYPE
  2
SBK1
 70
    64
  3
______ _ _ _ ______ _ _ _ ______ _ _ _ _____  
 72
    65
 73
     8
 40
60.500000
 49
45.000000
 49
-2.000000
 49
2.500000
 49
-2.000000
 49
2.500000
 49
-2.000000
 49
2.500000
 49
-2.000000
  0
LTYPE
  2
SBK2
 70
    64
  3
______ _ _ _ ______ _ _ _ ______ _ _ _ _____  
 72
    65
 73
     8
 40
84.000000
 49
64.000000
 49
-2.000000
 49
4.000000
 49
-2.000000
 49
4.000000
 49
-2.000000
 49
4.000000
 49
-2.000000
  0
LTYPE
  2
STCH
 70
    64
  3
__ __ __ __ __ __ __ __ __ __ __ __ __ __ __
 72
    65
 73
     2
 40
3.000000
 49
1.000000
 49
-2.000000
  0
LTYPE
  2
MTCH
 70
    64
  3
_____ _ _ _____ _ _ _____ _ _ _____ _ _ ____  
 72
    65
 73
     6
 40
80.000000
 49
66.000000
 49
-2.000000
 49
4.000000
 49
-2.000000
 49
4.000000
 49
-2.000000
  0
ENDTAB
  0
TABLE
  2
LAYER
 70
     1
  0
LAYER
  2
0
 70
     0
 62
     7
  6
CONTINUOUS
  0
ENDTAB
  0
TABLE
  2
STYLE
 70
     1
  0
STYLE
  2
STANDARD
 70
     0
 40
0.000000
 41
1.000000
 50
0.000000
 71
     0
 42
0.200000
  3
txt
  4
BIGFONT
  0
ENDTAB
  0
TABLE
  2
VIEW
 70
     0
  0
ENDTAB
  0
ENDSEC
  0
SECTION
  2
BLOCKS
  0
ENDSEC
  0
SECTION
  2
ENTITIES
  0
POINT
  8
0
 10
-426.000092
 20
84.999908
  0
POINT
  8
0
 10
-426.000183
 20
285.000000
  0
POINT
  8
0
 10
-201.750015
 20
84.999840
  0
POINT
  8
0
 10
-386.750244
 20
84.999908
  0
POINT
  8
0
 10
-386.750244
 20
285.000000
  0
POINT
  8
0
 10
-175.750000
 20
84.999840
  0
POINT
  8
0
 10
303.000336
 20
305.000214
  0
POINT
  8
0
 10
302.999847
 20
84.999939
  0
POINT
  8
0
 10
550.000366
 20
84.999985
  0
POINT
  8
0
 10
350.000153
 20
84.999939
  0
POINT
  8
0
 10
349.999847
 20
305.000214
  0
POINT
  8
0
 10
580.000305
 20
84.999985
  0
POINT
  8
0
 10
-102.249954
 20
-159.114929
  0
POINT
  8
0
 10
-102.250046
 20
-404.115143
  0
POINT
  8
0
 10
188.249908
 20
-404.115112
  0
POINT
  8
0
 10
-51.750084
 20
-404.115143
  0
POINT
  8
0
 10
-51.749985
 20
-159.114929
  0
POINT
  8
0
 10
225.249863
 20
-404.115112
  0
LINE
  8
0
 62
     3
 10
-741.750000
 20
-509.114990
 11
741.750000
 21
-509.114990
  0
LINE
  8
0
 62
     3
 10
-741.750000
 20
509.114990
 11
741.750000
 21
509.114990
  0
LINE
  8
0
 62
     3
 10
741.750000
 20
509.114990
 11
741.750000
 21
-509.114990
  0
LINE
  8
0
 62
     3
 10
-741.750000
 20
509.114990
 11
-741.750000
 21
-509.114990
  0
LINE
  8
0
 62
     5
 10
516.764709
 20
-465.668823
 11
546.072388
 21
-465.668823
  0
LINE
  8
0
 62
     5
 10
516.764709
 20
-491.658691
 11
541.648621
 21
-491.658691
  0
LINE
  8
0
 62
     5
 10
516.764709
 20
-498.294342
 11
550.496216
 21
-498.294342
  0
LINE
  8
0
 62
     5
 10
516.764709
 20
-472.304474
 11
541.648621
 21
-472.304474
  0
LINE
  8
0
 62
     5
 10
516.764709
 20
-465.668823
 11
516.764709
 21
-472.304474
  0
LINE
  8
0
 62
     5
 10
550.496216
 20
-470.092651
 11
550.496216
 21
-498.294342
  0
LINE
  8
0
 62
     5
 10
541.648621
 20
-472.304474
 11
541.648621
 21
-491.658691
  0
LINE
  8
0
 62
     5
 10
555.472900
 20
-465.668823
 11
555.472900
 21
-472.304474
  0
LINE
  8
0
 62
     5
 10
586.992432
 20
-472.304474
 11
586.992432
 21
-493.870697
  0
LINE
  8
0
 62
     5
 10
578.144897
 20
-472.304474
 11
578.144897
 21
-491.658691
  0
LINE
  8
0
 62
     5
 10
516.764709
 20
-491.658691
 11
516.764709
 21
-498.294342
  0
LINE
  8
0
 62
     5
 10
555.472900
 20
-465.668823
 11
564.214966
 21
-465.668823
  0
LINE
  8
0
 62
     5
 10
555.472900
 20
-498.294342
 11
562.342773
 21
-498.294342
  0
LINE
  8
0
 62
     5
 10
555.472717
 20
-498.294098
 11
562.436890
 21
-472.304413
  0
LINE
  8
0
 62
     5
 10
555.472900
 20
-472.304474
 11
562.436951
 21
-472.304474
  0
LINE
  8
0
 62
     5
 10
562.343140
 20
-498.294647
 11
569.307007
 21
-472.304871
  0
LINE
  8
0
 62
     5
 10
571.509094
 20
-491.658691
 11
578.144897
 21
-491.658691
  0
LINE
  8
0
 62
     5
 10
571.508972
 20
-491.658600
 11
573.286804
 21
-498.294128
  0
LINE
  8
0
 62
     5
 10
573.287354
 20
-498.294342
 11
582.568787
 21
-498.294342
  0
LINE
  8
0
 62
     5
 10
569.306763
 20
-472.304474
 11
578.144897
 21
-472.304474
  0
LINE
  8
0
 62
     5
 10
571.084717
 20
-465.668823
 11
580.356750
 21
-465.668823
  0
LINE
  8
0
 62
     5
 10
564.215088
 20
-465.668854
 11
565.533630
 21
-460.747498
  0
LINE
  8
0
 62
     5
 10
571.084290
 20
-465.668488
 11
572.402893
 21
-460.746979
  0
LINE
  8
0
 62
     5
 10
592.522278
 20
-465.668823
 11
603.028809
 21
-465.668823
  0
LINE
  8
0
 62
     5
 10
592.522278
 20
-472.304474
 11
618.325867
 21
-472.304474
  0
LINE
  8
0
 62
     5
 10
603.028809
 20
-498.294342
 11
611.876221
 21
-498.294342
  0
LINE
  8
0
 62
     5
 10
592.522278
 20
-465.668823
 11
592.522278
 21
-472.304474
  0
LINE
  8
0
 62
     5
 10
625.147827
 20
-484.336975
 11
625.147827
 21
-491.658691
  0
LINE
  8
0
 62
     5
 10
592.521790
 20
-491.658447
 11
603.028564
 21
-486.759003
  0
LINE
  8
0
 62
     5
 10
592.522827
 20
-484.337433
 11
618.326355
 21
-472.304932
  0
LINE
  8
0
 62
     5
 10
592.522278
 20
-484.336975
 11
592.522278
 21
-491.658691
  0
LINE
  8
0
 62
     5
 10
611.876038
 20
-485.469879
 11
625.147766
 21
-491.658478
  0
LINE
  8
0
 62
     5
 10
616.686646
 20
-480.391724
 11
625.148682
 21
-484.337585
  0
LINE
  8
0
 62
     5
 10
625.147827
 20
-470.092651
 11
625.147827
 21
-473.626892
  0
LINE
  8
0
 62
     5
 10
603.028809
 20
-460.747406
 11
603.028809
 21
-465.668823
  0
LINE
  8
0
 62
     5
 10
611.876221
 20
-460.747406
 11
611.876221
 21
-465.668823
  0
LINE
  8
0
 62
     5
 10
611.876221
 20
-465.668823
 11
620.723999
 21
-465.668823
  0
LINE
  8
0
 62
     5
 10
603.028809
 20
-486.759460
 11
603.028809
 21
-498.294342
  0
LINE
  8
0
 62
     5
 10
611.876221
 20
-485.470184
 11
611.876221
 21
-498.294342
  0
LINE
  8
0
 62
     5
 10
616.686707
 20
-480.391937
 11
622.594543
 21
-477.637115
  0
LINE
  8
0
 62
     5
 10
655.008484
 20
-462.738159
 11
661.644043
 21
-462.738159
  0
LINE
  8
0
 62
     5
 10
627.912720
 20
-476.445160
 11
627.912720
 21
-483.586365
  0
LINE
  8
0
 62
     5
 10
661.644043
 20
-462.738159
 11
661.644043
 21
-465.668823
  0
LINE
  8
0
 62
     5
 10
655.008484
 20
-462.738159
 11
655.008484
 21
-464.168060
  0
LINE
  8
0
 62
     5
 10
646.160828
 20
-476.328888
 11
646.160828
 21
-498.294342
  0
LINE
  8
0
 62
     5
 10
627.912903
 20
-476.445496
 11
653.614319
 21
-466.223785
  0
LINE
  8
0
 62
     5
 10
627.912598
 20
-483.586365
 11
646.160706
 21
-476.328796
  0
LINE
  8
0
 62
     5
 10
646.160828
 20
-498.294342
 11
655.008484
 21
-498.294342
  0
LINE
  8
0
 62
     5
 10
655.008484
 20
-472.810120
 11
655.008484
 21
-498.294342
  0
LINE
  8
0
 62
     5
 10
655.009155
 20
-472.810547
 11
657.461609
 21
-471.835114
  0
LINE
  8
0
 62
     5
 10
565.533691
 20
-460.747406
 11
572.403381
 21
-460.747406
  0
LINE
  8
0
 62
     5
 10
583.398193
 20
-460.747406
 11
586.218201
 21
-460.747406
  0
LINE
  8
0
 62
     5
 10
603.028809
 20
-460.747406
 11
611.876221
 21
-460.747406
  0
LINE
  8
0
 62
     5
 10
583.398193
 20
-465.171234
 11
586.218201
 21
-465.171234
  0
LINE
  8
0
 62
     5
 10
583.398193
 20
-460.747406
 11
583.398193
 21
-465.171234
  0
LINE
  8
0
 62
     5
 10
586.218201
 20
-460.747406
 11
586.218201
 21
-465.171234
  0
LINE
  8
0
 62
     5
 10
587.877319
 20
-460.747406
 11
587.877319
 21
-465.171234
  0
LINE
  8
0
 62
     5
 10
591.029297
 20
-460.747406
 11
591.029297
 21
-465.171234
  0
LINE
  8
0
 62
     5
 10
587.877319
 20
-460.747406
 11
591.029297
 21
-460.747406
  0
LINE
  8
0
 62
     5
 10
587.877319
 20
-465.171234
 11
591.029297
 21
-465.171234
  0
LINE
  8
0
 62
     3
 10
436.659546
 20
-451.914154
 11
436.659546
 21
-509.118408
  0
LINE
  8
0
 62
     3
 10
436.659546
 20
-451.914154
 11
741.749207
 21
-451.914154
  0
LINE
  8
0
 62
     3
 10
436.659546
 20
509.118408
 11
436.659546
 21
451.914032
  0
LINE
  8
0
 62
     3
 10
436.659546
 20
451.914032
 11
741.749207
 21
451.914032
  0
LINE
  8
0
 62
     3
 10
-317.483978
 20
451.914032
 11
-317.483978
 21
509.118408
  0
LINE
  8
0
 62
     3
 10
-741.749207
 20
451.914032
 11
-317.483978
 21
451.914032
  0
LINE
  8
0
 10
-741.749207
 20
-0.000061
 11
741.750000
 21
-0.000061
  0
LINE
  8
0
 10
0.000000
 20
509.114990
 11
0.000000
 21
-0.000061
  0
LINE
  8
0
  6
PHANTOM
 10
-386.750092
 20
110.999969
 11
-386.750092
 21
58.999969
  0
LINE
  8
0
  6
PHANTOM
 10
-386.750122
 20
110.999847
 11
-413.750122
 21
110.999847
  0
LINE
  8
0
  6
PHANTOM
 10
-386.750061
 20
58.999847
 11
-413.750061
 21
58.999847
  0
LINE
  8
0
  6
CENTER
 10
-511.750122
 20
137.999847
 11
-511.750122
 21
49.999863
  0
LINE
  8
0
  6
PHANTOM
 10
-601.750122
 20
54.999847
 11
-413.750061
 21
54.999847
  0
LINE
  8
0
  6
CENTER
 10
-606.750244
 20
84.999893
 11
-381.750092
 21
84.999893
  0
LINE
  8
0
  6
PHANTOM
 10
-603.083618
 20
88.699890
 11
-413.750092
 21
88.699890
  0
LINE
  8
0
  6
PHANTOM
 10
-599.446594
 20
79.999893
 11
-413.750092
 21
79.999893
  0
LINE
  8
0
  6
PHANTOM
 10
-598.337036
 20
75.999893
 11
-413.750092
 21
75.999893
  0
LINE
  8
0
  6
PHANTOM
 10
-598.336914
 20
63.999893
 11
-413.750061
 21
63.999893
  0
LINE
  8
0
  6
PHANTOM
 10
-599.628296
 20
59.499893
 11
-413.750061
 21
59.499893
  0
LINE
  8
0
  6
PHANTOM
 10
-574.250122
 20
132.999847
 11
-449.250153
 21
132.999847
  0
LINE
  8
0
  6
PHANTOM
 10
-584.250122
 20
129.999756
 11
-584.250122
 21
111.999763
  0
LINE
  8
0
  6
PHANTOM
 10
-439.250122
 20
129.999878
 11
-439.250122
 21
127.999817
  0
LINE
  8
0
  6
PHANTOM
 10
-581.750122
 20
131.999756
 11
-581.750122
 21
90.999763
  0
LINE
  8
0
  6
PHANTOM
 10
-574.250122
 20
132.999802
 11
-574.250122
 21
90.999771
  0
LINE
  8
0
  6
PHANTOM
 10
-581.750122
 20
131.999817
 11
-441.750153
 21
131.999817
  0
LINE
  8
0
  6
PHANTOM
 10
-581.750122
 20
90.999817
 11
-441.750122
 21
90.999817
  0
LINE
  8
0
  6
PHANTOM
 10
-584.250122
 20
129.999817
 11
-582.750122
 21
129.999817
  0
LINE
  8
0
  6
PHANTOM
 10
-584.250122
 20
111.999817
 11
-582.750122
 21
111.999817
  0
LINE
  8
0
  6
PHANTOM
 10
-440.750153
 20
129.999817
 11
-439.250153
 21
129.999817
  0
LINE
  8
0
  6
PHANTOM
 10
-440.750153
 20
111.999817
 11
-439.250153
 21
111.999817
  0
LINE
  8
0
  6
PHANTOM
 10
-603.541992
 20
103.499893
 11
-581.750122
 21
103.499893
  0
LINE
  8
0
  6
PHANTOM
 10
-604.153748
 20
99.458435
 11
-581.750122
 21
99.458435
  0
LINE
  8
0
  6
PHANTOM
 10
-603.986816
 20
92.999893
 11
-581.750122
 21
92.999893
  0
LINE
  8
0
  6
PHANTOM
 10
-601.750122
 20
108.999847
 11
-581.750122
 21
108.999847
  0
LINE
  8
0
  6
PHANTOM
 10
-440.750122
 20
129.999878
 11
-440.750122
 21
111.999817
  0
LINE
  8
0
  6
PHANTOM
 10
-582.750122
 20
129.999756
 11
-582.750122
 21
111.999763
  0
LINE
  8
0
  6
PHANTOM
 10
-582.750122
 20
114.499817
 11
-581.750122
 21
114.499817
  0
LINE
  8
0
  6
PHANTOM
 10
-582.750122
 20
127.499817
 11
-581.750122
 21
127.499817
  0
LINE
  8
0
  6
PHANTOM
 10
-441.750153
 20
127.499817
 11
-440.750153
 21
127.499817
  0
LINE
  8
0
  6
PHANTOM
 10
-441.750153
 20
114.499817
 11
-440.750153
 21
114.499817
  0
LINE
  8
0
  6
CENTER
 10
-589.250122
 20
120.999817
 11
-569.250122
 21
120.999817
  0
LINE
  8
0
  6
PHANTOM
 10
-441.750153
 20
108.999847
 11
-438.250092
 21
108.999847
  0
LINE
  8
0
  6
PHANTOM
 10
-441.750122
 20
103.499893
 11
-438.250092
 21
103.499893
  0
LINE
  8
0
  6
PHANTOM
 10
-441.750122
 20
99.458435
 11
-438.250092
 21
99.458435
  0
LINE
  8
0
  6
PHANTOM
 10
-441.750122
 20
92.999893
 11
-413.750092
 21
92.999893
  0
LINE
  8
0
  6
CENTER
 10
-606.750244
 20
285.000000
 11
-381.750214
 21
285.000000
  0
LINE
  8
0
  6
PHANTOM
 10
-386.750214
 20
311.000000
 11
-386.750214
 21
259.000000
  0
LINE
  8
0
  6
PHANTOM
 10
-386.750214
 20
259.000000
 11
-413.750214
 21
259.000000
  0
LINE
  8
0
  6
PHANTOM
 10
-386.750214
 20
311.000000
 11
-413.750214
 21
311.000000
  0
LINE
  8
0
  6
PHANTOM
 10
-598.791687
 20
276.500000
 11
-584.250244
 21
276.500000
  0
LINE
  8
0
  6
PHANTOM
 10
-604.708740
 20
293.500000
 11
-584.250244
 21
293.500000
  0
LINE
  8
0
  6
CENTER
 10
-511.750244
 20
330.000000
 11
-511.750244
 21
240.000000
  0
LINE
  8
0
  6
PHANTOM
 10
-574.250244
 20
245.000000
 11
-449.250214
 21
245.000000
  0
LINE
  8
0
  6
PHANTOM
 10
-574.250244
 20
325.000000
 11
-449.250214
 21
325.000000
  0
LINE
  8
0
  6
PHANTOM
 10
-574.250244
 20
325.000000
 11
-574.250244
 21
245.000000
  0
LINE
  8
0
  6
PHANTOM
 10
-449.250214
 20
325.000000
 11
-449.250214
 21
245.000000
  0
LINE
  8
0
  6
PHANTOM
 10
-581.750244
 20
324.000000
 11
-581.750244
 21
246.000000
  0
LINE
  8
0
  6
PHANTOM
 10
-441.750214
 20
324.000000
 11
-441.750214
 21
246.000000
  0
LINE
  8
0
  6
PHANTOM
 10
-581.750244
 20
246.000000
 11
-574.250244
 21
246.000000
  0
LINE
  8
0
  6
PHANTOM
 10
-581.750244
 20
324.000000
 11
-574.250244
 21
324.000000
  0
LINE
  8
0
  6
PHANTOM
 10
-449.250214
 20
246.000000
 11
-441.750214
 21
246.000000
  0
LINE
  8
0
  6
PHANTOM
 10
-449.250214
 20
324.000000
 11
-441.750214
 21
324.000000
  0
LINE
  8
0
  6
PHANTOM
 10
-584.250244
 20
294.000000
 11
-584.250244
 21
276.000000
  0
LINE
  8
0
  6
PHANTOM
 10
-440.750214
 20
294.000000
 11
-440.750214
 21
276.000000
  0
LINE
  8
0
  6
PHANTOM
 10
-582.750244
 20
294.000000
 11
-582.750244
 21
276.000000
  0
LINE
  8
0
  6
PHANTOM
 10
-584.250244
 20
276.000000
 11
-582.750244
 21
276.000000
  0
LINE
  8
0
  6
PHANTOM
 10
-584.250244
 20
294.000000
 11
-582.750244
 21
294.000000
  0
LINE
  8
0
  6
PHANTOM
 10
-440.750214
 20
294.000000
 11
-439.250214
 21
294.000000
  0
LINE
  8
0
  6
PHANTOM
 10
-440.750214
 20
276.000000
 11
-439.250214
 21
276.000000
  0
LINE
  8
0
  6
PHANTOM
 10
-582.750244
 20
291.500000
 11
-581.750244
 21
291.500000
  0
LINE
  8
0
  6
PHANTOM
 10
-582.750244
 20
278.500000
 11
-581.750244
 21
278.500000
  0
LINE
  8
0
  6
PHANTOM
 10
-441.750214
 20
291.500000
 11
-440.750214
 21
291.500000
  0
LINE
  8
0
  6
PHANTOM
 10
-441.750214
 20
278.500000
 11
-440.750214
 21
278.500000
  0
LINE
  8
0
  6
PHANTOM
 10
-582.750244
 20
293.500000
 11
-581.750244
 21
293.500000
  0
LINE
  8
0
  6
PHANTOM
 10
-582.750244
 20
276.500000
 11
-581.750244
 21
276.500000
  0
LINE
  8
0
  6
PHANTOM
 10
-440.750214
 20
293.500000
 11
-441.750214
 21
293.500000
  0
LINE
  8
0
  6
PHANTOM
 10
-440.750214
 20
276.500000
 11
-441.750214
 21
276.500000
  0
LINE
  8
0
  6
PHANTOM
 10
-574.250244
 20
255.000000
 11
-449.250214
 21
255.000000
  0
LINE
  8
0
  6
PHANTOM
 10
-574.250244
 20
315.000000
 11
-449.250214
 21
315.000000
  0
LINE
  8
0
  6
PHANTOM
 10
-601.750244
 20
313.000000
 11
-581.750244
 21
313.000000
  0
LINE
  8
0
  6
PHANTOM
 10
-601.750244
 20
257.000000
 11
-581.750244
 21
257.000000
  0
LINE
  8
0
  6
PHANTOM
 10
-441.750214
 20
313.000000
 11
-438.250214
 21
313.000000
  0
LINE
  8
0
  6
PHANTOM
 10
-441.750214
 20
257.000000
 11
-438.250214
 21
257.000000
  0
LINE
  8
0
  6
CENTER
 10
-232.750031
 20
84.999832
 11
-170.750031
 21
84.999832
  0
LINE
  8
0
  6
CENTER
 10
-201.750031
 20
137.999802
 11
-201.750031
 21
49.999832
  0
LINE
  8
0
  6
PHANTOM
 10
-219.750168
 20
110.999832
 11
-183.750168
 21
110.999832
  0
LINE
  8
0
  6
PHANTOM
 10
-227.750031
 20
102.999695
 11
-227.750031
 21
66.999695
  0
LINE
  8
0
  6
PHANTOM
 10
-175.750031
 20
102.999969
 11
-175.750031
 21
66.999969
  0
LINE
  8
0
  6
PHANTOM
 10
-219.749924
 20
58.999832
 11
-183.749893
 21
58.999832
  0
LINE
  8
0
  6
PHANTOM
 10
-171.750168
 20
132.999802
 11
-231.750168
 21
132.999802
  0
LINE
  8
0
  6
PHANTOM
 10
-229.749939
 20
54.999832
 11
-216.749939
 21
54.999832
  0
LINE
  8
0
  6
PHANTOM
 10
-186.749939
 20
54.999832
 11
-173.749939
 21
54.999832
  0
LINE
  8
0
  6
PHANTOM
 10
-186.750031
 20
54.999836
 11
-187.904739
 21
56.999851
  0
LINE
  8
0
 10
-216.750031
 20
54.999840
 11
-216.750031
 21
54.999844
  0
LINE
  8
0
  6
PHANTOM
 10
-216.750031
 20
54.999805
 11
-215.595322
 21
56.999802
  0
LINE
  8
0
  6
PHANTOM
 10
-229.750031
 20
59.228752
 11
-229.750031
 21
54.999748
  0
LINE
  8
0
  6
PHANTOM
 10
-226.750031
 20
60.999756
 11
-226.750031
 21
58.699783
  0
LINE
  8
0
  6
PHANTOM
 10
-229.749954
 20
59.228825
 11
-226.749939
 21
58.699841
  0
LINE
  8
0
  6
PHANTOM
 10
-228.150024
 20
64.799759
 11
-228.150024
 21
64.799759
  0
LINE
  8
0
  6
PHANTOM
 10
-226.450043
 20
62.628281
 11
-226.450043
 21
61.299759
  0
LINE
  8
0
  6
PHANTOM
 10
-229.750031
 20
74.999756
 11
-229.750031
 21
64.799751
  0
LINE
  8
0
  6
PHANTOM
 10
-228.150024
 20
74.999756
 11
-228.150024
 21
74.368820
  0
LINE
  8
0
  6
PHANTOM
 10
-229.750031
 20
92.149498
 11
-229.750031
 21
88.499832
  0
LINE
  8
0
  6
PHANTOM
 10
-229.750046
 20
88.499832
 11
-227.750046
 21
88.499832
  0
LINE
  8
0
  6
PHANTOM
 10
-227.750031
 20
72.875977
 11
-228.150040
 21
74.368820
  0
LINE
  8
0
  6
PHANTOM
 10
-173.750031
 20
59.228912
 11
-173.750031
 21
54.999916
  0
LINE
  8
0
  6
PHANTOM
 10
-176.750031
 20
60.999908
 11
-176.750031
 21
58.699928
  0
LINE
  8
0
  6
PHANTOM
 10
-173.749939
 20
59.228859
 11
-176.749954
 21
58.699875
  0
LINE
  8
0
  6
PHANTOM
 10
-175.350037
 20
64.799911
 11
-175.350037
 21
64.799911
  0
LINE
  8
0
  6
PHANTOM
 10
-177.050018
 20
62.628433
 11
-177.050018
 21
61.299911
  0
LINE
  8
0
  6
PHANTOM
 10
-173.750031
 20
74.999908
 11
-173.750031
 21
64.799919
  0
LINE
  8
0
  6
PHANTOM
 10
-175.350037
 20
74.999908
 11
-175.350037
 21
74.368973
  0
LINE
  8
0
  6
PHANTOM
 10
-173.750031
 20
92.149666
 11
-173.750031
 21
88.499832
  0
LINE
  8
0
  6
PHANTOM
 10
-173.750046
 20
88.499832
 11
-175.750046
 21
88.499832
  0
LINE
  8
0
  6
PHANTOM
 10
-175.750031
 20
72.876068
 11
-175.350021
 21
74.368965
  0
LINE
  8
0
  6
PHANTOM
 10
-241.750031
 20
130.499695
 11
-241.750031
 21
95.499687
  0
LINE
  8
0
  6
PHANTOM
 10
-161.750031
 20
130.499908
 11
-161.750031
 21
95.499916
  0
LINE
  8
0
  6
PHANTOM
 10
-166.250046
 20
90.999802
 11
-172.750046
 21
90.999802
  0
LINE
  8
0
  6
PHANTOM
 10
-230.750046
 20
90.999802
 11
-237.250046
 21
90.999802
  0
LINE
  8
0
  6
PHANTOM
 10
-172.750031
 20
93.499832
 11
-172.750031
 21
90.999886
  0
LINE
  8
0
  6
PHANTOM
 10
-230.750031
 20
93.499832
 11
-230.750031
 21
90.999718
  0
LINE
  8
0
  6
PHANTOM
 10
-163.250168
 20
131.999802
 11
-170.750153
 21
131.999802
  0
LINE
  8
0
  6
PHANTOM
 10
-171.750122
 20
132.999908
 11
-170.750122
 21
131.999908
  0
LINE
  8
0
  6
PHANTOM
 10
-231.750137
 20
132.999649
 11
-232.750107
 21
131.999664
  0
LINE
  8
0
  6
PHANTOM
 10
-232.750168
 20
131.999802
 11
-240.250168
 21
131.999802
  0
LINE
  8
0
  6
PHANTOM
 10
320.000031
 20
54.999947
 11
350.000031
 21
54.999947
  0
LINE
  8
0
  6
PHANTOM
 10
320.000031
 20
114.999939
 11
350.000031
 21
114.999939
  0
LINE
  8
0
  6
PHANTOM
 10
350.000031
 20
115.000000
 11
350.000031
 21
54.999992
  0
LINE
  8
0
  6
CENTER
 10
200.000092
 20
147.999969
 11
200.000092
 21
44.999947
  0
LINE
  8
0
  6
CENTER
 10
95.000092
 20
84.999977
 11
355.000153
 21
84.999977
  0
LINE
  8
0
  6
PHANTOM
 10
100.000092
 20
52.999977
 11
320.000031
 21
52.999977
  0
LINE
  8
0
  6
PHANTOM
 10
100.000092
 20
112.999977
 11
117.500092
 21
112.999977
  0
LINE
  8
0
  6
PHANTOM
 10
125.000092
 20
142.999969
 11
275.000092
 21
142.999969
  0
LINE
  8
0
  6
PHANTOM
 10
115.000092
 20
136.999969
 11
115.000092
 21
116.999969
  0
LINE
  8
0
  6
PHANTOM
 10
285.000092
 20
136.999985
 11
285.000092
 21
134.999939
  0
LINE
  8
0
  6
PHANTOM
 10
117.500092
 20
90.999977
 11
282.500092
 21
90.999977
  0
LINE
  8
0
  6
PHANTOM
 10
117.500092
 20
141.999969
 11
282.500092
 21
141.999969
  0
LINE
  8
0
  6
PHANTOM
 10
282.500092
 20
141.999985
 11
282.500092
 21
90.999985
  0
LINE
  8
0
  6
PHANTOM
 10
117.500092
 20
141.999969
 11
117.500092
 21
90.999969
  0
LINE
  8
0
  6
PHANTOM
 10
125.000092
 20
142.999969
 11
125.000092
 21
90.999969
  0
LINE
  8
0
  6
PHANTOM
 10
275.000092
 20
142.999985
 11
275.000092
 21
90.999985
  0
LINE
  8
0
  6
PHANTOM
 10
282.500092
 20
112.999977
 11
286.000031
 21
112.999977
  0
LINE
  8
0
  6
CENTER
 10
110.000092
 20
126.999969
 11
130.000092
 21
126.999969
  0
LINE
  8
0
  6
PHANTOM
 10
115.000092
 20
136.999969
 11
116.500092
 21
136.999969
  0
LINE
  8
0
  6
PHANTOM
 10
115.000092
 20
116.999969
 11
116.500092
 21
116.999969
  0
LINE
  8
0
  6
PHANTOM
 10
116.500092
 20
136.999969
 11
116.500092
 21
116.999969
  0
LINE
  8
0
  6
PHANTOM
 10
283.500092
 20
136.999985
 11
283.500092
 21
116.999985
  0
LINE
  8
0
  6
PHANTOM
 10
283.500092
 20
136.999969
 11
285.000092
 21
136.999969
  0
LINE
  8
0
  6
PHANTOM
 10
283.500092
 20
116.999969
 11
285.000092
 21
116.999969
  0
LINE
  8
0
  6
PHANTOM
 10
282.500092
 20
118.999969
 11
283.500092
 21
118.999969
  0
LINE
  8
0
  6
PHANTOM
 10
282.500092
 20
134.999969
 11
283.500092
 21
134.999969
  0
LINE
  8
0
  6
PHANTOM
 10
116.500092
 20
134.999969
 11
117.500092
 21
134.999969
  0
LINE
  8
0
  6
PHANTOM
 10
116.500092
 20
118.999969
 11
117.500092
 21
118.999969
  0
LINE
  8
0
  6
PHANTOM
 10
98.087372
 20
106.000023
 11
117.500092
 21
106.000023
  0
LINE
  8
0
  6
PHANTOM
 10
97.520111
 20
101.000008
 11
117.500092
 21
101.000008
  0
LINE
  8
0
  6
PHANTOM
 10
97.701874
 20
94.700035
 11
117.500092
 21
94.700035
  0
LINE
  8
0
  6
PHANTOM
 10
98.818939
 20
88.700020
 11
320.000031
 21
88.700020
  0
LINE
  8
0
  6
PHANTOM
 10
101.797241
 20
80.000023
 11
320.000031
 21
80.000023
  0
LINE
  8
0
  6
PHANTOM
 10
102.722198
 20
76.000023
 11
320.000031
 21
76.000023
  0
LINE
  8
0
  6
PHANTOM
 10
103.025757
 20
64.000023
 11
320.000031
 21
64.000023
  0
LINE
  8
0
  6
PHANTOM
 10
102.044739
 20
58.905327
 11
320.000031
 21
58.905327
  0
LINE
  8
0
  6
PHANTOM
 10
282.500092
 20
106.000023
 11
286.000031
 21
106.000023
  0
LINE
  8
0
  6
PHANTOM
 10
282.500092
 20
101.000008
 11
286.000031
 21
101.000008
  0
LINE
  8
0
  6
PHANTOM
 10
282.500092
 20
94.700035
 11
286.000031
 21
94.700035
  0
LINE
  8
0
  6
CENTER
 10
94.999863
 20
304.999847
 11
354.999878
 21
304.999847
  0
LINE
  8
0
  6
CENTER
 10
199.999863
 20
357.499847
 11
199.999863
 21
252.499847
  0
LINE
  8
0
  6
PHANTOM
 10
349.999878
 20
334.999786
 11
349.999878
 21
274.999847
  0
LINE
  8
0
  6
PHANTOM
 10
319.999878
 20
274.999847
 11
349.999878
 21
274.999847
  0
LINE
  8
0
  6
PHANTOM
 10
319.999878
 20
334.999847
 11
349.999878
 21
334.999847
  0
LINE
  8
0
  6
PHANTOM
 10
102.722000
 20
295.999847
 11
114.999863
 21
295.999847
  0
LINE
  8
0
  6
PHANTOM
 10
97.277725
 20
313.999847
 11
114.999863
 21
313.999847
  0
LINE
  8
0
  6
PHANTOM
 10
124.999863
 20
352.499847
 11
124.999863
 21
257.499847
  0
LINE
  8
0
  6
PHANTOM
 10
274.999878
 20
352.499847
 11
274.999878
 21
257.499847
  0
LINE
  8
0
  6
PHANTOM
 10
124.999863
 20
352.499847
 11
274.999878
 21
352.499847
  0
LINE
  8
0
  6
PHANTOM
 10
124.999863
 20
257.499847
 11
274.999878
 21
257.499847
  0
LINE
  8
0
  6
PHANTOM
 10
117.499863
 20
351.499847
 11
117.499863
 21
258.499847
  0
LINE
  8
0
  6
PHANTOM
 10
282.499878
 20
351.499847
 11
282.499878
 21
258.499847
  0
LINE
  8
0
  6
PHANTOM
 10
117.499863
 20
351.499847
 11
124.999863
 21
351.499847
  0
LINE
  8
0
  6
PHANTOM
 10
117.499863
 20
258.499847
 11
124.999863
 21
258.499847
  0
LINE
  8
0
  6
PHANTOM
 10
274.999878
 20
351.499847
 11
282.499878
 21
351.499847
  0
LINE
  8
0
  6
PHANTOM
 10
274.999878
 20
258.499847
 11
282.499878
 21
258.499847
  0
LINE
  8
0
  6
PHANTOM
 10
114.999863
 20
314.999847
 11
114.999863
 21
294.999847
  0
LINE
  8
0
  6
PHANTOM
 10
116.499863
 20
314.999847
 11
116.499863
 21
294.999847
  0
LINE
  8
0
  6
PHANTOM
 10
283.499878
 20
314.999847
 11
283.499878
 21
294.999847
  0
LINE
  8
0
  6
PHANTOM
 10
284.999878
 20
314.999847
 11
284.999878
 21
312.999847
  0
LINE
  8
0
  6
PHANTOM
 10
114.999863
 20
294.999847
 11
116.499863
 21
294.999847
  0
LINE
  8
0
  6
PHANTOM
 10
114.999863
 20
314.999847
 11
116.499863
 21
314.999847
  0
LINE
  8
0
  6
PHANTOM
 10
283.499878
 20
314.999847
 11
284.999878
 21
314.999847
  0
LINE
  8
0
  6
PHANTOM
 10
283.499878
 20
294.999847
 11
284.999878
 21
294.999847
  0
LINE
  8
0
  6
PHANTOM
 10
116.499863
 20
296.999847
 11
117.499863
 21
296.999847
  0
LINE
  8
0
  6
PHANTOM
 10
116.499863
 20
312.999847
 11
117.499863
 21
312.999847
  0
LINE
  8
0
  6
PHANTOM
 10
282.499878
 20
312.999847
 11
283.499878
 21
312.999847
  0
LINE
  8
0
  6
PHANTOM
 10
282.499878
 20
296.999847
 11
283.499878
 21
296.999847
  0
LINE
  8
0
  6
PHANTOM
 10
116.499863
 20
313.999847
 11
117.499863
 21
313.999847
  0
LINE
  8
0
  6
PHANTOM
 10
116.499863
 20
295.999847
 11
117.499863
 21
295.999847
  0
LINE
  8
0
  6
PHANTOM
 10
283.499878
 20
313.999847
 11
282.499878
 21
313.999847
  0
LINE
  8
0
  6
PHANTOM
 10
283.499878
 20
295.999847
 11
282.499878
 21
295.999847
  0
LINE
  8
0
  6
PHANTOM
 10
124.999863
 20
269.999847
 11
274.999878
 21
269.999847
  0
LINE
  8
0
  6
PHANTOM
 10
124.999863
 20
339.999847
 11
274.999878
 21
339.999847
  0
LINE
  8
0
  6
PHANTOM
 10
99.999863
 20
336.999847
 11
117.499863
 21
336.999847
  0
LINE
  8
0
  6
PHANTOM
 10
99.999863
 20
272.999847
 11
117.499863
 21
272.999847
  0
LINE
  8
0
  6
PHANTOM
 10
282.499878
 20
336.999847
 11
285.999878
 21
336.999847
  0
LINE
  8
0
  6
PHANTOM
 10
282.499878
 20
272.999847
 11
285.999878
 21
272.999847
  0
LINE
  8
0
  6
PHANTOM
 10
529.000427
 20
54.999962
 11
571.000488
 21
54.999962
  0
LINE
  8
0
  6
CENTER
 10
550.000366
 20
147.999969
 11
550.000366
 21
44.999962
  0
LINE
  8
0
  6
CENTER
 10
515.000366
 20
85.000008
 11
585.000366
 21
85.000008
  0
LINE
  8
0
  6
PHANTOM
 10
580.000366
 20
106.000023
 11
580.000366
 21
64.000023
  0
LINE
  8
0
  6
PHANTOM
 10
520.000366
 20
105.999901
 11
520.000366
 21
63.999901
  0
LINE
  8
0
  6
PHANTOM
 10
529.000305
 20
115.000000
 11
571.000305
 21
115.000000
  0
LINE
  8
0
  6
PHANTOM
 10
515.000244
 20
142.999969
 11
585.000244
 21
142.999969
  0
LINE
  8
0
  6
PHANTOM
 10
502.500336
 20
139.999893
 11
502.500336
 21
96.999893
  0
LINE
  8
0
  6
PHANTOM
 10
597.500366
 20
140.000031
 11
597.500366
 21
97.000031
  0
LINE
  8
0
  6
PHANTOM
 10
504.500275
 20
141.999969
 11
514.000244
 21
141.999969
  0
LINE
  8
0
  6
PHANTOM
 10
585.000183
 20
142.999985
 11
586.000183
 21
141.999985
  0
LINE
  8
0
  6
PHANTOM
 10
515.000244
 20
142.999893
 11
514.000183
 21
141.999878
  0
LINE
  8
0
  6
PHANTOM
 10
508.500336
 20
90.999962
 11
517.000366
 21
90.999962
  0
LINE
  8
0
  6
PHANTOM
 10
583.000366
 20
90.999962
 11
591.500366
 21
90.999962
  0
LINE
  8
0
 10
519.600342
 20
64.799995
 11
519.600342
 21
64.799995
  0
LINE
  8
0
  6
PHANTOM
 10
518.000366
 20
74.999992
 11
518.000366
 21
64.799995
  0
LINE
  8
0
  6
PHANTOM
 10
519.600342
 20
74.999992
 11
519.600342
 21
74.369057
  0
LINE
  8
0
  6
PHANTOM
 10
518.000366
 20
93.758690
 11
518.000366
 21
88.500038
  0
LINE
  8
0
  6
PHANTOM
 10
518.000366
 20
88.500038
 11
520.000366
 21
88.500038
  0
LINE
  8
0
  6
PHANTOM
 10
520.000427
 20
72.876251
 11
519.600403
 21
74.369095
  0
LINE
  8
0
  6
PHANTOM
 10
578.000366
 20
58.343132
 11
578.000366
 21
58.200081
  0
LINE
  8
0
  6
PHANTOM
 10
580.400330
 20
64.800087
 11
580.400330
 21
64.800087
  0
LINE
  8
0
  6
PHANTOM
 10
582.000366
 20
75.000084
 11
582.000366
 21
64.800087
  0
LINE
  8
0
  6
PHANTOM
 10
580.400330
 20
75.000084
 11
580.400330
 21
74.369148
  0
LINE
  8
0
  6
PHANTOM
 10
582.000366
 20
93.758781
 11
582.000366
 21
88.500038
  0
LINE
  8
0
  6
PHANTOM
 10
582.000366
 20
88.500038
 11
580.000366
 21
88.500038
  0
LINE
  8
0
  6
PHANTOM
 10
580.000488
 20
72.876259
 11
580.400513
 21
74.369087
  0
LINE
  8
0
  6
PHANTOM
 10
518.000366
 20
53.000038
 11
532.000366
 21
53.000038
  0
LINE
  8
0
  6
PHANTOM
 10
582.000366
 20
58.905388
 11
582.000366
 21
53.000084
  0
LINE
  8
0
  6
PHANTOM
 10
518.000366
 20
58.905296
 11
518.000366
 21
52.999992
  0
LINE
  8
0
  6
PHANTOM
 10
578.000366
 20
58.200047
 11
582.000366
 21
58.905354
  0
LINE
  8
0
  6
PHANTOM
 10
522.000366
 20
58.200050
 11
518.000366
 21
58.905357
  0
LINE
  8
0
  6
PHANTOM
 10
522.000366
 20
58.343086
 11
522.000366
 21
58.199989
  0
LINE
  8
0
  6
PHANTOM
 10
568.000366
 20
53.000038
 11
582.000366
 21
53.000038
  0
LINE
  8
0
  6
PHANTOM
 10
517.000366
 20
94.499969
 11
517.000366
 21
90.999908
  0
LINE
  8
0
  6
PHANTOM
 10
583.000366
 20
94.499969
 11
583.000366
 21
91.000015
  0
LINE
  8
0
  6
PHANTOM
 10
586.000244
 20
141.999969
 11
595.500244
 21
141.999969
  0
LINE
  8
0
  6
PHANTOM
 10
-51.750000
 20
-367.114990
 11
-51.750000
 21
-441.114990
  0
LINE
  8
0
  6
PHANTOM
 10
-83.750000
 20
-367.114960
 11
-51.750000
 21
-367.114960
  0
LINE
  8
0
  6
PHANTOM
 10
-83.750000
 20
-441.114960
 11
-51.750000
 21
-441.114960
  0
LINE
  8
0
  6
CENTER
 10
-211.750000
 20
-332.114990
 11
-211.750000
 21
-449.114960
  0
LINE
  8
0
  6
CENTER
 10
-326.750000
 20
-404.114990
 11
-46.750000
 21
-404.114990
  0
LINE
  8
0
  6
PHANTOM
 10
-321.750000
 20
-444.114990
 11
-83.750000
 21
-444.114990
  0
LINE
  8
0
  6
PHANTOM
 10
-321.750000
 20
-369.114990
 11
-301.750000
 21
-369.114990
  0
LINE
  8
0
  6
PHANTOM
 10
-292.750000
 20
-337.114990
 11
-130.750000
 21
-337.114990
  0
LINE
  8
0
  6
PHANTOM
 10
-301.750000
 20
-338.114990
 11
-301.750000
 21
-397.114990
  0
LINE
  8
0
  6
PHANTOM
 10
-121.750000
 20
-338.114990
 11
-121.750000
 21
-346.115112
  0
LINE
  8
0
  6
PHANTOM
 10
-292.750000
 20
-337.114990
 11
-292.750000
 21
-397.114990
  0
LINE
  8
0
  6
PHANTOM
 10
-130.750000
 20
-337.114990
 11
-130.750000
 21
-397.114990
  0
LINE
  8
0
  6
PHANTOM
 10
-301.750000
 20
-397.114990
 11
-121.750000
 21
-397.114990
  0
LINE
  8
0
  6
PHANTOM
 10
-301.750000
 20
-338.114990
 11
-121.750000
 21
-338.114990
  0
LINE
  8
0
  6
PHANTOM
 10
-121.750000
 20
-369.114990
 11
-120.750000
 21
-369.114990
  0
LINE
  8
0
  6
PHANTOM
 10
-324.184692
 20
-378.114960
 11
-301.750000
 21
-378.114960
  0
LINE
  8
0
  6
PHANTOM
 10
-324.849976
 20
-384.114929
 11
-301.750000
 21
-384.114929
  0
LINE
  8
0
  6
PHANTOM
 10
-324.609100
 20
-392.114929
 11
-301.750000
 21
-392.114929
  0
LINE
  8
0
  6
PHANTOM
 10
-323.797577
 20
-397.114960
 11
-301.750000
 21
-397.114960
  0
LINE
  8
0
  6
PHANTOM
 10
-322.912506
 20
-400.614960
 11
-83.750000
 21
-400.614960
  0
LINE
  8
0
  6
PHANTOM
 10
-319.816345
 20
-409.314941
 11
-83.750000
 21
-409.314941
  0
LINE
  8
0
  6
PHANTOM
 10
-318.756073
 20
-413.314941
 11
-83.750000
 21
-413.314941
  0
LINE
  8
0
  6
PHANTOM
 10
-318.392395
 20
-433.114960
 11
-83.750000
 21
-433.114960
  0
LINE
  8
0
  6
PHANTOM
 10
-319.603455
 20
-438.209656
 11
-83.750000
 21
-438.209656
  0
LINE
  8
0
  6
PHANTOM
 10
-121.750000
 20
-378.114960
 11
-120.750000
 21
-378.114960
  0
LINE
  8
0
  6
PHANTOM
 10
-121.750000
 20
-384.114929
 11
-120.750000
 21
-384.114929
  0
LINE
  8
0
  6
PHANTOM
 10
-121.750000
 20
-392.114929
 11
-83.750000
 21
-392.114929
  0
LINE
  8
0
  6
PHANTOM
 10
-121.750000
 20
-397.114960
 11
-83.750000
 21
-397.114960
  0
LINE
  8
0
  6
CENTER
 10
-326.750000
 20
-159.114960
 11
-46.750000
 21
-159.114960
  0
LINE
  8
0
  6
PHANTOM
 10
-51.750000
 20
-122.114990
 11
-51.750000
 21
-196.114990
  0
LINE
  8
0
  6
PHANTOM
 10
-83.750000
 20
-122.114960
 11
-51.750000
 21
-122.114960
  0
LINE
  8
0
  6
PHANTOM
 10
-83.750000
 20
-196.114960
 11
-51.750000
 21
-196.114960
  0
LINE
  8
0
  6
CENTER
 10
-211.750000
 20
-94.114960
 11
-211.750000
 21
-224.114960
  0
LINE
  8
0
  6
PHANTOM
 10
-292.750000
 20
-219.114960
 11
-130.750000
 21
-219.114960
  0
LINE
  8
0
  6
PHANTOM
 10
-292.750000
 20
-99.114960
 11
-130.750000
 21
-99.114960
  0
LINE
  8
0
  6
PHANTOM
 10
-292.750000
 20
-99.114975
 11
-292.750000
 21
-219.114975
  0
LINE
  8
0
  6
PHANTOM
 10
-130.750000
 20
-99.114944
 11
-130.750000
 21
-219.114944
  0
LINE
  8
0
  6
PHANTOM
 10
-301.750000
 20
-100.114975
 11
-301.750000
 21
-218.114975
  0
LINE
  8
0
  6
PHANTOM
 10
-121.750000
 20
-100.114944
 11
-121.750000
 21
-150.114929
  0
LINE
  8
0
  6
PHANTOM
 10
-301.750000
 20
-218.114960
 11
-292.750000
 21
-218.114960
  0
LINE
  8
0
  6
PHANTOM
 10
-301.750000
 20
-100.114960
 11
-292.750000
 21
-100.114960
  0
LINE
  8
0
  6
PHANTOM
 10
-130.750000
 20
-100.114960
 11
-121.750000
 21
-100.114960
  0
LINE
  8
0
  6
PHANTOM
 10
-130.750000
 20
-218.114960
 11
-121.750000
 21
-218.114960
  0
LINE
  8
0
  6
PHANTOM
 10
-319.015747
 20
-167.614960
 11
-301.750000
 21
-167.614960
  0
LINE
  8
0
  6
PHANTOM
 10
-324.484253
 20
-150.614960
 11
-301.750000
 21
-150.614960
  0
LINE
  8
0
  6
PHANTOM
 10
-292.750000
 20
-204.114960
 11
-130.750000
 21
-204.114960
  0
LINE
  8
0
  6
PHANTOM
 10
-292.750000
 20
-114.114960
 11
-130.750000
 21
-114.114960
  0
LINE
  8
0
  6
PHANTOM
 10
-321.750000
 20
-198.114960
 11
-301.750000
 21
-198.114960
  0
LINE
  8
0
  6
PHANTOM
 10
-321.750000
 20
-120.114960
 11
-301.750000
 21
-120.114960
  0
LINE
  8
0
  6
PHANTOM
 10
-121.750000
 20
-120.114960
 11
-120.750000
 21
-120.114960
  0
LINE
  8
0
  6
PHANTOM
 10
-121.750000
 20
-198.114960
 11
-120.750000
 21
-198.114960
  0
LINE
  8
0
  6
CENTER
 10
146.249863
 20
-404.114990
 11
230.249863
 21
-404.114990
  0
LINE
  8
0
  6
CENTER
 10
188.249863
 20
-332.114990
 11
188.249863
 21
-449.114990
  0
LINE
  8
0
  6
PHANTOM
 10
162.250031
 20
-367.114990
 11
214.250061
 21
-367.114990
  0
LINE
  8
0
  6
PHANTOM
 10
225.249863
 20
-378.115143
 11
225.249863
 21
-430.115143
  0
LINE
  8
0
  6
PHANTOM
 10
151.249863
 20
-378.114838
 11
151.249863
 21
-430.114838
  0
LINE
  8
0
  6
PHANTOM
 10
162.249786
 20
-441.114990
 11
214.249664
 21
-441.114990
  0
LINE
  8
0
  6
PHANTOM
 10
143.250000
 20
-337.114990
 11
233.250000
 21
-337.114990
  0
LINE
  8
0
  6
PHANTOM
 10
132.250000
 20
-338.114990
 11
142.250000
 21
-338.114990
  0
LINE
  8
0
  6
PHANTOM
 10
138.249878
 20
-397.114990
 11
148.249878
 21
-397.114990
  0
LINE
  8
0
  6
PHANTOM
 10
228.249878
 20
-397.114990
 11
238.249878
 21
-397.114990
  0
LINE
  8
0
  6
PHANTOM
 10
248.249863
 20
-342.115112
 11
248.249863
 21
-387.115112
  0
LINE
  8
0
  6
PHANTOM
 10
128.249863
 20
-342.114868
 11
128.249863
 21
-387.114868
  0
LINE
  8
0
  6
PHANTOM
 10
233.249939
 20
-337.115082
 11
234.249924
 21
-338.115082
  0
LINE
  8
0
  6
PHANTOM
 10
143.249924
 20
-337.114838
 11
142.249954
 21
-338.114838
  0
LINE
  8
0
  6
PHANTOM
 10
150.249863
 20
-414.114929
 11
150.249863
 21
-432.314911
  0
LINE
  8
0
  6
PHANTOM
 10
150.249863
 20
-397.114929
 11
150.249863
 21
-400.614929
  0
LINE
  8
0
  6
PHANTOM
 10
150.249863
 20
-400.614990
 11
151.249863
 21
-400.614990
  0
LINE
  8
0
  6
PHANTOM
 10
223.249863
 20
-436.439575
 11
223.249863
 21
-438.915070
  0
LINE
  8
0
  6
PHANTOM
 10
226.249863
 20
-414.115112
 11
226.249863
 21
-432.315094
  0
LINE
  8
0
  6
PHANTOM
 10
226.249863
 20
-397.115112
 11
226.249863
 21
-400.615112
  0
LINE
  8
0
  6
PHANTOM
 10
226.249863
 20
-400.614990
 11
225.249863
 21
-400.614990
  0
LINE
  8
0
  6
PHANTOM
 10
149.249786
 20
-444.114990
 11
168.249786
 21
-444.114990
  0
LINE
  8
0
  6
PHANTOM
 10
227.249863
 20
-438.209778
 11
227.249863
 21
-444.115112
  0
LINE
  8
0
  6
PHANTOM
 10
149.249863
 20
-438.209595
 11
149.249863
 21
-444.114929
  0
LINE
  8
0
  6
PHANTOM
 10
223.249786
 20
-438.915161
 11
227.249786
 21
-438.209869
  0
LINE
  8
0
  6
PHANTOM
 10
153.249771
 20
-438.915222
 11
149.249771
 21
-438.209900
  0
LINE
  8
0
  6
PHANTOM
 10
153.249863
 20
-436.439514
 11
153.249863
 21
-438.914948
  0
LINE
  8
0
  6
PHANTOM
 10
208.249786
 20
-444.114990
 11
227.249786
 21
-444.114990
  0
LINE
  8
0
  6
PHANTOM
 10
149.249878
 20
-397.114990
 11
150.249878
 21
-397.114990
  0
LINE
  8
0
  6
PHANTOM
 10
226.249878
 20
-397.114990
 11
227.249878
 21
-397.114990
  0
LINE
  8
0
  6
PHANTOM
 10
149.249863
 20
-393.066254
 11
149.249863
 21
-397.114929
  0
LINE
  8
0
  6
PHANTOM
 10
227.249863
 20
-393.066437
 11
227.249863
 21
-397.115112
  0
LINE
  8
0
  6
PHANTOM
 10
148.249863
 20
-391.614990
 11
148.249863
 21
-397.114929
  0
LINE
  8
0
  6
PHANTOM
 10
228.249863
 20
-391.614990
 11
228.249863
 21
-397.115112
  0
LINE
  8
0
  6
PHANTOM
 10
234.249985
 20
-338.114990
 11
244.250000
 21
-338.114990
  0
LINE
  8
0
  6
PHANTOM
 10
-413.750092
 20
93.499817
 11
-413.750092
 21
54.999901
  0
LINE
  8
0
  6
PHANTOM
 10
-449.250122
 20
132.999847
 11
-449.250122
 21
90.999863
  0
LINE
  8
0
  6
PHANTOM
 10
-441.750122
 20
131.999817
 11
-441.750122
 21
90.999870
  0
LINE
  8
0
  6
PHANTOM
 10
-439.250122
 20
113.999817
 11
-439.250122
 21
111.999870
  0
LINE
  8
0
  6
PHANTOM
 10
-439.250214
 20
294.000000
 11
-439.250214
 21
292.000000
  0
LINE
  8
0
  6
PHANTOM
 10
-439.250214
 20
278.000000
 11
-439.250214
 21
276.000000
  0
LINE
  8
0
  6
PHANTOM
 10
320.000031
 20
94.499969
 11
320.000031
 21
52.999992
  0
LINE
  8
0
  6
PHANTOM
 10
285.000092
 20
118.999939
 11
285.000092
 21
116.999985
  0
LINE
  8
0
  6
PHANTOM
 10
284.999878
 20
296.999847
 11
284.999878
 21
294.999847
  0
LINE
  8
0
  6
PHANTOM
 10
-83.750000
 20
-391.614990
 11
-83.750000
 21
-444.114990
  0
LINE
  8
0
  6
PHANTOM
 10
-121.750000
 20
-364.115112
 11
-121.750000
 21
-397.114990
  0
LINE
  8
0
  6
PHANTOM
 10
-121.750000
 20
-168.114929
 11
-121.750000
 21
-218.114944
  0
LINE
  8
0
 10
-439.250153
 20
113.999817
 11
-438.250122
 21
113.999817
  0
LINE
  8
0
 10
-439.250122
 20
127.999809
 11
-439.250122
 21
113.999809
  0
LINE
  8
0
 10
-439.250153
 20
127.999817
 11
-438.250122
 21
127.999817
  0
LINE
  8
0
 10
-404.450256
 20
129.999741
 11
-403.250244
 21
127.921257
  0
LINE
  8
0
 10
-404.450104
 20
129.999832
 11
-404.450104
 21
111.999832
  0
LINE
  8
0
 10
-413.750122
 20
129.999817
 11
-404.450134
 21
129.999817
  0
LINE
  8
0
 10
-413.750122
 20
111.999817
 11
-404.450134
 21
111.999817
  0
LINE
  8
0
 10
-403.250092
 20
127.921326
 11
-403.250092
 21
114.078323
  0
LINE
  8
0
 10
-413.750122
 20
112.811798
 11
-403.981354
 21
112.811798
  0
LINE
  8
0
 10
-413.750122
 20
129.187805
 11
-403.981323
 21
129.187805
  0
LINE
  8
0
 10
-404.449951
 20
111.999710
 11
-403.249939
 21
114.078186
  0
LINE
  8
0
 10
-437.250153
 20
128.880524
 11
-414.750153
 21
128.880524
  0
LINE
  8
0
 10
-437.750153
 20
124.899826
 11
-427.750153
 21
124.899826
  0
LINE
  8
0
 10
-437.150146
 20
125.499832
 11
-428.350159
 21
125.499832
  0
LINE
  8
0
 10
-438.250153
 20
119.499832
 11
-413.750153
 21
119.499832
  0
LINE
  8
0
 10
-413.750092
 20
132.499817
 11
-413.750092
 21
93.499832
  0
LINE
  8
0
 10
-438.250092
 20
93.499817
 11
-413.750092
 21
93.499817
  0
LINE
  8
0
 10
-438.250153
 20
132.499817
 11
-413.750153
 21
132.499817
  0
LINE
  8
0
 10
-423.650146
 20
125.499832
 11
-414.850159
 21
125.499832
  0
LINE
  8
0
 10
-424.250153
 20
124.899826
 11
-414.250153
 21
124.899826
  0
LINE
  8
0
 10
-414.250153
 20
124.899887
 11
-414.850189
 21
125.499916
  0
LINE
  8
0
 10
-414.250092
 20
124.899841
 11
-414.250092
 21
119.499847
  0
LINE
  8
0
 10
-424.250092
 20
124.899826
 11
-424.250092
 21
119.499832
  0
LINE
  8
0
 10
-424.249969
 20
124.899658
 11
-423.649963
 21
125.499672
  0
LINE
  8
0
 10
-438.250092
 20
105.499832
 11
-413.750092
 21
105.499832
  0
LINE
  8
0
 10
-437.750092
 20
124.899811
 11
-437.750092
 21
119.499817
  0
LINE
  8
0
 10
-437.749969
 20
124.899597
 11
-437.149933
 21
125.499626
  0
LINE
  8
0
 10
-438.250092
 20
132.499817
 11
-438.250092
 21
93.499802
  0
LINE
  8
0
 10
-438.250153
 20
125.999832
 11
-413.750153
 21
125.999832
  0
LINE
  8
0
 10
-427.750092
 20
124.899826
 11
-427.750092
 21
119.499832
  0
LINE
  8
0
 10
-427.750122
 20
124.899879
 11
-428.350159
 21
125.499908
  0
LINE
  8
0
  6
CENTER
 10
-444.250153
 20
120.999817
 11
-398.250122
 21
120.999817
  0
LINE
  8
0
  6
CENTER
 10
-419.250092
 20
130.499847
 11
-419.250092
 21
88.499847
  0
LINE
  8
0
  6
CENTER
 10
-432.750092
 20
130.499817
 11
-432.750092
 21
88.499817
  0
LINE
  8
0
 10
-404.449921
 20
275.999847
 11
-403.249908
 21
278.078339
  0
LINE
  8
0
 10
-404.450348
 20
293.999969
 11
-403.250366
 21
291.921478
  0
LINE
  8
0
 10
-404.450226
 20
294.000031
 11
-404.450226
 21
276.000031
  0
LINE
  8
0
 10
-413.750214
 20
294.000000
 11
-404.450226
 21
294.000000
  0
LINE
  8
0
 10
-413.750214
 20
276.000000
 11
-404.450226
 21
276.000000
  0
LINE
  8
0
 10
-439.250244
 20
278.000000
 11
-438.250214
 21
278.000000
  0
LINE
  8
0
 10
-439.250244
 20
292.000000
 11
-438.250214
 21
292.000000
  0
LINE
  8
0
 10
-403.250214
 20
291.921539
 11
-403.250214
 21
278.078522
  0
LINE
  8
0
 10
-413.750214
 20
276.811981
 11
-403.981445
 21
276.811981
  0
LINE
  8
0
 10
-413.750214
 20
293.187988
 11
-403.981415
 21
293.187988
  0
LINE
  8
0
 10
-438.250275
 20
311.500000
 11
-413.750275
 21
311.500000
  0
LINE
  8
0
 10
-421.750244
 20
251.556519
 11
-419.250244
 21
250.113174
  0
LINE
  8
0
 10
-419.250305
 20
255.886902
 11
-421.750275
 21
254.443542
  0
LINE
  8
0
 10
-428.500366
 20
304.556671
 11
-426.000397
 21
303.113312
  0
LINE
  8
0
 10
-426.000336
 20
303.113495
 11
-423.500336
 21
304.556854
  0
LINE
  8
0
 10
-423.500183
 20
304.556610
 11
-423.500183
 21
307.443359
  0
LINE
  8
0
 10
-423.500366
 20
307.443481
 11
-426.000336
 21
308.886841
  0
LINE
  8
0
 10
-426.000488
 20
308.887268
 11
-428.500488
 21
307.443909
  0
LINE
  8
0
 10
-421.750366
 20
254.443390
 11
-421.750366
 21
251.556641
  0
LINE
  8
0
 10
-428.500244
 20
307.443390
 11
-428.500244
 21
304.556671
  0
LINE
  8
0
 10
-438.250153
 20
258.500000
 11
-413.750153
 21
258.500000
  0
LINE
  8
0
 10
-438.250214
 20
300.500000
 11
-413.750214
 21
300.500000
  0
LINE
  8
0
 10
-439.250244
 20
292.000000
 11
-439.250244
 21
278.000000
  0
LINE
  8
0
 10
-413.750214
 20
324.500000
 11
-413.750214
 21
245.500000
  0
LINE
  8
0
 10
-432.750122
 20
255.886749
 11
-430.250153
 21
254.443390
  0
LINE
  8
0
 10
-435.249939
 20
254.443161
 11
-432.749908
 21
255.886536
  0
LINE
  8
0
 10
-435.250122
 20
251.556610
 11
-435.250122
 21
254.443329
  0
LINE
  8
0
 10
-430.250061
 20
315.556610
 11
-430.250061
 21
318.443359
  0
LINE
  8
0
 10
-432.750183
 20
250.113235
 11
-435.250153
 21
251.556595
  0
LINE
  8
0
 10
-432.750092
 20
314.113434
 11
-430.250122
 21
315.556793
  0
LINE
  8
0
 10
-435.250183
 20
315.556671
 11
-432.750214
 21
314.113312
  0
LINE
  8
0
 10
-435.250122
 20
318.443390
 11
-435.250122
 21
315.556671
  0
LINE
  8
0
 10
-432.750275
 20
319.887115
 11
-435.250244
 21
318.443756
  0
LINE
  8
0
 10
-430.250244
 20
318.443512
 11
-432.750214
 21
319.886902
  0
LINE
  8
0
 10
-416.750275
 20
254.443420
 11
-419.250336
 21
255.886780
  0
LINE
  8
0
 10
-430.249908
 20
251.556412
 11
-432.749908
 21
250.113052
  0
LINE
  8
0
 10
-416.750305
 20
318.443390
 11
-416.750305
 21
315.556671
  0
LINE
  8
0
 10
-419.250458
 20
319.886902
 11
-416.750488
 21
318.443542
  0
LINE
  8
0
 10
-421.750305
 20
318.443268
 11
-419.250275
 21
319.886627
  0
LINE
  8
0
 10
-421.750366
 20
315.556610
 11
-421.750366
 21
318.443359
  0
LINE
  8
0
 10
-419.250519
 20
314.113373
 11
-421.750488
 21
315.556732
  0
LINE
  8
0
 10
-416.750122
 20
315.556305
 11
-419.250122
 21
314.112915
  0
LINE
  8
0
 10
-438.250214
 20
324.500000
 11
-438.250214
 21
245.500000
  0
LINE
  8
0
 10
-416.750305
 20
251.556610
 11
-416.750305
 21
254.443329
  0
LINE
  8
0
 10
-430.250061
 20
254.443390
 11
-430.250061
 21
251.556641
  0
LINE
  8
0
 10
-419.250275
 20
250.113281
 11
-416.750305
 21
251.556641
  0
LINE
  8
0
 10
-438.250153
 20
245.500000
 11
-413.750153
 21
245.500000
  0
LINE
  8
0
 10
-438.250275
 20
324.500000
 11
-413.750275
 21
324.500000
  0
LINE
  8
0
 10
-438.250214
 20
269.500000
 11
-413.750214
 21
269.500000
  0
LINE
  8
0
  6
CENTER
 10
-419.250336
 20
244.000000
 11
-419.250336
 21
262.000000
  0
LINE
  8
0
  6
CENTER
 10
-432.750092
 20
244.000000
 11
-432.750092
 21
262.000000
  0
LINE
  8
0
  6
CENTER
 10
-441.750031
 20
253.000000
 11
-410.750153
 21
253.000000
  0
LINE
  8
0
  6
CENTER
 10
-426.000214
 20
315.000000
 11
-426.000214
 21
297.000000
  0
LINE
  8
0
  6
CENTER
 10
-435.000275
 20
305.999969
 11
-417.000275
 21
305.999969
  0
LINE
  8
0
  6
CENTER
 10
-441.750153
 20
317.000000
 11
-410.750275
 21
317.000000
  0
LINE
  8
0
  6
CENTER
 10
-419.250336
 20
326.000000
 11
-419.250336
 21
308.000000
  0
LINE
  8
0
  6
CENTER
 10
-432.750092
 20
326.000000
 11
-432.750092
 21
308.000000
  0
LINE
  8
0
 10
-197.750046
 20
123.309227
 11
-201.750046
 21
125.618622
  0
LINE
  8
0
 10
-201.750107
 20
125.618668
 11
-205.750092
 21
123.309273
  0
LINE
  8
0
 10
-205.750046
 20
123.309212
 11
-205.750046
 21
118.690422
  0
LINE
  8
0
 10
-205.750061
 20
118.690407
 11
-201.750061
 21
116.381004
  0
LINE
  8
0
 10
-201.750046
 20
116.380989
 11
-197.750061
 21
118.690392
  0
LINE
  8
0
 10
-197.750015
 20
118.690399
 11
-197.750015
 21
123.309196
  0
LINE
  8
0
 10
-174.750015
 20
124.899788
 11
-174.150009
 21
125.499802
  0
LINE
  8
0
 10
-229.750031
 20
109.499802
 11
-229.750031
 21
103.499718
  0
LINE
  8
0
 10
-229.750015
 20
103.499825
 11
-227.750015
 21
102.345131
  0
LINE
  8
0
 10
-173.750031
 20
109.499863
 11
-173.750031
 21
103.499947
  0
LINE
  8
0
 10
-173.750046
 20
103.499802
 11
-175.750031
 21
102.345108
  0
LINE
  8
0
 10
-185.750092
 20
131.399826
 11
-175.750092
 21
131.399826
  0
LINE
  8
0
 10
-175.750061
 20
131.399872
 11
-176.350067
 21
131.999878
  0
LINE
  8
0
 10
-175.750031
 20
131.399857
 11
-175.750031
 21
125.999863
  0
LINE
  8
0
 10
-185.750031
 20
131.399841
 11
-185.750031
 21
125.999847
  0
LINE
  8
0
 10
-185.750000
 20
131.399765
 11
-185.149994
 21
131.999786
  0
LINE
  8
0
 10
-238.150101
 20
125.499832
 11
-229.350098
 21
125.499832
  0
LINE
  8
0
 10
-238.750092
 20
124.899826
 11
-228.750092
 21
124.899826
  0
LINE
  8
0
 10
-238.750031
 20
124.899780
 11
-238.750031
 21
119.499786
  0
LINE
  8
0
 10
-238.750046
 20
124.899765
 11
-238.150040
 21
125.499771
  0
LINE
  8
0
 10
-228.750031
 20
124.899857
 11
-229.350037
 21
125.499863
  0
LINE
  8
0
 10
-217.250031
 20
127.934174
 11
-217.250031
 21
125.999817
  0
LINE
  8
0
 10
-186.250031
 20
127.934204
 11
-186.250031
 21
125.999847
  0
LINE
  8
0
 10
-227.250092
 20
125.999832
 11
-217.250092
 21
125.999832
  0
LINE
  8
0
 10
-186.250092
 20
125.999832
 11
-175.750092
 21
125.999832
  0
LINE
  8
0
 10
-228.250031
 20
124.999802
 11
-228.250031
 21
119.499802
  0
LINE
  8
0
 10
-228.250061
 20
108.999832
 11
-225.041550
 21
108.999832
  0
LINE
  8
0
 10
-239.250061
 20
119.499832
 11
-228.250061
 21
119.499832
  0
LINE
  8
0
 10
-241.250031
 20
117.499786
 11
-241.250031
 21
96.499786
  0
LINE
  8
0
 10
-241.250061
 20
105.499832
 11
-237.750061
 21
105.499832
  0
LINE
  8
0
 10
-237.750031
 20
108.499786
 11
-237.750031
 21
105.499786
  0
LINE
  8
0
 10
-236.750061
 20
109.499832
 11
-228.750061
 21
109.499832
  0
LINE
  8
0
 10
-228.249985
 20
108.999832
 11
-228.749985
 21
109.499847
  0
LINE
  8
0
 10
-166.750061
 20
109.499832
 11
-174.750061
 21
109.499832
  0
LINE
  8
0
 10
-175.249893
 20
108.999664
 11
-174.749878
 21
109.499672
  0
LINE
  8
0
 10
-165.750031
 20
108.499878
 11
-165.750031
 21
105.499878
  0
LINE
  8
0
 10
-162.250061
 20
105.499832
 11
-165.750061
 21
105.499832
  0
LINE
  8
0
 10
-162.250031
 20
117.499878
 11
-162.250031
 21
96.499878
  0
LINE
  8
0
 10
-164.250061
 20
119.499832
 11
-175.250061
 21
119.499832
  0
LINE
  8
0
 10
-175.250031
 20
124.999863
 11
-175.250031
 21
121.999832
  0
LINE
  8
0
 10
-175.250061
 20
108.999832
 11
-178.458572
 21
108.999832
  0
LINE
  8
0
 10
-192.805893
 20
119.999802
 11
-175.250061
 21
119.999802
  0
LINE
  8
0
 10
-192.805893
 20
121.999802
 11
-175.250061
 21
121.999802
  0
LINE
  8
0
 10
-175.250031
 20
119.999832
 11
-175.250031
 21
119.499863
  0
LINE
  8
0
 10
-228.750031
 20
124.899796
 11
-228.750031
 21
119.499802
  0
LINE
  8
0
 10
-185.150101
 20
131.999832
 11
-176.350098
 21
131.999832
  0
LINE
  8
0
 10
-164.750076
 20
124.899879
 11
-165.350082
 21
125.499886
  0
LINE
  8
0
 10
-238.250031
 20
93.499832
 11
-230.225388
 21
93.499832
  0
LINE
  8
0
 10
-173.274567
 20
93.499832
 11
-165.250031
 21
93.499832
  0
LINE
  8
0
 10
-183.750031
 20
121.999817
 11
-183.750031
 21
119.999817
  0
LINE
  8
0
 10
-177.750031
 20
121.999832
 11
-177.750031
 21
119.999832
  0
LINE
  8
0
 10
-183.208527
 20
121.999817
 11
-183.208527
 21
119.999817
  0
LINE
  8
0
 10
-178.291534
 20
121.999832
 11
-178.291534
 21
119.999832
  0
LINE
  8
0
 10
-164.750031
 20
124.899872
 11
-164.750031
 21
119.499878
  0
LINE
  8
0
 10
-174.750031
 20
124.899857
 11
-174.750031
 21
119.499863
  0
LINE
  8
0
 10
-174.150101
 20
125.499832
 11
-165.350098
 21
125.499832
  0
LINE
  8
0
 10
-174.750092
 20
124.899826
 11
-164.750092
 21
124.899826
  0
LINE
  8
0
  6
CENTER
 10
-215.750168
 20
120.999802
 11
-187.750168
 21
120.999802
  0
LINE
  8
0
  6
CENTER
 10
-233.750031
 20
130.499802
 11
-233.750031
 21
88.499802
  0
LINE
  8
0
  6
CENTER
 10
-180.750031
 20
136.999863
 11
-180.750031
 21
103.999863
  0
LINE
  8
0
  6
CENTER
 10
-169.750031
 20
130.499863
 11
-169.750031
 21
88.499863
  0
LINE
  8
0
 10
320.000061
 20
136.187943
 11
325.268860
 21
136.187943
  0
LINE
  8
0
 10
320.000061
 20
117.811935
 11
325.268860
 21
117.811935
  0
LINE
  8
0
 10
285.000153
 20
134.999939
 11
286.000061
 21
134.999939
  0
LINE
  8
0
 10
285.000092
 20
134.999969
 11
285.000092
 21
118.999962
  0
LINE
  8
0
 10
285.000122
 20
118.999939
 11
286.000061
 21
118.999939
  0
LINE
  8
0
 10
324.799988
 20
116.999931
 11
326.000000
 21
119.078415
  0
LINE
  8
0
 10
324.799988
 20
136.999908
 11
324.799988
 21
116.999908
  0
LINE
  8
0
 10
320.000061
 20
136.999939
 11
324.800049
 21
136.999939
  0
LINE
  8
0
 10
320.000061
 20
116.999939
 11
324.800049
 21
116.999939
  0
LINE
  8
0
 10
326.000000
 20
134.921402
 11
326.000000
 21
119.078384
  0
LINE
  8
0
 10
324.800140
 20
136.999969
 11
326.000183
 21
134.921463
  0
LINE
  8
0
 10
300.000000
 20
132.699951
 11
300.000000
 21
125.499947
  0
LINE
  8
0
 10
287.000061
 20
138.707672
 11
319.000061
 21
138.707672
  0
LINE
  8
0
 10
286.000061
 20
133.999939
 11
320.000061
 21
133.999939
  0
LINE
  8
0
 10
286.000000
 20
142.499969
 11
286.000000
 21
94.499962
  0
LINE
  8
0
 10
286.000000
 20
94.499939
 11
320.000000
 21
94.499939
  0
LINE
  8
0
 10
286.000061
 20
142.499939
 11
320.000061
 21
142.499939
  0
LINE
  8
0
 10
306.000000
 20
132.699921
 11
306.000000
 21
125.499931
  0
LINE
  8
0
 10
306.000122
 20
132.699966
 11
306.800110
 21
133.499954
  0
LINE
  8
0
 10
306.800049
 20
133.499939
 11
318.200043
 21
133.499939
  0
LINE
  8
0
 10
306.000061
 20
132.699936
 11
319.000061
 21
132.699936
  0
LINE
  8
0
 10
319.000183
 20
132.699997
 11
318.200165
 21
133.500000
  0
LINE
  8
0
 10
319.000000
 20
132.699921
 11
319.000000
 21
125.499916
  0
LINE
  8
0
 10
286.000031
 20
108.499939
 11
320.000031
 21
108.499939
  0
LINE
  8
0
 10
286.000061
 20
125.499939
 11
320.000061
 21
125.499939
  0
LINE
  8
0
 10
287.000000
 20
132.699951
 11
287.000000
 21
125.499962
  0
LINE
  8
0
 10
287.000092
 20
132.699936
 11
287.800079
 21
133.499939
  0
LINE
  8
0
 10
320.000000
 20
142.499908
 11
320.000000
 21
94.499916
  0
LINE
  8
0
 10
300.000153
 20
132.700043
 11
299.200134
 21
133.500046
  0
LINE
  8
0
 10
287.000061
 20
132.699936
 11
300.000061
 21
132.699936
  0
LINE
  8
0
 10
287.800049
 20
133.499939
 11
299.200043
 21
133.499939
  0
LINE
  8
0
  6
CENTER
 10
293.500000
 20
138.499954
 11
293.500000
 21
89.499954
  0
LINE
  8
0
  6
CENTER
 10
312.500000
 20
138.499924
 11
312.500000
 21
89.499924
  0
LINE
  8
0
  6
CENTER
 10
280.000153
 20
126.999939
 11
331.000061
 21
126.999939
  0
LINE
  8
0
 10
320.000244
 20
314.187836
 11
325.269104
 21
314.187836
  0
LINE
  8
0
 10
320.000427
 20
295.811859
 11
325.269226
 21
295.811859
  0
LINE
  8
0
 10
324.800415
 20
315.000153
 11
326.000427
 21
312.921661
  0
LINE
  8
0
 10
324.800446
 20
295.000092
 11
326.000458
 21
297.078522
  0
LINE
  8
0
 10
324.800323
 20
315.000061
 11
324.800323
 21
295.000061
  0
LINE
  8
0
 10
320.000244
 20
314.999847
 11
324.800232
 21
314.999847
  0
LINE
  8
0
 10
320.000427
 20
294.999847
 11
324.800415
 21
294.999847
  0
LINE
  8
0
 10
285.000427
 20
312.999664
 11
285.000427
 21
296.999664
  0
LINE
  8
0
 10
285.000488
 20
296.999847
 11
286.000427
 21
296.999847
  0
LINE
  8
0
 10
285.000366
 20
312.999847
 11
286.000244
 21
312.999847
  0
LINE
  8
0
 10
326.000336
 20
312.921539
 11
326.000336
 21
297.078522
  0
LINE
  8
0
 10
293.500854
 20
263.536346
 11
296.500854
 21
265.268402
  0
LINE
  8
0
 10
296.500458
 20
265.268127
 11
296.500458
 21
268.732208
  0
LINE
  8
0
 10
296.500763
 20
268.732208
 11
293.500763
 21
270.464264
  0
LINE
  8
0
 10
293.500671
 20
270.464539
 11
290.500671
 21
268.732483
  0
LINE
  8
0
 10
290.500427
 20
268.732117
 11
290.500427
 21
265.268036
  0
LINE
  8
0
 10
290.500824
 20
265.268005
 11
293.500793
 21
263.535980
  0
LINE
  8
0
 10
315.500244
 20
268.732361
 11
315.500244
 21
265.268280
  0
LINE
  8
0
 10
315.500427
 20
265.268372
 11
312.500458
 21
263.536316
  0
LINE
  8
0
 10
286.000031
 20
336.000214
 11
320.000031
 21
336.000214
  0
LINE
  8
0
 10
303.000549
 20
332.465027
 11
306.000549
 21
330.732971
  0
LINE
  8
0
 10
306.000305
 20
330.732269
 11
306.000305
 21
327.268188
  0
LINE
  8
0
 10
320.000336
 20
352.000366
 11
320.000336
 21
258.000366
  0
LINE
  8
0
 10
312.500610
 20
263.536407
 11
309.500610
 21
265.268463
  0
LINE
  8
0
 10
309.500214
 20
265.268250
 11
309.500214
 21
268.732330
  0
LINE
  8
0
 10
309.500610
 20
268.732422
 11
312.500549
 21
270.464447
  0
LINE
  8
0
 10
293.500214
 20
339.536102
 11
290.500244
 21
341.268158
  0
LINE
  8
0
 10
296.500153
 20
341.267914
 11
293.500214
 21
339.535889
  0
LINE
  8
0
 10
296.500458
 20
344.732178
 11
296.500458
 21
341.268097
  0
LINE
  8
0
 10
293.500671
 20
346.465057
 11
296.500641
 21
344.733002
  0
LINE
  8
0
 10
312.500305
 20
270.464111
 11
315.500275
 21
268.732056
  0
LINE
  8
0
 10
290.500427
 20
341.268066
 11
290.500427
 21
344.732147
  0
LINE
  8
0
 10
290.500061
 20
344.732330
 11
293.500031
 21
346.464325
  0
LINE
  8
0
 10
312.499817
 20
339.536224
 11
315.499817
 21
341.268280
  0
LINE
  8
0
 10
309.499878
 20
341.268127
 11
312.499847
 21
339.536072
  0
LINE
  8
0
 10
309.500214
 20
344.732300
 11
309.500214
 21
341.268219
  0
LINE
  8
0
 10
312.499756
 20
346.464386
 11
309.499756
 21
344.732330
  0
LINE
  8
0
 10
286.000183
 20
322.000214
 11
320.000183
 21
322.000214
  0
LINE
  8
0
 10
315.500153
 20
344.733032
 11
312.500183
 21
346.465057
  0
LINE
  8
0
 10
315.500244
 20
341.268311
 11
315.500244
 21
344.732391
  0
LINE
  8
0
 10
300.000122
 20
330.732391
 11
303.000122
 21
332.464417
  0
LINE
  8
0
 10
300.000275
 20
327.268158
 11
300.000275
 21
330.732239
  0
LINE
  8
0
 10
286.000336
 20
352.000061
 11
286.000336
 21
258.000061
  0
LINE
  8
0
 10
303.000061
 20
325.536011
 11
300.000092
 21
327.268097
  0
LINE
  8
0
 10
285.999878
 20
352.000214
 11
319.999878
 21
352.000214
  0
LINE
  8
0
 10
286.000793
 20
258.000214
 11
320.000793
 21
258.000214
  0
LINE
  8
0
 10
306.000183
 20
327.268097
 11
303.000183
 21
325.536041
  0
LINE
  8
0
 10
286.000488
 20
288.000214
 11
320.000488
 21
288.000214
  0
LINE
  8
0
 10
286.000641
 20
274.000214
 11
320.000641
 21
274.000214
  0
LINE
  8
0
  6
CENTER
 10
293.500488
 20
277.500122
 11
293.500488
 21
256.500122
  0
LINE
  8
0
  6
CENTER
 10
312.500183
 20
277.500305
 11
312.500183
 21
256.500305
  0
LINE
  8
0
  6
CENTER
 10
283.000854
 20
267.000214
 11
323.000854
 21
267.000214
  0
LINE
  8
0
  6
CENTER
 10
303.000336
 20
318.500214
 11
303.000336
 21
339.500214
  0
LINE
  8
0
  6
CENTER
 10
313.500122
 20
329.000183
 11
292.500122
 21
329.000183
  0
LINE
  8
0
  6
CENTER
 10
312.500183
 20
332.500305
 11
312.500183
 21
353.500305
  0
LINE
  8
0
  6
CENTER
 10
293.500488
 20
332.500122
 11
293.500488
 21
353.500122
  0
LINE
  8
0
  6
CENTER
 10
283.000122
 20
343.000214
 11
323.000122
 21
343.000214
  0
LINE
  8
0
 10
594.500366
 20
132.699982
 11
594.500366
 21
125.499969
  0
LINE
  8
0
 10
581.500366
 20
132.699966
 11
581.500366
 21
125.499962
  0
LINE
  8
0
 10
582.300354
 20
133.499939
 11
593.700317
 21
133.499939
  0
LINE
  8
0
 10
581.500366
 20
132.699951
 11
594.500366
 21
132.699951
  0
LINE
  8
0
 10
581.500488
 20
132.699890
 11
582.300476
 21
133.499878
  0
LINE
  8
0
 10
594.500427
 20
132.700043
 11
593.700439
 21
133.500031
  0
LINE
  8
0
 10
567.500366
 20
141.199951
 11
567.500366
 21
133.999939
  0
LINE
  8
0
 10
555.000183
 20
124.113342
 11
555.000183
 21
129.886719
  0
LINE
  8
0
 10
545.000183
 20
129.886536
 11
545.000183
 21
124.113159
  0
LINE
  8
0
 10
550.000183
 20
132.773331
 11
545.000305
 21
129.886642
  0
LINE
  8
0
 10
555.000122
 20
129.886734
 11
550.000244
 21
132.773422
  0
LINE
  8
0
 10
545.000366
 20
124.113075
 11
550.000305
 21
121.226387
  0
LINE
  8
0
 10
550.000305
 20
121.226494
 11
555.000183
 21
124.113182
  0
LINE
  8
0
 10
577.323853
 20
127.999962
 11
577.323853
 21
125.999962
  0
LINE
  8
0
 10
570.676880
 20
127.999954
 11
570.676880
 21
125.999954
  0
LINE
  8
0
 10
567.500366
 20
141.199951
 11
580.500366
 21
141.199951
  0
LINE
  8
0
 10
580.500488
 20
141.200058
 11
579.700500
 21
142.000046
  0
LINE
  8
0
 10
518.000366
 20
112.999931
 11
518.000366
 21
105.999954
  0
LINE
  8
0
 10
580.500366
 20
141.199966
 11
580.500366
 21
133.999954
  0
LINE
  8
0
 10
518.500366
 20
132.699936
 11
518.500366
 21
125.499931
  0
LINE
  8
0
 10
582.000366
 20
112.999962
 11
582.000366
 21
106.000076
  0
LINE
  8
0
 10
505.500366
 20
132.699921
 11
505.500366
 21
125.499924
  0
LINE
  8
0
 10
505.500366
 20
132.699921
 11
506.300385
 21
133.499924
  0
LINE
  8
0
 10
518.000183
 20
105.999870
 11
520.000183
 21
104.823395
  0
LINE
  8
0
 10
582.000305
 20
106.000183
 11
580.000244
 21
104.823677
  0
LINE
  8
0
 10
506.300354
 20
133.499939
 11
517.700317
 21
133.499939
  0
LINE
  8
0
 10
505.500366
 20
132.699951
 11
518.500366
 21
132.699951
  0
LINE
  8
0
 10
518.500366
 20
132.699997
 11
517.700378
 21
133.500000
  0
LINE
  8
0
 10
520.000366
 20
133.999939
 11
533.000366
 21
133.999939
  0
LINE
  8
0
 10
533.000366
 20
137.414124
 11
533.000366
 21
133.999939
  0
LINE
  8
0
 10
519.000366
 20
132.999924
 11
519.000366
 21
125.499931
  0
LINE
  8
0
 10
503.000366
 20
123.499924
 11
503.000366
 21
98.499924
  0
LINE
  8
0
 10
505.000366
 20
125.499947
 11
519.000366
 21
125.499947
  0
LINE
  8
0
 10
568.300354
 20
141.999939
 11
579.700317
 21
141.999939
  0
LINE
  8
0
 10
507.000366
 20
112.999947
 11
523.343506
 21
112.999947
  0
LINE
  8
0
 10
507.000366
 20
112.999924
 11
507.000366
 21
108.499924
  0
LINE
  8
0
 10
503.000366
 20
108.499947
 11
507.000366
 21
108.499947
  0
LINE
  8
0
 10
507.000366
 20
94.499947
 11
517.142822
 21
94.499947
  0
LINE
  8
0
 10
567.000366
 20
137.414124
 11
567.000366
 21
133.999939
  0
LINE
  8
0
 10
580.000366
 20
133.999939
 11
567.000366
 21
133.999939
  0
LINE
  8
0
 10
581.000366
 20
132.999954
 11
581.000366
 21
127.999962
  0
LINE
  8
0
 10
595.000366
 20
125.499947
 11
581.000366
 21
125.499947
  0
LINE
  8
0
 10
597.000366
 20
123.499969
 11
597.000366
 21
98.499969
  0
LINE
  8
0
 10
597.000366
 20
108.499947
 11
593.000366
 21
108.499947
  0
LINE
  8
0
 10
593.000366
 20
112.999969
 11
593.000366
 21
108.499969
  0
LINE
  8
0
 10
593.000366
 20
112.999947
 11
576.657227
 21
112.999947
  0
LINE
  8
0
 10
593.000366
 20
94.499947
 11
582.857910
 21
94.499947
  0
LINE
  8
0
 10
559.950134
 20
125.999947
 11
581.000366
 21
125.999947
  0
LINE
  8
0
 10
559.950134
 20
127.999947
 11
581.000366
 21
127.999947
  0
LINE
  8
0
 10
581.000366
 20
125.999962
 11
581.000366
 21
125.499962
  0
LINE
  8
0
 10
567.500427
 20
141.199966
 11
568.300415
 21
141.999954
  0
LINE
  8
0
 10
578.000366
 20
127.999962
 11
578.000366
 21
125.999962
  0
LINE
  8
0
 10
570.000366
 20
127.999954
 11
570.000366
 21
125.999954
  0
LINE
  8
0
  6
CENTER
 10
512.000366
 20
138.499908
 11
512.000366
 21
89.499924
  0
LINE
  8
0
  6
CENTER
 10
535.000244
 20
126.999947
 11
565.000244
 21
126.999947
  0
LINE
  8
0
  6
CENTER
 10
574.000366
 20
146.999954
 11
574.000366
 21
107.999962
  0
LINE
  8
0
  6
CENTER
 10
588.000366
 20
138.499969
 11
588.000366
 21
89.499969
  0
LINE
  8
0
 10
-83.750015
 20
-365.303101
 11
-76.481201
 21
-365.303101
  0
LINE
  8
0
 10
-83.750015
 20
-344.927124
 11
-76.481186
 21
-344.927124
  0
LINE
  8
0
 10
-121.750046
 20
-346.115112
 11
-121.750046
 21
-364.115112
  0
LINE
  8
0
 10
-121.750015
 20
-364.115112
 11
-120.750015
 21
-364.115112
  0
LINE
  8
0
 10
-121.750015
 20
-346.115112
 11
-120.750015
 21
-346.115112
  0
LINE
  8
0
 10
-76.950035
 20
-366.115112
 11
-75.750038
 21
-364.036652
  0
LINE
  8
0
 10
-76.950012
 20
-344.115082
 11
-75.750000
 21
-346.193542
  0
LINE
  8
0
 10
-76.950043
 20
-344.115143
 11
-76.950043
 21
-366.115143
  0
LINE
  8
0
 10
-83.750015
 20
-344.115112
 11
-76.950012
 21
-344.115112
  0
LINE
  8
0
 10
-83.750015
 20
-366.115112
 11
-76.950012
 21
-366.115112
  0
LINE
  8
0
 10
-75.750046
 20
-346.193604
 11
-75.750046
 21
-364.036682
  0
LINE
  8
0
 10
-120.750015
 20
-356.615143
 11
-83.750015
 21
-356.615143
  0
LINE
  8
0
 10
-119.750015
 20
-342.322998
 11
-84.750015
 21
-342.322998
  0
LINE
  8
0
 10
-84.749969
 20
-347.615082
 11
-85.749962
 21
-346.615082
  0
LINE
  8
0
 10
-120.750046
 20
-338.115143
 11
-120.750046
 21
-391.615143
  0
LINE
  8
0
 10
-99.750015
 20
-346.615143
 11
-85.750015
 21
-346.615143
  0
LINE
  8
0
 10
-120.750046
 20
-391.615143
 11
-83.750046
 21
-391.615143
  0
LINE
  8
0
 10
-120.750000
 20
-338.115143
 11
-83.750000
 21
-338.115143
  0
LINE
  8
0
 10
-100.750015
 20
-347.615143
 11
-84.750015
 21
-347.615143
  0
LINE
  8
0
 10
-100.750038
 20
-347.615173
 11
-99.750008
 21
-346.615173
  0
LINE
  8
0
 10
-120.750031
 20
-375.615143
 11
-83.750031
 21
-375.615143
  0
LINE
  8
0
 10
-100.750046
 20
-347.615143
 11
-100.750046
 21
-356.615143
  0
LINE
  8
0
 10
-84.750015
 20
-348.615143
 11
-83.750015
 21
-348.615143
  0
LINE
  8
0
 10
-103.750015
 20
-348.615143
 11
-100.750015
 21
-348.615143
  0
LINE
  8
0
 10
-120.750015
 20
-348.615143
 11
-119.750015
 21
-348.615143
  0
LINE
  8
0
 10
-83.750046
 20
-338.115143
 11
-83.750046
 21
-391.615143
  0
LINE
  8
0
 10
-103.750046
 20
-347.615143
 11
-103.750046
 21
-356.615143
  0
LINE
  8
0
 10
-103.750031
 20
-347.615143
 11
-104.750031
 21
-346.615143
  0
LINE
  8
0
 10
-119.750015
 20
-347.615143
 11
-103.750015
 21
-347.615143
  0
LINE
  8
0
 10
-118.750015
 20
-346.615143
 11
-104.750015
 21
-346.615143
  0
LINE
  8
0
 10
-119.749992
 20
-347.615143
 11
-118.749969
 21
-346.615143
  0
LINE
  8
0
 10
-119.750046
 20
-347.615143
 11
-119.750046
 21
-356.615143
  0
LINE
  8
0
 10
-84.750046
 20
-347.615143
 11
-84.750046
 21
-356.615143
  0
LINE
  8
0
  6
CENTER
 10
-111.750046
 20
-338.115143
 11
-111.750046
 21
-396.615143
  0
LINE
  8
0
  6
CENTER
 10
-92.750046
 20
-338.115143
 11
-92.750046
 21
-396.615143
  0
LINE
  8
0
  6
CENTER
 10
-126.750015
 20
-355.115143
 11
-70.750015
 21
-355.115143
  0
LINE
  8
0
 10
-83.749954
 20
-169.302963
 11
-76.481155
 21
-169.302963
  0
LINE
  8
0
 10
-83.749954
 20
-148.926956
 11
-76.481117
 21
-148.926956
  0
LINE
  8
0
 10
-121.749954
 20
-168.114929
 11
-120.749954
 21
-168.114929
  0
LINE
  8
0
 10
-121.749954
 20
-150.114929
 11
-121.749954
 21
-168.114929
  0
LINE
  8
0
 10
-121.749954
 20
-150.114929
 11
-120.749954
 21
-150.114929
  0
LINE
  8
0
 10
-76.949944
 20
-148.114914
 11
-75.749939
 21
-150.193375
  0
LINE
  8
0
 10
-76.949951
 20
-148.114929
 11
-76.949951
 21
-170.114929
  0
LINE
  8
0
 10
-83.749954
 20
-148.114929
 11
-76.949951
 21
-148.114929
  0
LINE
  8
0
 10
-83.749954
 20
-170.114929
 11
-76.949951
 21
-170.114929
  0
LINE
  8
0
 10
-75.749954
 20
-150.193390
 11
-75.749954
 21
-168.036469
  0
LINE
  8
0
 10
-76.949951
 20
-170.114944
 11
-75.749947
 21
-168.036484
  0
LINE
  8
0
 10
-92.749992
 20
-117.733727
 11
-96.749977
 21
-115.424324
  0
LINE
  8
0
 10
-96.749908
 20
-115.424301
 11
-96.749908
 21
-110.805511
  0
LINE
  8
0
 10
-102.249985
 20
-135.733673
 11
-106.249969
 21
-133.424286
  0
LINE
  8
0
 10
-83.749954
 20
-100.114929
 11
-83.749954
 21
-218.114929
  0
LINE
  8
0
 10
-96.749908
 20
-110.805557
 11
-92.749924
 21
-108.496155
  0
LINE
  8
0
 10
-92.749916
 20
-108.496056
 11
-88.749924
 21
-110.805435
  0
LINE
  8
0
 10
-88.749924
 20
-110.805527
 11
-88.749924
 21
-115.424316
  0
LINE
  8
0
 10
-88.749977
 20
-115.424362
 11
-92.749962
 21
-117.733757
  0
LINE
  8
0
 10
-111.749947
 20
-108.496101
 11
-107.749962
 21
-110.805504
  0
LINE
  8
0
 10
-107.749924
 20
-110.805527
 11
-107.749924
 21
-115.424316
  0
LINE
  8
0
 10
-107.749962
 20
-115.424355
 11
-111.749939
 21
-117.733734
  0
LINE
  8
0
 10
-111.749962
 20
-117.733665
 11
-115.749954
 21
-115.424278
  0
LINE
  8
0
 10
-115.749908
 20
-115.424301
 11
-115.749908
 21
-110.805511
  0
LINE
  8
0
 10
-115.749939
 20
-110.805573
 11
-111.749962
 21
-108.496185
  0
LINE
  8
0
 10
-98.249954
 20
-133.424347
 11
-102.249962
 21
-135.733749
  0
LINE
  8
0
 10
-120.749954
 20
-100.114929
 11
-120.749954
 21
-218.114929
  0
LINE
  8
0
 10
-98.249924
 20
-128.805527
 11
-98.249924
 21
-133.424316
  0
LINE
  8
0
 10
-120.749954
 20
-218.114929
 11
-83.749954
 21
-218.114929
  0
LINE
  8
0
 10
-120.749954
 20
-100.114929
 11
-83.749954
 21
-100.114929
  0
LINE
  8
0
 10
-120.749954
 20
-140.114929
 11
-83.749954
 21
-140.114929
  0
LINE
  8
0
 10
-120.749954
 20
-178.114929
 11
-83.749954
 21
-178.114929
  0
LINE
  8
0
 10
-120.749954
 20
-196.114929
 11
-83.749954
 21
-196.114929
  0
LINE
  8
0
 10
-120.749954
 20
-122.114929
 11
-83.749954
 21
-122.114929
  0
LINE
  8
0
 10
-102.249947
 20
-126.496101
 11
-98.249962
 21
-128.805496
  0
LINE
  8
0
 10
-106.249916
 20
-128.805542
 11
-102.249939
 21
-126.496155
  0
LINE
  8
0
 10
-106.249908
 20
-133.424301
 11
-106.249908
 21
-128.805511
  0
LINE
  8
0
 10
-96.749939
 20
-207.424332
 11
-92.749947
 21
-209.733719
  0
LINE
  8
0
 10
-92.749947
 20
-209.733780
 11
-88.749962
 21
-207.424377
  0
LINE
  8
0
 10
-88.749924
 20
-207.424332
 11
-88.749924
 21
-202.805542
  0
LINE
  8
0
 10
-88.750000
 20
-202.805527
 11
-92.749985
 21
-200.496140
  0
LINE
  8
0
 10
-92.749985
 20
-200.496231
 11
-96.749962
 21
-202.805618
  0
LINE
  8
0
 10
-96.749908
 20
-202.805557
 11
-96.749908
 21
-207.424347
  0
LINE
  8
0
 10
-111.749985
 20
-200.496185
 11
-115.749977
 21
-202.805588
  0
LINE
  8
0
 10
-115.749908
 20
-202.805557
 11
-115.749908
 21
-207.424347
  0
LINE
  8
0
 10
-115.749916
 20
-207.424301
 11
-111.749931
 21
-209.733704
  0
LINE
  8
0
 10
-111.749947
 20
-209.733749
 11
-107.749954
 21
-207.424362
  0
LINE
  8
0
 10
-107.749924
 20
-207.424332
 11
-107.749924
 21
-202.805542
  0
LINE
  8
0
 10
-107.750000
 20
-202.805542
 11
-111.749985
 21
-200.496155
  0
LINE
  8
0
  6
CENTER
 10
-92.749954
 20
-193.114929
 11
-92.749954
 21
-217.114929
  0
LINE
  8
0
  6
CENTER
 10
-111.749954
 20
-193.114929
 11
-111.749954
 21
-217.114929
  0
LINE
  8
0
  6
CENTER
 10
-123.749954
 20
-205.114929
 11
-80.749954
 21
-205.114929
  0
LINE
  8
0
  6
CENTER
 10
-102.249954
 20
-143.114929
 11
-102.249954
 21
-119.114929
  0
LINE
  8
0
  6
CENTER
 10
-90.249954
 20
-131.114914
 11
-114.249954
 21
-131.114914
  0
LINE
  8
0
  6
CENTER
 10
-92.749954
 20
-125.114929
 11
-92.749954
 21
-101.114929
  0
LINE
  8
0
  6
CENTER
 10
-111.749954
 20
-125.114929
 11
-111.749954
 21
-101.114929
  0
LINE
  8
0
  6
CENTER
 10
-123.749954
 20
-113.114929
 11
-80.749954
 21
-113.114929
  0
LINE
  8
0
 10
221.249908
 20
-354.115234
 11
221.249908
 21
-356.115234
  0
LINE
  8
0
 10
211.249908
 20
-354.115173
 11
211.249908
 21
-356.115173
  0
LINE
  8
0
 10
220.437912
 20
-354.115204
 11
220.437912
 21
-356.115204
  0
LINE
  8
0
 10
212.061905
 20
-354.115204
 11
212.061905
 21
-356.115204
  0
LINE
  8
0
 10
224.249908
 20
-339.615234
 11
224.249908
 21
-348.615234
  0
LINE
  8
0
 10
224.250122
 20
-339.615112
 11
208.250122
 21
-339.615112
  0
LINE
  8
0
 10
223.250122
 20
-338.615112
 11
209.250122
 21
-338.615112
  0
LINE
  8
0
 10
194.250015
 20
-358.579254
 11
194.250015
 21
-351.651031
  0
LINE
  8
0
 10
182.250015
 20
-351.650970
 11
182.250015
 21
-358.579193
  0
LINE
  8
0
 10
188.250198
 20
-348.186890
 11
182.250198
 21
-351.651001
  0
LINE
  8
0
 10
194.250153
 20
-351.651154
 11
188.250137
 21
-348.187042
  0
LINE
  8
0
 10
182.250122
 20
-358.579315
 11
188.250137
 21
-362.043427
  0
LINE
  8
0
 10
188.250137
 20
-362.043274
 11
194.250137
 21
-358.579163
  0
LINE
  8
0
 10
220.574524
 20
-369.115112
 11
240.750031
 21
-369.115112
  0
LINE
  8
0
 10
227.625946
 20
-391.615112
 11
242.249954
 21
-391.615112
  0
LINE
  8
0
 10
208.249908
 20
-339.615173
 11
208.249908
 21
-348.615173
  0
LINE
  8
0
 10
226.249908
 20
-347.615234
 11
226.249908
 21
-356.615234
  0
LINE
  8
0
 10
242.250092
 20
-347.615112
 11
226.250092
 21
-347.615112
  0
LINE
  8
0
 10
226.249924
 20
-347.615051
 11
227.249908
 21
-346.615051
  0
LINE
  8
0
 10
241.250092
 20
-346.615112
 11
227.250092
 21
-346.615112
  0
LINE
  8
0
 10
149.249908
 20
-369.114990
 11
149.249908
 21
-378.114929
  0
LINE
  8
0
 10
242.250092
 20
-347.615265
 11
241.250092
 21
-346.615265
  0
LINE
  8
0
 10
242.249908
 20
-347.615295
 11
242.249908
 21
-356.615295
  0
LINE
  8
0
 10
227.249908
 20
-369.115234
 11
227.249908
 21
-378.115356
  0
LINE
  8
0
 10
134.249908
 20
-347.614929
 11
134.249908
 21
-356.614929
  0
LINE
  8
0
 10
134.250153
 20
-347.614960
 11
135.250153
 21
-346.614960
  0
LINE
  8
0
 10
135.250092
 20
-346.615112
 11
149.250092
 21
-346.615112
  0
LINE
  8
0
 10
149.249878
 20
-378.115143
 11
151.249878
 21
-379.257996
  0
LINE
  8
0
 10
227.249954
 20
-378.115112
 11
225.249954
 21
-379.257965
  0
LINE
  8
0
 10
134.250092
 20
-347.615112
 11
150.250092
 21
-347.615112
  0
LINE
  8
0
 10
150.249954
 20
-347.615143
 11
149.249954
 21
-346.615143
  0
LINE
  8
0
 10
135.750031
 20
-369.115112
 11
155.925446
 21
-369.115112
  0
LINE
  8
0
 10
207.249908
 20
-343.618347
 11
207.249908
 21
-348.615173
  0
LINE
  8
0
 10
169.249908
 20
-343.618225
 11
169.249908
 21
-348.615051
  0
LINE
  8
0
 10
152.250092
 20
-348.615112
 11
169.250092
 21
-348.615112
  0
LINE
  8
0
 10
207.250092
 20
-348.615112
 11
224.250092
 21
-348.615112
  0
LINE
  8
0
 10
151.249908
 20
-349.614990
 11
151.249908
 21
-356.614990
  0
LINE
  8
0
 10
131.250061
 20
-356.615112
 11
151.250061
 21
-356.615112
  0
LINE
  8
0
 10
129.249908
 20
-358.614929
 11
129.249908
 21
-386.614929
  0
LINE
  8
0
 10
129.250000
 20
-375.615112
 11
135.750000
 21
-375.615112
  0
LINE
  8
0
 10
135.749908
 20
-369.114929
 11
135.749908
 21
-375.614929
  0
LINE
  8
0
 10
224.250046
 20
-339.615204
 11
223.250046
 21
-338.615204
  0
LINE
  8
0
 10
225.249908
 20
-349.615234
 11
225.249908
 21
-354.115234
  0
LINE
  8
0
 10
245.250061
 20
-356.615112
 11
225.250061
 21
-356.615112
  0
LINE
  8
0
 10
247.249908
 20
-358.615295
 11
247.249908
 21
-386.615295
  0
LINE
  8
0
 10
247.250000
 20
-375.615112
 11
240.750000
 21
-375.615112
  0
LINE
  8
0
 10
240.749908
 20
-369.115295
 11
240.749908
 21
-375.615295
  0
LINE
  8
0
 10
199.204620
 20
-356.115112
 11
225.250061
 21
-356.115112
  0
LINE
  8
0
 10
199.204636
 20
-354.115112
 11
225.250076
 21
-354.115112
  0
LINE
  8
0
 10
225.249908
 20
-356.115234
 11
225.249908
 21
-356.615234
  0
LINE
  8
0
 10
208.249985
 20
-339.615021
 11
209.249985
 21
-338.615051
  0
LINE
  8
0
 10
150.249908
 20
-347.614990
 11
150.249908
 21
-356.614990
  0
LINE
  8
0
 10
134.249954
 20
-391.615112
 11
148.873810
 21
-391.615112
  0
LINE
  8
0
  6
CENTER
 10
142.249908
 20
-341.614960
 11
142.249908
 21
-396.614960
  0
LINE
  8
0
  6
CENTER
 10
172.250183
 20
-355.115112
 11
204.250183
 21
-355.115112
  0
LINE
  8
0
  6
CENTER
 10
216.249908
 20
-333.615204
 11
216.249908
 21
-374.115204
  0
LINE
  8
0
  6
CENTER
 10
234.249908
 20
-341.615265
 11
234.249908
 21
-396.615265
  0
ARC
  8
0
 62
     5
 10
655.008484
 20
-465.668823
 40
6.635708
 50
291.688293
 51
0.000000
  0
ARC
  8
0
 62
     5
 10
652.796448
 20
-464.168060
 40
2.211920
 50
291.688660
 51
0.000000
  0
ARC
  8
0
 62
     5
 10
546.072388
 20
-470.092651
 40
4.423828
 50
0.000000
 51
90.000000
  0
ARC
  8
0
 62
     5
 10
582.568787
 20
-493.870697
 40
4.423798
 50
270.000000
 51
0.000000
  0
ARC
  8
0
 62
     5
 10
580.356750
 20
-472.304474
 40
6.635681
 50
0.000000
 51
90.000000
  0
ARC
  8
0
 62
     5
 10
620.723999
 20
-470.092651
 40
4.423828
 50
0.000000
 51
90.000000
  0
ARC
  8
0
 62
     5
 10
620.723999
 20
-473.626892
 40
4.423808
 50
294.999786
 51
0.000000
  0
ARC
  8
0
  6
PHANTOM
 10
-574.254700
 20
96.999825
 40
30.000017
 50
156.421890
 51
203.578094
  0
ARC
  8
0
  6
PHANTOM
 10
-627.730835
 20
69.999786
 40
30.000023
 50
329.999969
 51
30.000027
  0
ARC
  8
0
  6
PHANTOM
 10
-575.217224
 20
299.000000
 40
30.000019
 50
152.181885
 51
207.818115
  0
ARC
  8
0
  6
PHANTOM
 10
-628.283203
 20
271.000000
 40
30.000019
 50
332.181885
 51
27.818119
  0
ARC
  8
0
  6
PHANTOM
 10
-219.749939
 20
66.999733
 40
8.000000
 50
180.000000
 51
270.000000
  0
ARC
  8
0
  6
PHANTOM
 10
-219.750122
 20
102.999733
 40
8.000000
 50
90.000000
 51
179.999939
  0
ARC
  8
0
  6
PHANTOM
 10
-183.750122
 20
102.999931
 40
8.000000
 50
0.000000
 51
90.000000
  0
ARC
  8
0
  6
PHANTOM
 10
-183.749939
 20
66.999931
 40
8.000000
 50
270.000000
 51
0.000000
  0
ARC
  8
0
  6
PHANTOM
 10
-212.131134
 20
54.999802
 40
4.000000
 50
90.000000
 51
149.999954
  0
ARC
  8
0
  6
PHANTOM
 10
-191.368744
 20
54.999863
 40
3.999995
 50
30.000040
 51
90.000000
  0
ARC
  8
0
  6
PHANTOM
 10
-228.949982
 20
64.799759
 40
0.800003
 50
180.000000
 51
0.000000
  0
ARC
  8
0
  6
PHANTOM
 10
-227.299957
 20
64.799759
 40
0.850003
 50
112.406876
 51
180.000000
  0
ARC
  8
0
  6
PHANTOM
 10
-226.749969
 20
61.299759
 40
0.299999
 50
270.000000
 51
0.000000
  0
ARC
  8
0
  6
PHANTOM
 10
-228.950012
 20
74.999756
 40
0.800003
 50
0.000000
 51
180.000000
  0
ARC
  8
0
  6
PHANTOM
 10
-227.750092
 20
106.999756
 40
2.000000
 50
90.000000
 51
180.000000
  0
ARC
  8
0
  6
PHANTOM
 10
-230.632065
 20
100.978386
 40
8.027240
 50
282.033325
 51
291.040405
  0
ARC
  8
0
  6
PHANTOM
 10
-228.750046
 20
92.149506
 40
1.000001
 50
102.033333
 51
180.000000
  0
ARC
  8
0
  6
PHANTOM
 10
-174.750046
 20
92.149658
 40
1.000000
 50
0.000000
 51
77.966667
  0
ARC
  8
0
  6
PHANTOM
 10
-174.549957
 20
64.799911
 40
0.800003
 50
180.000000
 51
0.000000
  0
ARC
  8
0
  6
PHANTOM
 10
-176.199982
 20
64.799911
 40
0.850006
 50
0.000000
 51
67.590828
  0
ARC
  8
0
  6
PHANTOM
 10
-176.749969
 20
61.299911
 40
0.300003
 50
180.000000
 51
270.000000
  0
ARC
  8
0
  6
PHANTOM
 10
-174.549988
 20
74.999908
 40
0.800003
 50
0.000000
 51
180.000000
  0
ARC
  8
0
  6
PHANTOM
 10
-175.750092
 20
106.999908
 40
2.000000
 50
0.000000
 51
90.000000
  0
ARC
  8
0
  6
PHANTOM
 10
-172.868088
 20
100.978554
 40
8.027239
 50
248.959595
 51
257.966675
  0
ARC
  8
0
  6
PHANTOM
 10
-237.250061
 20
95.499695
 40
4.500000
 50
180.000000
 51
270.000000
  0
ARC
  8
0
  6
PHANTOM
 10
-166.250061
 20
95.499908
 40
4.500000
 50
270.000000
 51
0.000000
  0
ARC
  8
0
  6
PHANTOM
 10
-240.250168
 20
130.499695
 40
1.500000
 50
90.000000
 51
180.000000
  0
ARC
  8
0
  6
PHANTOM
 10
-163.250168
 20
130.499908
 40
1.500000
 50
0.000000
 51
90.000000
  0
ARC
  8
0
  6
PHANTOM
 10
137.470093
 20
98.999969
 40
40.000000
 50
159.512726
 51
200.487274
  0
ARC
  8
0
  6
PHANTOM
 10
63.339478
 20
68.999962
 40
40.000000
 50
336.421814
 51
23.578178
  0
ARC
  8
0
  6
PHANTOM
 10
136.660477
 20
320.999847
 40
39.999996
 50
156.421860
 51
203.578125
  0
ARC
  8
0
  6
PHANTOM
 10
63.339249
 20
288.999878
 40
40.000000
 50
336.421814
 51
23.578178
  0
ARC
  8
0
  6
PHANTOM
 10
529.000427
 20
63.999916
 40
9.000000
 50
179.999969
 51
270.000000
  0
ARC
  8
0
  6
PHANTOM
 10
571.000427
 20
64.000008
 40
9.000000
 50
270.000000
 51
0.000000
  0
ARC
  8
0
  6
PHANTOM
 10
529.000305
 20
105.999916
 40
9.000000
 50
90.000000
 51
179.999954
  0
ARC
  8
0
  6
PHANTOM
 10
571.000305
 20
106.000008
 40
9.000000
 50
0.000000
 51
90.000000
  0
ARC
  8
0
  6
PHANTOM
 10
504.500244
 20
139.999893
 40
2.000000
 50
90.000000
 51
180.000000
  0
ARC
  8
0
  6
PHANTOM
 10
595.500244
 20
140.000031
 40
2.000000
 50
0.000000
 51
90.000000
  0
ARC
  8
0
  6
PHANTOM
 10
508.500305
 20
96.999901
 40
6.000000
 50
180.000000
 51
270.000000
  0
ARC
  8
0
  6
PHANTOM
 10
591.500305
 20
97.000023
 40
6.000000
 50
270.000000
 51
0.000000
  0
ARC
  8
0
  6
PHANTOM
 10
518.800354
 20
64.799995
 40
0.799988
 50
180.000000
 51
0.000000
  0
ARC
  8
0
  6
PHANTOM
 10
518.800354
 20
74.999992
 40
0.799988
 50
0.000000
 51
180.000000
  0
ARC
  8
0
  6
PHANTOM
 10
520.000305
 20
110.999992
 40
2.000000
 50
90.000000
 51
180.000000
  0
ARC
  8
0
  6
PHANTOM
 10
581.200378
 20
64.800087
 40
0.799988
 50
180.000000
 51
0.000000
  0
ARC
  8
0
  6
PHANTOM
 10
579.550354
 20
64.800087
 40
0.849976
 50
0.000000
 51
58.033211
  0
ARC
  8
0
  6
PHANTOM
 10
581.200378
 20
75.000084
 40
0.799988
 50
0.000000
 51
180.000000
  0
ARC
  8
0
  6
PHANTOM
 10
580.000305
 20
111.000084
 40
2.000000
 50
0.000000
 51
90.000000
  0
ARC
  8
0
  6
PHANTOM
 10
517.914734
 20
103.699585
 40
8.999993
 50
276.231995
 51
283.398956
  0
ARC
  8
0
  6
PHANTOM
 10
519.000366
 20
93.758690
 40
1.000000
 50
96.233559
 51
180.000000
  0
ARC
  8
0
  6
PHANTOM
 10
582.085876
 20
103.699692
 40
8.999999
 50
256.601044
 51
263.767609
  0
ARC
  8
0
  6
PHANTOM
 10
581.000305
 20
93.758781
 40
1.000000
 50
0.000000
 51
83.766441
  0
ARC
  8
0
  6
PHANTOM
 10
520.450378
 20
64.799995
 40
0.849998
 50
121.966789
 51
180.000000
  0
ARC
  8
0
  6
PHANTOM
 10
565.171936
 20
52.000061
 40
3.000003
 50
19.471201
 51
90.000000
  0
ARC
  8
0
  6
PHANTOM
 10
534.828796
 20
52.000015
 40
3.000000
 50
90.000000
 51
160.528793
  0
ARC
  8
0
  6
PHANTOM
 10
-274.912506
 20
-386.614990
 40
50.000008
 50
159.512695
 51
200.487274
  0
ARC
  8
0
  6
PHANTOM
 10
-367.575745
 20
-424.114990
 40
49.999989
 50
336.421814
 51
23.578184
  0
ARC
  8
0
  6
PHANTOM
 10
-275.709259
 20
-139.614960
 40
49.999996
 50
157.045502
 51
202.954468
  0
ARC
  8
0
  6
PHANTOM
 10
-367.790741
 20
-178.614975
 40
50.000000
 50
337.045502
 51
22.954500
  0
ARC
  8
0
  6
PHANTOM
 10
227.333008
 20
-381.115387
 40
11.000006
 50
259.083832
 51
264.821533
  0
ARC
  8
0
  6
PHANTOM
 10
226.249878
 20
-393.066437
 40
1.000000
 50
0.000000
 51
84.821640
  0
ARC
  8
0
  6
PHANTOM
 10
151.049789
 20
-432.314941
 40
0.800003
 50
180.000000
 51
314.012360
  0
ARC
  8
0
  6
PHANTOM
 10
151.049835
 20
-414.114929
 40
0.800004
 50
75.521652
 51
180.000000
  0
ARC
  8
0
  6
PHANTOM
 10
151.249939
 20
-371.114929
 40
2.000000
 50
90.000000
 51
180.000000
  0
ARC
  8
0
  6
PHANTOM
 10
225.449814
 20
-432.315063
 40
0.799993
 50
225.981445
 51
0.000000
  0
ARC
  8
0
  6
PHANTOM
 10
225.449860
 20
-414.115082
 40
0.800003
 50
0.000000
 51
104.478348
  0
ARC
  8
0
  6
PHANTOM
 10
225.249939
 20
-371.115082
 40
2.000000
 50
0.000000
 51
90.000000
  0
ARC
  8
0
  6
PHANTOM
 10
205.249786
 20
-444.115051
 40
3.000000
 50
0.000000
 51
90.000000
  0
ARC
  8
0
  6
PHANTOM
 10
171.249786
 20
-444.114960
 40
3.000000
 50
90.000000
 51
180.000000
  0
ARC
  8
0
  6
PHANTOM
 10
149.166809
 20
-381.115234
 40
11.000007
 50
275.178467
 51
280.916168
  0
ARC
  8
0
  6
PHANTOM
 10
150.249878
 20
-393.066254
 40
0.999992
 50
95.178360
 51
180.000000
  0
ARC
  8
0
  6
PHANTOM
 10
162.249756
 20
-430.114899
 40
11.000000
 50
180.000000
 51
270.000000
  0
ARC
  8
0
  6
PHANTOM
 10
162.249969
 20
-378.114899
 40
11.000000
 50
90.000000
 51
180.000000
  0
ARC
  8
0
  6
PHANTOM
 10
214.249969
 20
-378.115112
 40
11.000000
 50
0.000000
 51
90.000000
  0
ARC
  8
0
  6
PHANTOM
 10
214.249756
 20
-430.115112
 40
11.000000
 50
270.000000
 51
0.000000
  0
ARC
  8
0
  6
PHANTOM
 10
132.250000
 20
-342.114899
 40
4.000000
 50
90.000000
 51
180.000000
  0
ARC
  8
0
  6
PHANTOM
 10
244.250000
 20
-342.115112
 40
4.000000
 50
0.000000
 51
90.000000
  0
ARC
  8
0
  6
PHANTOM
 10
138.249893
 20
-387.114899
 40
10.000000
 50
180.000000
 51
270.000000
  0
ARC
  8
0
  6
PHANTOM
 10
238.249893
 20
-387.115112
 40
10.000000
 50
270.000000
 51
0.000000
  0
CIRCLE
  8
0
 10
-426.000275
 20
306.000000
 40
5.000000
  0
CIRCLE
  8
0
 10
-432.750031
 20
253.000000
 40
5.000000
  0
CIRCLE
  8
0
 10
-419.250397
 20
317.000000
 40
5.000000
  0
CIRCLE
  8
0
 10
-419.250275
 20
253.000000
 40
5.000000
  0
CIRCLE
  8
0
 10
-432.750153
 20
317.000000
 40
5.000000
  0
CIRCLE
  8
0
 10
-201.750046
 20
120.999802
 40
8.188000
  0
CIRCLE
  8
0
 10
-201.750168
 20
120.999802
 40
9.000000
  0
ARC
  8
0
 10
-201.750031
 20
97.499832
 40
35.000000
 50
65.297272
 51
114.702751
  0
ARC
  8
0
 10
-215.750092
 20
127.934174
 40
1.499998
 50
114.702599
 51
180.000000
  0
ARC
  8
0
 10
-187.750092
 20
127.934204
 40
1.500000
 50
0.000000
 51
65.297401
  0
ARC
  8
0
 10
-227.250092
 20
124.999802
 40
1.000000
 50
90.000000
 51
180.000000
  0
ARC
  8
0
 10
-239.250061
 20
117.499786
 40
2.000000
 50
90.000000
 51
180.000000
  0
ARC
  8
0
 10
-236.750061
 20
108.499786
 40
1.000000
 50
90.000000
 51
180.000000
  0
ARC
  8
0
 10
-166.750061
 20
108.499878
 40
1.000000
 50
0.000000
 51
90.000000
  0
ARC
  8
0
 10
-164.250061
 20
117.499878
 40
2.000000
 50
0.000000
 51
90.000000
  0
ARC
  8
0
 10
-176.250092
 20
124.999863
 40
1.000000
 50
0.000000
 51
90.000000
  0
ARC
  8
0
 10
-238.250031
 20
96.499786
 40
3.000000
 50
180.000000
 51
270.000000
  0
ARC
  8
0
 10
-165.250031
 20
96.499878
 40
3.000000
 50
270.000000
 51
0.000000
  0
ARC
  8
0
 10
-228.750046
 20
92.149475
 40
2.000002
 50
102.033333
 51
137.533264
  0
ARC
  8
0
 10
-230.632095
 20
100.978355
 40
7.027238
 50
282.033325
 51
294.212585
  0
ARC
  8
0
 10
-174.750046
 20
92.149689
 40
2.000002
 50
42.460850
 51
77.966667
  0
ARC
  8
0
 10
-172.868118
 20
100.978584
 40
7.027240
 50
245.788239
 51
257.966675
  0
CIRCLE
  8
0
 10
293.500854
 20
267.000122
 40
6.500000
  0
CIRCLE
  8
0
 10
312.500549
 20
267.000305
 40
6.500000
  0
CIRCLE
  8
0
 10
303.000122
 20
329.000214
 40
6.500000
  0
CIRCLE
  8
0
 10
312.499817
 20
343.000305
 40
6.500000
  0
CIRCLE
  8
0
 10
293.500122
 20
343.000122
 40
6.500000
  0
CIRCLE
  8
0
 10
550.000244
 20
126.999947
 40
9.188000
  0
CIRCLE
  8
0
 10
550.000244
 20
126.999947
 40
10.000000
  0
ARC
  8
0
 10
517.914734
 20
103.699547
 40
8.000000
 50
276.232239
 51
285.111389
  0
ARC
  8
0
 10
519.000366
 20
93.758652
 40
2.000000
 50
96.231796
 51
158.244812
  0
ARC
  8
0
 10
550.000366
 20
102.499947
 40
40.000000
 50
66.750412
 51
113.249588
  0
ARC
  8
0
 10
535.000366
 20
137.414124
 40
2.000004
 50
113.250023
 51
180.000000
  0
ARC
  8
0
 10
520.000366
 20
132.999924
 40
1.000000
 50
90.000000
 51
180.000000
  0
ARC
  8
0
 10
505.000336
 20
123.499924
 40
2.000000
 50
90.000000
 51
180.000000
  0
ARC
  8
0
 10
507.000366
 20
98.499924
 40
4.000000
 50
180.000000
 51
270.000000
  0
ARC
  8
0
 10
565.000366
 20
137.414124
 40
2.000000
 50
0.000000
 51
66.749977
  0
ARC
  8
0
 10
580.000366
 20
132.999954
 40
1.000000
 50
0.000000
 51
90.000000
  0
ARC
  8
0
 10
595.000366
 20
123.499969
 40
2.000000
 50
0.000000
 51
90.000000
  0
ARC
  8
0
 10
593.000366
 20
98.499969
 40
4.000000
 50
270.000000
 51
0.000000
  0
ARC
  8
0
 10
581.000366
 20
93.758682
 40
1.999991
 50
21.755180
 51
83.768204
  0
ARC
  8
0
 10
582.085999
 20
103.699577
 40
7.999999
 50
254.888611
 51
263.767761
  0
CIRCLE
  8
0
 10
-111.749954
 20
-205.114929
 40
8.000000
  0
CIRCLE
  8
0
 10
-92.749954
 20
-205.114929
 40
8.000000
  0
CIRCLE
  8
0
 10
-102.249954
 20
-131.114929
 40
8.000000
  0
CIRCLE
  8
0
 10
-92.749954
 20
-113.114929
 40
8.000000
  0
CIRCLE
  8
0
 10
-111.749954
 20
-113.114929
 40
8.000000
  0
CIRCLE
  8
0
 10
188.250183
 20
-355.115112
 40
10.188000
  0
ARC
  8
0
 10
150.249969
 20
-393.066254
 40
2.000015
 50
95.178284
 51
133.478745
  0
ARC
  8
0
 10
149.166931
 20
-381.115234
 40
10.000013
 50
275.178406
 51
282.023315
  0
ARC
  8
0
 10
227.333130
 20
-381.115631
 40
10.000010
 50
257.976685
 51
264.821503
  0
ARC
  8
0
 10
226.249969
 20
-393.066681
 40
2.000002
 50
46.528984
 51
84.821205
  0
CIRCLE
  8
0
 10
188.250183
 20
-355.115112
 40
11.000000
  0
ARC
  8
0
 10
188.249985
 20
-383.115112
 40
44.999996
 50
66.712265
 51
113.287750
  0
ARC
  8
0
 10
205.250107
 20
-343.618347
 40
2.000000
 50
0.000000
 51
66.712387
  0
ARC
  8
0
 10
171.250107
 20
-343.618225
 40
2.000003
 50
113.287613
 51
180.000000
  0
ARC
  8
0
 10
152.250092
 20
-349.614990
 40
1.000000
 50
90.000000
 51
180.000000
  0
ARC
  8
0
 10
131.250061
 20
-358.614929
 40
2.000000
 50
90.000000
 51
180.000000
  0
ARC
  8
0
 10
224.250092
 20
-349.615234
 40
1.000000
 50
0.000000
 51
90.000000
  0
ARC
  8
0
 10
245.250061
 20
-358.615295
 40
2.000000
 50
0.000000
 51
90.000000
  0
ARC
  8
0
 10
134.249969
 20
-386.614929
 40
5.000000
 50
180.000000
 51
270.000000
  0
ARC
  8
0
 10
242.249969
 20
-386.615295
 40
5.000000
 50
270.000000
 51
0.000000
  0
TEXT
  8
0
 10
452.676331
 20
466.216309
 40
17.000000
  1
DATE : JUN ,1991
 50
0.000000
 41
1.052631
 51
0.000000
  7
STANDARD
  0
TEXT
  8
0
 10
-642.223694
 20
463.516205
 40
20.000000
  1
ORGA A-BOLT
 50
0.000000
 41
1.052632
 51
0.000000
  7
STANDARD
  0
TEXT
  8
0
 10
-704.357117
 20
384.914032
 40
20.000000
  1
BORE : 32
 50
0.000000
 41
1.052632
 51
0.000000
  7
STANDARD
  0
TEXT
  8
0
 10
37.392860
 20
424.914032
 40
20.000000
  1
BORE : 40
 50
0.000000
 41
1.052632
 51
0.000000
  7
STANDARD
  0
TEXT
  8
0
 10
-704.357117
 20
-67.000061
 40
20.000000
  1
BORE : 50
 50
0.000000
 41
1.052632
 51
0.000000
  7
STANDARD
  0
ENDSEC
  0
EOF
