  0
SECTION
  2
HEADER
  0
ENDSEC
  0
SECTION
  2
TABLES
  0
TABLE
  2
LTYPE
 70
     4
  0
LTYPE
  2
CONTINUOUS
 70
    64
  3
Solid line
 72
    65
 73
     0
 40
0.000000
  0
LTYPE
  2
DASHED
 70
    64
  3
__ __ __ __ __ __ __ __ __ __ __ __ __ __ __
 72
    65
 73
     2
 40
3.500000
 49
2.000000
 49
-1.500000
  0
LTYPE
  2
CENTER
 70
    64
  3
____ _ ____ _ ____ _ ____ _ ____ _ ____ _ ____
 72
    65
 73
     4
 40
17.500000
 49
13.000000
 49
-1.500000
 49
1.500000
 49
-1.500000
  0
LTYPE
  2
PHANTOM
 70
    64
  3
_____ _ _ _____ _ _ _____ _ _ _____ _ _ ____  
 72
    65
 73
     6
 40
15.500000
 49
8.000000
 49
-1.500000
 49
1.500000
 49
-1.500000
 49
1.500000
 49
-1.500000
  0
LTYPE
  2
DASHED1
 70
    64
  3
__ __ __ __ __ __ __ __ __ __ __ __ __ __ __
 72
    65
 73
     2
 40
1.500000
 49
1.000000
 49
-0.500000
  0
LTYPE
  2
DASHED2
 70
    64
  3
__ __ __ __ __ __ __ __ __ __ __ __ __ __ __
 72
    65
 73
     2
 40
3.500000
 49
2.500000
 49
-1.000000
  0
LTYPE
  2
DASHED3
 70
    64
  3
__ __ __ __ __ __ __ __ __ __ __ __ __ __ __
 72
    65
 73
     2
 40
6.000000
 49
4.000000
 49
-2.000000
  0
LTYPE
  2
DASHED4
 70
    64
  3
__ __ __ __ __ __ __ __ __ __ __ __ __ __ __
 72
    65
 73
     2
 40
12.000000
 49
10.000000
 49
-2.000000
  0
LTYPE
  2
DASHED5
 70
    64
  3
__ __ __ __ __ __ __ __ __ __ __ __ __ __ __
 72
    65
 73
     2
 40
17.000000
 49
15.000000
 49
-2.000000
  0
LTYPE
  2
DASHED6
 70
    64
  3
__ __ __ __ __ __ __ __ __ __ __ __ __ __ __
 72
    65
 73
     2
 40
29.000000
 49
27.000000
 49
-2.000000
  0
LTYPE
  2
PHANTOM1
 70
    64
  3
_____ _ _ _____ _ _ _____ _ _ _____ _ _ ____  
 72
    65
 73
     6
 40
31.000000
 49
25.000000
 49
-1.500000
 49
1.000000
 49
-1.000000
 49
1.000000
 49
-1.500000
  0
LTYPE
  2
PHANTOM2
 70
    64
  3
_____ _ _ _____ _ _ _____ _ _ _____ _ _ ____  
 72
    65
 73
     6
 40
36.000000
 49
27.000000
 49
-1.500000
 49
2.500000
 49
-1.000000
 49
2.500000
 49
-1.500000
  0
LTYPE
  2
PHANTOM3
 70
    64
  3
_____ _ _ _____ _ _ _____ _ _ _____ _ _ ____  
 72
    65
 73
     6
 40
78.000000
 49
64.000000
 49
-2.000000
 49
4.000000
 49
-2.000000
 49
4.000000
 49
-2.000000
  0
LTYPE
  2
CENTER1
 70
    64
  3
____ _ ____ _ ____ _ ____ _ ____ _ ____ _ ____
 72
    65
 73
     4
 40
19.000000
 49
14.000000
 49
-1.000000
 49
3.000000
 49
-1.000000
  0
LTYPE
  2
CENTER2
 70
    64
  3
____ _ ____ _ ____ _ ____ _ ____ _ ____ _ ____
 72
    65
 73
     4
 40
28.500000
 49
25.000000
 49
-1.000000
 49
1.500000
 49
-1.000000
  0
LTYPE
  2
CENTER3
 70
    64
  3
____ _ ____ _ ____ _ ____ _ ____ _ ____ _ ____
 72
    65
 73
     4
 40
31.500000
 49
27.000000
 49
-1.000000
 49
2.500000
 49
-1.000000
  0
LTYPE
  2
CENTER4
 70
    64
  3
____ _ ____ _ ____ _ ____ _ ____ _ ____ _ ____
 72
    65
 73
     4
 40
50.000000
 49
45.000000
 49
-1.000000
 49
3.000000
 49
-1.000000
  0
LTYPE
  2
CENTER5
 70
    64
  3
____ _ ____ _ ____ _ ____ _ ____ _ ____ _ ____
 72
    65
 73
     4
 40
100.000000
 49
92.000000
 49
-2.000000
 49
4.000000
 49
-2.000000
  0
LTYPE
  2
SBK1
 70
    64
  3
______ _ _ _ ______ _ _ _ ______ _ _ _ _____  
 72
    65
 73
     8
 40
60.500000
 49
45.000000
 49
-2.000000
 49
2.500000
 49
-2.000000
 49
2.500000
 49
-2.000000
 49
2.500000
 49
-2.000000
  0
LTYPE
  2
SBK2
 70
    64
  3
______ _ _ _ ______ _ _ _ ______ _ _ _ _____  
 72
    65
 73
     8
 40
84.000000
 49
64.000000
 49
-2.000000
 49
4.000000
 49
-2.000000
 49
4.000000
 49
-2.000000
 49
4.000000
 49
-2.000000
  0
LTYPE
  2
STCH
 70
    64
  3
__ __ __ __ __ __ __ __ __ __ __ __ __ __ __
 72
    65
 73
     2
 40
3.000000
 49
1.000000
 49
-2.000000
  0
LTYPE
  2
MTCH
 70
    64
  3
_____ _ _ _____ _ _ _____ _ _ _____ _ _ ____  
 72
    65
 73
     6
 40
80.000000
 49
66.000000
 49
-2.000000
 49
4.000000
 49
-2.000000
 49
4.000000
 49
-2.000000
  0
ENDTAB
  0
TABLE
  2
LAYER
 70
     1
  0
LAYER
  2
0
 70
     0
 62
     7
  6
CONTINUOUS
  0
ENDTAB
  0
TABLE
  2
STYLE
 70
     1
  0
STYLE
  2
STANDARD
 70
     0
 40
0.000000
 41
1.000000
 50
0.000000
 71
     0
 42
0.200000
  3
txt
  4
BIGFONT
  0
ENDTAB
  0
TABLE
  2
VIEW
 70
     0
  0
ENDTAB
  0
ENDSEC
  0
SECTION
  2
BLOCKS
  0
ENDSEC
  0
SECTION
  2
ENTITIES
  0
POINT
  8
0
 10
-491.750214
 20
285.000000
  0
POINT
  8
0
 10
-491.750122
 20
99.999893
  0
POINT
  8
0
 10
-211.750000
 20
99.999954
  0
POINT
  8
0
 10
-421.750122
 20
99.999893
  0
POINT
  8
0
 10
-421.750244
 20
285.000000
  0
POINT
  8
0
 10
-185.750000
 20
99.999954
  0
POINT
  8
0
 10
540.000305
 20
100.000053
  0
POINT
  8
0
 10
230.000092
 20
99.999977
  0
POINT
  8
0
 10
229.999863
 20
284.999847
  0
POINT
  8
0
 10
300.000092
 20
99.999977
  0
POINT
  8
0
 10
299.999878
 20
284.999847
  0
POINT
  8
0
 10
570.000305
 20
100.000053
  0
POINT
  8
0
 10
158.250015
 20
-374.115021
  0
POINT
  8
0
 10
-211.750000
 20
-374.114990
  0
POINT
  8
0
 10
-211.750000
 20
-159.114960
  0
POINT
  8
0
 10
-131.750000
 20
-374.114990
  0
POINT
  8
0
 10
-131.750000
 20
-159.114960
  0
POINT
  8
0
 10
195.250015
 20
-374.115021
  0
LINE
  8
0
 62
     3
 10
-741.750000
 20
-509.114990
 11
741.750000
 21
-509.114990
  0
LINE
  8
0
 62
     3
 10
-741.750000
 20
509.114990
 11
741.750000
 21
509.114990
  0
LINE
  8
0
 62
     3
 10
741.750000
 20
509.114990
 11
741.750000
 21
-509.114990
  0
LINE
  8
0
 62
     3
 10
-741.750000
 20
509.114990
 11
-741.750000
 21
-509.114990
  0
LINE
  8
0
 62
     5
 10
516.764709
 20
-465.668823
 11
546.072388
 21
-465.668823
  0
LINE
  8
0
 62
     5
 10
516.764709
 20
-491.658691
 11
541.648621
 21
-491.658691
  0
LINE
  8
0
 62
     5
 10
516.764709
 20
-498.294342
 11
550.496216
 21
-498.294342
  0
LINE
  8
0
 62
     5
 10
516.764709
 20
-472.304474
 11
541.648621
 21
-472.304474
  0
LINE
  8
0
 62
     5
 10
516.764709
 20
-465.668823
 11
516.764709
 21
-472.304474
  0
LINE
  8
0
 62
     5
 10
550.496216
 20
-470.092651
 11
550.496216
 21
-498.294342
  0
LINE
  8
0
 62
     5
 10
541.648621
 20
-472.304474
 11
541.648621
 21
-491.658691
  0
LINE
  8
0
 62
     5
 10
555.472900
 20
-465.668823
 11
555.472900
 21
-472.304474
  0
LINE
  8
0
 62
     5
 10
586.992432
 20
-472.304474
 11
586.992432
 21
-493.870697
  0
LINE
  8
0
 62
     5
 10
578.144897
 20
-472.304474
 11
578.144897
 21
-491.658691
  0
LINE
  8
0
 62
     5
 10
516.764709
 20
-491.658691
 11
516.764709
 21
-498.294342
  0
LINE
  8
0
 62
     5
 10
555.472900
 20
-465.668823
 11
564.214966
 21
-465.668823
  0
LINE
  8
0
 62
     5
 10
555.472900
 20
-498.294342
 11
562.342773
 21
-498.294342
  0
LINE
  8
0
 62
     5
 10
555.472717
 20
-498.294098
 11
562.436890
 21
-472.304413
  0
LINE
  8
0
 62
     5
 10
555.472900
 20
-472.304474
 11
562.436951
 21
-472.304474
  0
LINE
  8
0
 62
     5
 10
562.343140
 20
-498.294647
 11
569.307007
 21
-472.304871
  0
LINE
  8
0
 62
     5
 10
571.509094
 20
-491.658691
 11
578.144897
 21
-491.658691
  0
LINE
  8
0
 62
     5
 10
571.508972
 20
-491.658600
 11
573.286804
 21
-498.294128
  0
LINE
  8
0
 62
     5
 10
573.287354
 20
-498.294342
 11
582.568787
 21
-498.294342
  0
LINE
  8
0
 62
     5
 10
569.306763
 20
-472.304474
 11
578.144897
 21
-472.304474
  0
LINE
  8
0
 62
     5
 10
571.084717
 20
-465.668823
 11
580.356750
 21
-465.668823
  0
LINE
  8
0
 62
     5
 10
564.215088
 20
-465.668854
 11
565.533630
 21
-460.747498
  0
LINE
  8
0
 62
     5
 10
571.084290
 20
-465.668488
 11
572.402893
 21
-460.746979
  0
LINE
  8
0
 62
     5
 10
592.522278
 20
-465.668823
 11
603.028809
 21
-465.668823
  0
LINE
  8
0
 62
     5
 10
592.522278
 20
-472.304474
 11
618.325867
 21
-472.304474
  0
LINE
  8
0
 62
     5
 10
603.028809
 20
-498.294342
 11
611.876221
 21
-498.294342
  0
LINE
  8
0
 62
     5
 10
592.522278
 20
-465.668823
 11
592.522278
 21
-472.304474
  0
LINE
  8
0
 62
     5
 10
625.147827
 20
-484.336975
 11
625.147827
 21
-491.658691
  0
LINE
  8
0
 62
     5
 10
592.521790
 20
-491.658447
 11
603.028564
 21
-486.759003
  0
LINE
  8
0
 62
     5
 10
592.522827
 20
-484.337433
 11
618.326355
 21
-472.304932
  0
LINE
  8
0
 62
     5
 10
592.522278
 20
-484.336975
 11
592.522278
 21
-491.658691
  0
LINE
  8
0
 62
     5
 10
611.876038
 20
-485.469879
 11
625.147766
 21
-491.658478
  0
LINE
  8
0
 62
     5
 10
616.686646
 20
-480.391724
 11
625.148682
 21
-484.337585
  0
LINE
  8
0
 62
     5
 10
625.147827
 20
-470.092651
 11
625.147827
 21
-473.626892
  0
LINE
  8
0
 62
     5
 10
603.028809
 20
-460.747406
 11
603.028809
 21
-465.668823
  0
LINE
  8
0
 62
     5
 10
611.876221
 20
-460.747406
 11
611.876221
 21
-465.668823
  0
LINE
  8
0
 62
     5
 10
611.876221
 20
-465.668823
 11
620.723999
 21
-465.668823
  0
LINE
  8
0
 62
     5
 10
603.028809
 20
-486.759460
 11
603.028809
 21
-498.294342
  0
LINE
  8
0
 62
     5
 10
611.876221
 20
-485.470184
 11
611.876221
 21
-498.294342
  0
LINE
  8
0
 62
     5
 10
616.686707
 20
-480.391937
 11
622.594543
 21
-477.637115
  0
LINE
  8
0
 62
     5
 10
655.008484
 20
-462.738159
 11
661.644043
 21
-462.738159
  0
LINE
  8
0
 62
     5
 10
627.912720
 20
-476.445160
 11
627.912720
 21
-483.586365
  0
LINE
  8
0
 62
     5
 10
661.644043
 20
-462.738159
 11
661.644043
 21
-465.668823
  0
LINE
  8
0
 62
     5
 10
655.008484
 20
-462.738159
 11
655.008484
 21
-464.168060
  0
LINE
  8
0
 62
     5
 10
646.160828
 20
-476.328888
 11
646.160828
 21
-498.294342
  0
LINE
  8
0
 62
     5
 10
627.912903
 20
-476.445496
 11
653.614319
 21
-466.223785
  0
LINE
  8
0
 62
     5
 10
627.912598
 20
-483.586365
 11
646.160706
 21
-476.328796
  0
LINE
  8
0
 62
     5
 10
646.160828
 20
-498.294342
 11
655.008484
 21
-498.294342
  0
LINE
  8
0
 62
     5
 10
655.008484
 20
-472.810120
 11
655.008484
 21
-498.294342
  0
LINE
  8
0
 62
     5
 10
655.009155
 20
-472.810547
 11
657.461609
 21
-471.835114
  0
LINE
  8
0
 62
     5
 10
565.533691
 20
-460.747406
 11
572.403381
 21
-460.747406
  0
LINE
  8
0
 62
     5
 10
583.398193
 20
-460.747406
 11
586.218201
 21
-460.747406
  0
LINE
  8
0
 62
     5
 10
603.028809
 20
-460.747406
 11
611.876221
 21
-460.747406
  0
LINE
  8
0
 62
     5
 10
583.398193
 20
-465.171234
 11
586.218201
 21
-465.171234
  0
LINE
  8
0
 62
     5
 10
583.398193
 20
-460.747406
 11
583.398193
 21
-465.171234
  0
LINE
  8
0
 62
     5
 10
586.218201
 20
-460.747406
 11
586.218201
 21
-465.171234
  0
LINE
  8
0
 62
     5
 10
587.877319
 20
-460.747406
 11
587.877319
 21
-465.171234
  0
LINE
  8
0
 62
     5
 10
591.029297
 20
-460.747406
 11
591.029297
 21
-465.171234
  0
LINE
  8
0
 62
     5
 10
587.877319
 20
-460.747406
 11
591.029297
 21
-460.747406
  0
LINE
  8
0
 62
     5
 10
587.877319
 20
-465.171234
 11
591.029297
 21
-465.171234
  0
LINE
  8
0
 62
     3
 10
436.659546
 20
-451.914154
 11
436.659546
 21
-509.118408
  0
LINE
  8
0
 62
     3
 10
436.659546
 20
-451.914154
 11
741.749207
 21
-451.914154
  0
LINE
  8
0
 62
     3
 10
436.659546
 20
509.118408
 11
436.659546
 21
451.914032
  0
LINE
  8
0
 62
     3
 10
436.659546
 20
451.914032
 11
741.749207
 21
451.914032
  0
LINE
  8
0
 62
     3
 10
-317.483978
 20
451.914032
 11
-317.483978
 21
509.118408
  0
LINE
  8
0
 62
     3
 10
-741.749207
 20
451.914032
 11
-317.483978
 21
451.914032
  0
LINE
  8
0
 10
-741.749207
 20
-0.000061
 11
741.750000
 21
-0.000061
  0
LINE
  8
0
 10
0.000000
 20
509.114990
 11
0.000000
 21
-0.000061
  0
LINE
  8
0
  6
CENTER
 10
-491.750092
 20
127.999901
 11
-491.750092
 21
64.999901
  0
LINE
  8
0
  6
PHANTOM
 10
-561.750122
 20
69.999886
 11
-524.250122
 21
69.999886
  0
LINE
  8
0
  6
CENTER
 10
-566.750122
 20
99.999931
 11
-416.750092
 21
99.999931
  0
LINE
  8
0
  6
PHANTOM
 10
-563.083618
 20
103.699928
 11
-423.083618
 21
103.699928
  0
LINE
  8
0
  6
PHANTOM
 10
-559.446533
 20
94.999931
 11
-419.446564
 21
94.999931
  0
LINE
  8
0
  6
PHANTOM
 10
-558.336975
 20
90.999931
 11
-418.336975
 21
90.999931
  0
LINE
  8
0
  6
PHANTOM
 10
-558.336914
 20
78.999931
 11
-418.336945
 21
78.999931
  0
LINE
  8
0
  6
PHANTOM
 10
-559.628296
 20
74.499931
 11
-524.250122
 21
74.499931
  0
LINE
  8
0
  6
PHANTOM
 10
-563.541992
 20
118.499931
 11
-423.541992
 21
118.499931
  0
LINE
  8
0
  6
PHANTOM
 10
-564.153687
 20
114.458473
 11
-424.153717
 21
114.458473
  0
LINE
  8
0
  6
PHANTOM
 10
-563.986816
 20
107.999931
 11
-423.986786
 21
107.999931
  0
LINE
  8
0
  6
PHANTOM
 10
-561.750122
 20
123.999886
 11
-421.750092
 21
123.999886
  0
LINE
  8
0
  6
CENTER
 10
-566.750183
 20
284.999969
 11
-416.750183
 21
284.999969
  0
LINE
  8
0
  6
CENTER
 10
-491.750183
 20
330.999969
 11
-491.750183
 21
238.999969
  0
LINE
  8
0
  6
PHANTOM
 10
-424.049896
 20
293.499969
 11
-564.049866
 21
293.499969
  0
LINE
  8
0
  6
PHANTOM
 10
-419.450500
 20
276.499969
 11
-559.450500
 21
276.499969
  0
LINE
  8
0
  6
PHANTOM
 10
-239.750046
 20
121.999939
 11
-239.750046
 21
118.499939
  0
LINE
  8
0
  6
PHANTOM
 10
-239.750046
 20
69.999939
 11
-226.750046
 21
69.999939
  0
LINE
  8
0
  6
PHANTOM
 10
-222.131241
 20
73.999939
 11
-201.368851
 21
73.999939
  0
LINE
  8
0
  6
PHANTOM
 10
-237.750046
 20
123.999939
 11
-185.750046
 21
123.999939
  0
LINE
  8
0
  6
PHANTOM
 10
-196.750046
 20
69.999939
 11
-183.750046
 21
69.999939
  0
LINE
  8
0
  6
PHANTOM
 10
-196.750046
 20
69.999939
 11
-197.904739
 21
71.999939
  0
LINE
  8
0
  6
PHANTOM
 10
-226.750046
 20
69.999939
 11
-225.595352
 21
71.999939
  0
LINE
  8
0
  6
PHANTOM
 10
-236.450043
 20
79.799942
 11
-236.450043
 21
76.299942
  0
LINE
  8
0
  6
PHANTOM
 10
-239.750046
 20
89.999939
 11
-239.750046
 21
79.799942
  0
LINE
  8
0
  6
PHANTOM
 10
-238.150055
 20
89.999939
 11
-238.150055
 21
89.369003
  0
LINE
  8
0
  6
PHANTOM
 10
-236.450043
 20
94.799942
 11
-235.433716
 21
94.799942
  0
LINE
  8
0
  6
PHANTOM
 10
-239.750046
 20
107.149696
 11
-239.750046
 21
103.499939
  0
LINE
  8
0
  6
PHANTOM
 10
-239.750046
 20
103.499939
 11
-236.450043
 21
103.499939
  0
LINE
  8
0
  6
PHANTOM
 10
-239.750015
 20
118.499931
 11
-233.398834
 21
114.833076
  0
LINE
  8
0
  6
PHANTOM
 10
-236.450043
 20
103.499939
 11
-236.450043
 21
94.799942
  0
LINE
  8
0
  6
PHANTOM
 10
-233.219803
 20
87.969337
 11
-234.950760
 21
94.429337
  0
LINE
  8
0
  6
PHANTOM
 10
-237.469879
 20
86.830536
 11
-238.150055
 21
89.368996
  0
LINE
  8
0
  6
PHANTOM
 10
-183.750046
 20
121.999939
 11
-183.750046
 21
118.499939
  0
LINE
  8
0
  6
PHANTOM
 10
-187.050049
 20
79.799942
 11
-187.050049
 21
76.299942
  0
LINE
  8
0
  6
PHANTOM
 10
-183.750046
 20
89.999939
 11
-183.750046
 21
79.799942
  0
LINE
  8
0
  6
PHANTOM
 10
-185.350037
 20
89.999939
 11
-185.350037
 21
89.369003
  0
LINE
  8
0
  6
PHANTOM
 10
-187.050049
 20
94.799942
 11
-188.066376
 21
94.799942
  0
LINE
  8
0
  6
PHANTOM
 10
-183.750046
 20
107.149696
 11
-183.750046
 21
103.499939
  0
LINE
  8
0
  6
PHANTOM
 10
-183.750046
 20
103.499939
 11
-187.050049
 21
103.499939
  0
LINE
  8
0
  6
PHANTOM
 10
-183.750061
 20
118.499954
 11
-190.101257
 21
114.833084
  0
LINE
  8
0
  6
PHANTOM
 10
-187.050049
 20
103.499939
 11
-187.050049
 21
94.799942
  0
LINE
  8
0
  6
PHANTOM
 10
-190.280258
 20
87.969322
 11
-188.549301
 21
94.429329
  0
LINE
  8
0
  6
PHANTOM
 10
-186.030243
 20
86.830544
 11
-185.350052
 21
89.369003
  0
LINE
  8
0
  6
CENTER
 10
-211.750046
 20
131.999939
 11
-211.750046
 21
67.999939
  0
LINE
  8
0
  6
PHANTOM
 10
-459.250092
 20
69.999886
 11
-421.750092
 21
69.999886
  0
LINE
  8
0
  6
PHANTOM
 10
-459.250092
 20
74.499931
 11
-419.628326
 21
74.499931
  0
LINE
  8
0
  6
PHANTOM
 10
-563.868469
 20
256.999969
 11
-423.868469
 21
256.999969
  0
LINE
  8
0
  6
PHANTOM
 10
-559.631897
 20
312.999969
 11
-419.631927
 21
312.999969
  0
LINE
  8
0
  6
CENTER
 10
-244.750046
 20
99.999939
 11
-178.750046
 21
99.999939
  0
LINE
  8
0
  6
CENTER
 10
230.000000
 20
132.999908
 11
230.000000
 21
59.999916
  0
LINE
  8
0
  6
CENTER
 10
155.000000
 20
99.999931
 11
305.000000
 21
99.999931
  0
LINE
  8
0
  6
PHANTOM
 10
160.000000
 20
67.999931
 11
192.500000
 21
67.999931
  0
LINE
  8
0
  6
PHANTOM
 10
160.000000
 20
127.999931
 11
300.000061
 21
127.999931
  0
LINE
  8
0
  6
PHANTOM
 10
158.818848
 20
103.699974
 11
298.818909
 21
103.699974
  0
LINE
  8
0
  6
PHANTOM
 10
161.797150
 20
94.999977
 11
301.797119
 21
94.999977
  0
LINE
  8
0
  6
PHANTOM
 10
162.722107
 20
90.999977
 11
302.722107
 21
90.999977
  0
LINE
  8
0
  6
PHANTOM
 10
163.025665
 20
78.999977
 11
303.025635
 21
78.999977
  0
LINE
  8
0
  6
PHANTOM
 10
162.044647
 20
73.905281
 11
192.500000
 21
73.905281
  0
LINE
  8
0
  6
PHANTOM
 10
158.087280
 20
120.999977
 11
298.087280
 21
120.999977
  0
LINE
  8
0
  6
PHANTOM
 10
157.520020
 20
115.999962
 11
297.520081
 21
115.999962
  0
LINE
  8
0
  6
PHANTOM
 10
157.701782
 20
109.699989
 11
297.701843
 21
109.699989
  0
LINE
  8
0
  6
CENTER
 10
155.000000
 20
284.999969
 11
305.000031
 21
284.999969
  0
LINE
  8
0
  6
CENTER
 10
230.000000
 20
337.999969
 11
230.000000
 21
231.999969
  0
LINE
  8
0
  6
PHANTOM
 10
302.722137
 20
275.999969
 11
162.722137
 21
275.999969
  0
LINE
  8
0
  6
PHANTOM
 10
297.277863
 20
293.999969
 11
157.277863
 21
293.999969
  0
LINE
  8
0
  6
PHANTOM
 10
160.000000
 20
316.999969
 11
300.000031
 21
316.999969
  0
LINE
  8
0
  6
PHANTOM
 10
160.000000
 20
252.999969
 11
299.999969
 21
252.999969
  0
LINE
  8
0
  6
PHANTOM
 10
508.000000
 20
125.999931
 11
508.000000
 21
120.999931
  0
LINE
  8
0
  6
PHANTOM
 10
510.000000
 20
127.999931
 11
570.000000
 21
127.999931
  0
LINE
  8
0
  6
PHANTOM
 10
508.000000
 20
89.999939
 11
508.000000
 21
79.799927
  0
LINE
  8
0
  6
PHANTOM
 10
509.600006
 20
89.999939
 11
509.600006
 21
89.368996
  0
LINE
  8
0
  6
PHANTOM
 10
511.299988
 20
94.799934
 11
512.316345
 21
94.799934
  0
LINE
  8
0
  6
PHANTOM
 10
508.000000
 20
108.758621
 11
508.000000
 21
103.499931
  0
LINE
  8
0
  6
PHANTOM
 10
508.000000
 20
103.499931
 11
511.299988
 21
103.499931
  0
LINE
  8
0
  6
PHANTOM
 10
511.299988
 20
103.499931
 11
511.299988
 21
94.799934
  0
LINE
  8
0
  6
PHANTOM
 10
514.530273
 20
87.969315
 11
512.799316
 21
94.429321
  0
LINE
  8
0
  6
PHANTOM
 10
510.280273
 20
86.830513
 11
509.600067
 21
89.368980
  0
LINE
  8
0
  6
PHANTOM
 10
572.000000
 20
125.999931
 11
572.000000
 21
120.999931
  0
LINE
  8
0
  6
PHANTOM
 10
572.000000
 20
89.999939
 11
572.000000
 21
79.799927
  0
LINE
  8
0
  6
PHANTOM
 10
570.400024
 20
89.999939
 11
570.400024
 21
89.368996
  0
LINE
  8
0
  6
PHANTOM
 10
568.700012
 20
94.799934
 11
567.683655
 21
94.799934
  0
LINE
  8
0
  6
PHANTOM
 10
572.000000
 20
108.758621
 11
572.000000
 21
103.499931
  0
LINE
  8
0
  6
PHANTOM
 10
572.000000
 20
103.499931
 11
568.700012
 21
103.499931
  0
LINE
  8
0
  6
PHANTOM
 10
568.700012
 20
103.499931
 11
568.700012
 21
94.799934
  0
LINE
  8
0
  6
PHANTOM
 10
565.469666
 20
87.969337
 11
567.200623
 21
94.429337
  0
LINE
  8
0
  6
PHANTOM
 10
569.719910
 20
86.830505
 11
570.400085
 21
89.368965
  0
LINE
  8
0
  6
PHANTOM
 10
508.000000
 20
67.999931
 11
522.000000
 21
67.999931
  0
LINE
  8
0
  6
PHANTOM
 10
507.999969
 20
120.999916
 11
515.780212
 21
116.423309
  0
LINE
  8
0
  6
PHANTOM
 10
571.999878
 20
120.999985
 11
564.219604
 21
116.423340
  0
LINE
  8
0
  6
PHANTOM
 10
558.000000
 20
67.999931
 11
572.000000
 21
67.999931
  0
LINE
  8
0
  6
PHANTOM
 10
524.828430
 20
69.999931
 11
555.171570
 21
69.999931
  0
LINE
  8
0
  6
CENTER
 10
503.000000
 20
99.999931
 11
577.000000
 21
99.999931
  0
LINE
  8
0
  6
CENTER
 10
540.000000
 20
134.999939
 11
540.000000
 21
64.999931
  0
LINE
  8
0
  6
CENTER
 10
-211.750000
 20
-334.114990
 11
-211.750000
 21
-419.114990
  0
LINE
  8
0
  6
CENTER
 10
-301.750000
 20
-374.114990
 11
-121.750000
 21
-374.114990
  0
LINE
  8
0
  6
PHANTOM
 10
-291.750000
 20
-414.114990
 11
-249.250000
 21
-414.114990
  0
LINE
  8
0
  6
PHANTOM
 10
-291.750000
 20
-339.114990
 11
-131.749939
 21
-339.114990
  0
LINE
  8
0
  6
PHANTOM
 10
-292.912506
 20
-370.614960
 11
-132.912476
 21
-370.614960
  0
LINE
  8
0
  6
PHANTOM
 10
-289.816345
 20
-379.314941
 11
-129.816345
 21
-379.314941
  0
LINE
  8
0
  6
PHANTOM
 10
-288.756073
 20
-383.314941
 11
-128.756104
 21
-383.314941
  0
LINE
  8
0
  6
PHANTOM
 10
-288.392395
 20
-403.114960
 11
-128.392395
 21
-403.114960
  0
LINE
  8
0
  6
PHANTOM
 10
-289.603455
 20
-408.209656
 11
-249.250000
 21
-408.209656
  0
LINE
  8
0
  6
PHANTOM
 10
-294.184692
 20
-348.114960
 11
-134.184692
 21
-348.114960
  0
LINE
  8
0
  6
PHANTOM
 10
-294.849976
 20
-354.114929
 11
-134.849915
 21
-354.114929
  0
LINE
  8
0
  6
PHANTOM
 10
-294.609100
 20
-362.114929
 11
-134.609070
 21
-362.114929
  0
LINE
  8
0
  6
PHANTOM
 10
-293.797577
 20
-367.114960
 11
-133.797546
 21
-367.114960
  0
LINE
  8
0
  6
CENTER
 10
-301.750000
 20
-159.114960
 11
-121.750000
 21
-159.114960
  0
LINE
  8
0
  6
CENTER
 10
-211.750000
 20
-99.114960
 11
-211.750000
 21
-219.114960
  0
LINE
  8
0
  6
PHANTOM
 10
-294.484253
 20
-150.614960
 11
-134.484253
 21
-150.614960
  0
LINE
  8
0
  6
PHANTOM
 10
-289.015747
 20
-167.614960
 11
-129.015747
 21
-167.614960
  0
LINE
  8
0
  6
PHANTOM
 10
-291.750000
 20
-120.114960
 11
-131.750000
 21
-120.114960
  0
LINE
  8
0
  6
PHANTOM
 10
-291.750000
 20
-198.114960
 11
-131.750000
 21
-198.114960
  0
LINE
  8
0
  6
PHANTOM
 10
119.250000
 20
-341.114990
 11
119.250000
 21
-348.114990
  0
LINE
  8
0
  6
PHANTOM
 10
121.250000
 20
-339.114990
 11
195.250000
 21
-339.114990
  0
LINE
  8
0
  6
PHANTOM
 10
120.250000
 20
-384.114990
 11
120.250000
 21
-402.315002
  0
LINE
  8
0
  6
PHANTOM
 10
121.850006
 20
-384.114990
 11
121.850006
 21
-384.745941
  0
LINE
  8
0
  6
PHANTOM
 10
123.550003
 20
-379.315002
 11
124.566345
 21
-379.315002
  0
LINE
  8
0
  6
PHANTOM
 10
120.250000
 20
-367.114990
 11
120.250000
 21
-370.614990
  0
LINE
  8
0
  6
PHANTOM
 10
120.250000
 20
-370.614990
 11
123.550003
 21
-370.614990
  0
LINE
  8
0
  6
PHANTOM
 10
123.550003
 20
-370.614990
 11
123.550003
 21
-379.315002
  0
LINE
  8
0
  6
PHANTOM
 10
126.780235
 20
-386.145599
 11
125.049278
 21
-379.685608
  0
LINE
  8
0
  6
PHANTOM
 10
122.530174
 20
-387.284424
 11
121.849991
 21
-384.745941
  0
LINE
  8
0
  6
PHANTOM
 10
197.250000
 20
-341.114990
 11
197.250000
 21
-348.114990
  0
LINE
  8
0
  6
PHANTOM
 10
196.250000
 20
-384.114990
 11
196.250000
 21
-402.315002
  0
LINE
  8
0
  6
PHANTOM
 10
194.649994
 20
-384.114990
 11
194.649994
 21
-384.745941
  0
LINE
  8
0
  6
PHANTOM
 10
192.949997
 20
-379.315002
 11
191.933655
 21
-379.315002
  0
LINE
  8
0
  6
PHANTOM
 10
196.250000
 20
-367.114990
 11
196.250000
 21
-370.614990
  0
LINE
  8
0
  6
PHANTOM
 10
196.250000
 20
-370.614990
 11
192.949997
 21
-370.614990
  0
LINE
  8
0
  6
PHANTOM
 10
192.949997
 20
-370.614990
 11
192.949997
 21
-379.315002
  0
LINE
  8
0
  6
PHANTOM
 10
189.719620
 20
-386.145569
 11
191.450577
 21
-379.685547
  0
LINE
  8
0
  6
PHANTOM
 10
193.969879
 20
-387.284424
 11
194.650055
 21
-384.745972
  0
LINE
  8
0
  6
PHANTOM
 10
119.250000
 20
-414.114990
 11
138.250000
 21
-414.114990
  0
LINE
  8
0
  6
PHANTOM
 10
178.250000
 20
-414.114990
 11
197.250000
 21
-414.114990
  0
LINE
  8
0
  6
PHANTOM
 10
141.250000
 20
-411.114990
 11
175.250000
 21
-411.114990
  0
LINE
  8
0
  6
PHANTOM
 10
119.250000
 20
-367.114990
 11
120.250000
 21
-367.114990
  0
LINE
  8
0
  6
PHANTOM
 10
196.250000
 20
-367.114990
 11
197.250000
 21
-367.114990
  0
LINE
  8
0
  6
PHANTOM
 10
119.250000
 20
-363.066315
 11
119.250000
 21
-367.114990
  0
LINE
  8
0
  6
PHANTOM
 10
197.250000
 20
-363.066315
 11
197.250000
 21
-367.114990
  0
LINE
  8
0
  6
PHANTOM
 10
119.250008
 20
-348.114990
 11
129.043793
 21
-353.711456
  0
LINE
  8
0
  6
PHANTOM
 10
197.250031
 20
-348.115082
 11
187.456238
 21
-353.711517
  0
LINE
  8
0
  6
CENTER
 10
114.250000
 20
-374.114990
 11
202.250000
 21
-374.114990
  0
LINE
  8
0
  6
CENTER
 10
158.250000
 20
-331.614990
 11
158.250000
 21
-416.614990
  0
LINE
  8
0
  6
PHANTOM
 10
267.500000
 20
67.999931
 11
300.000000
 21
67.999931
  0
LINE
  8
0
  6
PHANTOM
 10
267.500000
 20
73.905281
 11
302.044678
 21
73.905281
  0
LINE
  8
0
  6
PHANTOM
 10
-174.250000
 20
-408.209656
 11
-129.603455
 21
-408.209656
  0
LINE
  8
0
  6
PHANTOM
 10
-174.250000
 20
-414.114990
 11
-131.750000
 21
-414.114990
  0
LINE
  8
0
 10
-459.250122
 20
77.999901
 11
-459.250122
 21
69.999847
  0
LINE
  8
0
 10
-524.250122
 20
69.999847
 11
-459.250122
 21
69.999847
  0
LINE
  8
0
 10
-524.250122
 20
77.999901
 11
-459.250122
 21
77.999901
  0
LINE
  8
0
 10
-524.250122
 20
77.999901
 11
-524.250122
 21
69.999847
  0
LINE
  8
0
  6
CENTER
 10
-514.250122
 20
82.999901
 11
-514.250122
 21
64.999863
  0
LINE
  8
0
  6
DASHED
 10
-517.550171
 20
77.999901
 11
-517.550171
 21
69.999847
  0
LINE
  8
0
  6
DASHED
 10
-510.950195
 20
77.999901
 11
-510.950195
 21
69.999847
  0
LINE
  8
0
  6
DASHED
 10
-472.550079
 20
77.999901
 11
-472.550079
 21
69.999847
  0
LINE
  8
0
  6
CENTER
 10
-469.250122
 20
82.999901
 11
-469.250122
 21
64.999863
  0
LINE
  8
0
  6
DASHED
 10
-465.950104
 20
77.999901
 11
-465.950104
 21
69.999847
  0
LINE
  8
0
 10
-524.250122
 20
244.000000
 11
-459.250122
 21
244.000000
  0
LINE
  8
0
 10
-459.250122
 20
310.000000
 11
-459.250122
 21
326.000000
  0
LINE
  8
0
 10
-524.250122
 20
310.000000
 11
-459.250122
 21
310.000000
  0
LINE
  8
0
 10
-459.250122
 20
260.000000
 11
-459.250122
 21
244.000000
  0
LINE
  8
0
 10
-524.250122
 20
260.000000
 11
-524.250122
 21
244.000000
  0
LINE
  8
0
 10
-524.250122
 20
260.000000
 11
-459.250122
 21
260.000000
  0
LINE
  8
0
 10
-524.250122
 20
310.000000
 11
-524.250122
 21
326.000000
  0
LINE
  8
0
 10
-524.250122
 20
326.000000
 11
-459.250122
 21
326.000000
  0
LINE
  8
0
  6
CENTER
 10
-521.250122
 20
250.000000
 11
-507.250122
 21
250.000000
  0
LINE
  8
0
  6
CENTER
 10
-514.250122
 20
257.000000
 11
-514.250122
 21
243.000000
  0
LINE
  8
0
  6
CENTER
 10
-476.250122
 20
250.000000
 11
-462.250122
 21
250.000000
  0
LINE
  8
0
  6
CENTER
 10
-469.250122
 20
257.000000
 11
-469.250122
 21
243.000000
  0
LINE
  8
0
  6
CENTER
 10
-469.250122
 20
313.000000
 11
-469.250122
 21
327.000000
  0
LINE
  8
0
  6
CENTER
 10
-476.250122
 20
320.000000
 11
-462.250122
 21
320.000000
  0
LINE
  8
0
  6
CENTER
 10
-521.250122
 20
320.000000
 11
-507.250122
 21
320.000000
  0
LINE
  8
0
  6
CENTER
 10
-514.250122
 20
313.000000
 11
-514.250122
 21
327.000000
  0
LINE
  8
0
 10
-226.749954
 20
69.999931
 11
-226.749954
 21
69.999931
  0
LINE
  8
0
 10
-236.750000
 20
76.999954
 11
-236.750000
 21
73.699951
  0
LINE
  8
0
 10
-236.449997
 20
79.799957
 11
-236.449997
 21
79.799957
  0
LINE
  8
0
 10
-239.749969
 20
74.228935
 11
-236.749969
 21
73.699951
  0
LINE
  8
0
 10
-252.750000
 20
76.999954
 11
-252.750000
 21
69.999954
  0
LINE
  8
0
 10
-183.750000
 20
74.228935
 11
-183.750000
 21
69.999954
  0
LINE
  8
0
 10
-186.750000
 20
76.999954
 11
-186.750000
 21
73.699951
  0
LINE
  8
0
 10
-183.750000
 20
74.228943
 11
-186.750000
 21
73.699959
  0
LINE
  8
0
 10
-187.050003
 20
79.799957
 11
-187.050003
 21
79.799957
  0
LINE
  8
0
 10
-237.750000
 20
77.999954
 11
-251.750000
 21
77.999954
  0
LINE
  8
0
 10
-239.750000
 20
69.999954
 11
-252.750000
 21
69.999954
  0
LINE
  8
0
 10
-239.750000
 20
74.228935
 11
-239.750000
 21
69.999954
  0
LINE
  8
0
 10
-170.750000
 20
76.999954
 11
-170.750000
 21
69.999954
  0
LINE
  8
0
 10
-185.750000
 20
77.999954
 11
-171.750000
 21
77.999954
  0
LINE
  8
0
 10
-183.750000
 20
69.999954
 11
-170.750000
 21
69.999954
  0
LINE
  8
0
  6
CENTER
 10
-246.750000
 20
82.999954
 11
-246.750000
 21
64.999954
  0
LINE
  8
0
  6
DASHED
 10
-250.050003
 20
77.999954
 11
-250.050003
 21
69.999954
  0
LINE
  8
0
  6
DASHED
 10
-243.449997
 20
77.999954
 11
-243.449997
 21
69.999954
  0
LINE
  8
0
  6
DASHED
 10
-180.050003
 20
77.999954
 11
-180.050003
 21
69.999954
  0
LINE
  8
0
  6
CENTER
 10
-176.750000
 20
82.999954
 11
-176.750000
 21
64.999954
  0
LINE
  8
0
  6
DASHED
 10
-173.449997
 20
77.999954
 11
-173.449997
 21
69.999954
  0
LINE
  8
0
 10
192.500092
 20
77.999985
 11
267.500092
 21
77.999985
  0
LINE
  8
0
 10
192.500092
 20
67.999977
 11
267.500092
 21
67.999977
  0
LINE
  8
0
 10
267.500092
 20
77.999985
 11
267.500092
 21
67.999977
  0
LINE
  8
0
 10
192.500092
 20
77.999985
 11
192.500092
 21
67.999977
  0
LINE
  8
0
  6
DASHED
 10
198.000092
 20
77.999985
 11
198.000092
 21
67.999977
  0
LINE
  8
0
  6
CENTER
 10
202.500092
 20
82.999985
 11
202.500092
 21
62.999977
  0
LINE
  8
0
  6
DASHED
 10
207.000092
 20
77.999985
 11
207.000092
 21
67.999977
  0
LINE
  8
0
  6
DASHED
 10
253.000092
 20
77.999985
 11
253.000092
 21
67.999977
  0
LINE
  8
0
  6
CENTER
 10
257.500092
 20
82.999985
 11
257.500092
 21
62.999977
  0
LINE
  8
0
  6
DASHED
 10
262.000092
 20
77.999985
 11
262.000092
 21
67.999977
  0
LINE
  8
0
  6
CENTER
 10
194.999863
 20
324.999847
 11
209.999863
 21
324.999847
  0
LINE
  8
0
 10
192.499863
 20
312.999847
 11
192.499863
 21
332.999847
  0
LINE
  8
0
 10
267.499878
 20
312.999847
 11
267.499878
 21
332.999847
  0
LINE
  8
0
 10
192.499863
 20
256.999847
 11
267.499878
 21
256.999847
  0
LINE
  8
0
 10
192.499863
 20
256.999847
 11
192.499863
 21
236.999847
  0
LINE
  8
0
 10
192.499863
 20
332.999847
 11
267.499878
 21
332.999847
  0
LINE
  8
0
 10
267.499878
 20
256.999847
 11
267.499878
 21
236.999847
  0
LINE
  8
0
 10
192.499863
 20
236.999847
 11
267.499878
 21
236.999847
  0
LINE
  8
0
 10
192.499863
 20
312.999847
 11
267.499878
 21
312.999847
  0
LINE
  8
0
  6
CENTER
 10
194.999863
 20
244.999847
 11
209.999863
 21
244.999847
  0
LINE
  8
0
  6
CENTER
 10
202.499863
 20
252.499847
 11
202.499863
 21
237.499847
  0
LINE
  8
0
  6
CENTER
 10
249.999863
 20
244.999847
 11
264.999878
 21
244.999847
  0
LINE
  8
0
  6
CENTER
 10
257.499878
 20
252.499847
 11
257.499878
 21
237.499847
  0
LINE
  8
0
  6
CENTER
 10
249.999863
 20
324.999847
 11
264.999878
 21
324.999847
  0
LINE
  8
0
  6
CENTER
 10
257.499878
 20
317.499847
 11
257.499878
 21
332.499847
  0
LINE
  8
0
  6
CENTER
 10
202.499863
 20
317.499847
 11
202.499863
 21
332.499847
  0
LINE
  8
0
 10
509.600311
 20
79.800049
 11
509.600311
 21
79.800049
  0
LINE
  8
0
 10
568.000305
 20
76.500061
 11
568.000305
 21
73.200058
  0
LINE
  8
0
 10
570.400330
 20
79.800049
 11
570.400330
 21
79.800049
  0
LINE
  8
0
 10
572.000305
 20
73.905365
 11
572.000305
 21
68.000053
  0
LINE
  8
0
 10
568.000305
 20
73.200058
 11
572.000305
 21
73.905365
  0
LINE
  8
0
  6
CENTER
 10
500.000305
 20
83.000061
 11
500.000305
 21
63.000061
  0
LINE
  8
0
 10
510.500305
 20
78.000061
 11
493.500305
 21
78.000061
  0
LINE
  8
0
 10
569.500305
 20
78.000061
 11
586.500305
 21
78.000061
  0
LINE
  8
0
 10
572.000305
 20
68.000061
 11
588.000305
 21
68.000061
  0
LINE
  8
0
 10
588.000305
 20
76.500061
 11
588.000305
 21
68.000061
  0
LINE
  8
0
 10
508.000305
 20
68.000061
 11
492.000305
 21
68.000061
  0
LINE
  8
0
 10
512.000305
 20
73.200089
 11
508.000305
 21
73.905403
  0
LINE
  8
0
 10
492.000305
 20
76.500061
 11
492.000305
 21
68.000061
  0
LINE
  8
0
 10
512.000305
 20
76.500061
 11
512.000305
 21
73.200058
  0
LINE
  8
0
  6
DASHED
 10
495.500305
 20
78.000061
 11
495.500305
 21
68.000061
  0
LINE
  8
0
 10
508.000305
 20
73.905365
 11
508.000305
 21
68.000053
  0
LINE
  8
0
  6
DASHED
 10
504.500305
 20
78.000061
 11
504.500305
 21
68.000061
  0
LINE
  8
0
  6
DASHED
 10
575.500305
 20
78.000061
 11
575.500305
 21
68.000061
  0
LINE
  8
0
  6
CENTER
 10
580.000305
 20
83.000061
 11
580.000305
 21
63.000061
  0
LINE
  8
0
  6
DASHED
 10
584.500305
 20
78.000061
 11
584.500305
 21
68.000061
  0
LINE
  8
0
 10
-249.250000
 20
-404.114990
 11
-174.250000
 21
-404.114990
  0
LINE
  8
0
 10
-249.250000
 20
-414.114990
 11
-174.250000
 21
-414.114990
  0
LINE
  8
0
 10
-174.250000
 20
-404.114990
 11
-174.250000
 21
-414.114990
  0
LINE
  8
0
 10
-249.250000
 20
-404.114990
 11
-249.250000
 21
-414.114990
  0
LINE
  8
0
  6
DASHED
 10
-243.750000
 20
-404.114990
 11
-243.750000
 21
-414.114990
  0
LINE
  8
0
  6
CENTER
 10
-239.250000
 20
-399.114990
 11
-239.250000
 21
-419.114990
  0
LINE
  8
0
  6
DASHED
 10
-234.750000
 20
-404.114990
 11
-234.750000
 21
-414.114990
  0
LINE
  8
0
  6
DASHED
 10
-188.750000
 20
-404.114990
 11
-188.750000
 21
-414.114990
  0
LINE
  8
0
  6
CENTER
 10
-184.250000
 20
-399.114990
 11
-184.250000
 21
-419.114990
  0
LINE
  8
0
  6
DASHED
 10
-179.750000
 20
-404.114990
 11
-179.750000
 21
-414.114990
  0
LINE
  8
0
 10
-249.250000
 20
-194.114960
 11
-174.250000
 21
-194.114960
  0
LINE
  8
0
 10
-249.250000
 20
-194.114960
 11
-249.250000
 21
-214.114960
  0
LINE
  8
0
 10
-249.250000
 20
-104.114960
 11
-174.250000
 21
-104.114960
  0
LINE
  8
0
 10
-174.250000
 20
-194.114960
 11
-174.250000
 21
-214.114960
  0
LINE
  8
0
 10
-249.250000
 20
-214.114960
 11
-174.250000
 21
-214.114960
  0
LINE
  8
0
 10
-174.250000
 20
-124.114960
 11
-174.250000
 21
-104.114960
  0
LINE
  8
0
 10
-249.250000
 20
-124.114960
 11
-174.250000
 21
-124.114960
  0
LINE
  8
0
 10
-249.250000
 20
-124.114960
 11
-249.250000
 21
-104.114960
  0
LINE
  8
0
  6
CENTER
 10
-246.750000
 20
-206.114960
 11
-231.750000
 21
-206.114960
  0
LINE
  8
0
  6
CENTER
 10
-239.250000
 20
-198.614960
 11
-239.250000
 21
-213.614960
  0
LINE
  8
0
  6
CENTER
 10
-184.250000
 20
-198.614960
 11
-184.250000
 21
-213.614960
  0
LINE
  8
0
  6
CENTER
 10
-191.750000
 20
-206.114960
 11
-176.750000
 21
-206.114960
  0
LINE
  8
0
  6
CENTER
 10
-191.750000
 20
-112.114960
 11
-176.750000
 21
-112.114960
  0
LINE
  8
0
  6
CENTER
 10
-184.250000
 20
-119.614960
 11
-184.250000
 21
-104.614960
  0
LINE
  8
0
  6
CENTER
 10
-246.750000
 20
-112.114960
 11
-231.750000
 21
-112.114960
  0
LINE
  8
0
  6
CENTER
 10
-239.250000
 20
-119.614960
 11
-239.250000
 21
-104.614960
  0
LINE
  8
0
 10
103.250015
 20
-405.615021
 11
103.250015
 21
-414.115021
  0
LINE
  8
0
 10
123.250015
 20
-405.615021
 11
123.250015
 21
-408.915009
  0
LINE
  8
0
 10
119.250015
 20
-408.209717
 11
119.250015
 21
-414.115021
  0
LINE
  8
0
 10
123.249985
 20
-408.915070
 11
119.249992
 21
-408.209747
  0
LINE
  8
0
 10
121.750015
 20
-404.115021
 11
104.750015
 21
-404.115021
  0
LINE
  8
0
 10
119.250015
 20
-414.115021
 11
103.250015
 21
-414.115021
  0
LINE
  8
0
 10
213.250015
 20
-405.615021
 11
213.250015
 21
-414.115021
  0
LINE
  8
0
 10
193.250015
 20
-405.615021
 11
193.250015
 21
-408.915009
  0
LINE
  8
0
 10
197.250015
 20
-408.209717
 11
197.250015
 21
-414.115021
  0
LINE
  8
0
  6
DASHED
 10
115.750015
 20
-404.115021
 11
115.750015
 21
-414.115021
  0
LINE
  8
0
 10
194.750015
 20
-404.115021
 11
211.750015
 21
-404.115021
  0
LINE
  8
0
 10
197.250015
 20
-414.115021
 11
213.250015
 21
-414.115021
  0
LINE
  8
0
  6
DASHED
 10
106.750015
 20
-404.115021
 11
106.750015
 21
-414.115021
  0
LINE
  8
0
  6
CENTER
 10
111.250015
 20
-399.115021
 11
111.250015
 21
-419.115021
  0
LINE
  8
0
 10
193.250031
 20
-408.915131
 11
197.250031
 21
-408.209808
  0
LINE
  8
0
  6
DASHED
 10
200.750015
 20
-404.115021
 11
200.750015
 21
-414.115021
  0
LINE
  8
0
  6
CENTER
 10
205.250015
 20
-399.115021
 11
205.250015
 21
-419.115021
  0
LINE
  8
0
  6
DASHED
 10
209.750015
 20
-404.115021
 11
209.750015
 21
-414.115021
  0
ARC
  8
0
 62
     5
 10
655.008484
 20
-465.668823
 40
6.635708
 50
291.688293
 51
0.000000
  0
ARC
  8
0
 62
     5
 10
652.796448
 20
-464.168060
 40
2.211920
 50
291.688660
 51
0.000000
  0
ARC
  8
0
 62
     5
 10
546.072388
 20
-470.092651
 40
4.423828
 50
0.000000
 51
90.000000
  0
ARC
  8
0
 62
     5
 10
582.568787
 20
-493.870697
 40
4.423798
 50
270.000000
 51
0.000000
  0
ARC
  8
0
 62
     5
 10
580.356750
 20
-472.304474
 40
6.635681
 50
0.000000
 51
90.000000
  0
ARC
  8
0
 62
     5
 10
620.723999
 20
-470.092651
 40
4.423828
 50
0.000000
 51
90.000000
  0
ARC
  8
0
 62
     5
 10
620.723999
 20
-473.626892
 40
4.423808
 50
294.999786
 51
0.000000
  0
ARC
  8
0
  6
PHANTOM
 10
-534.254639
 20
111.999908
 40
30.000017
 50
156.421890
 51
203.578094
  0
ARC
  8
0
  6
PHANTOM
 10
-587.730835
 20
84.999908
 40
30.000021
 50
329.999969
 51
30.000027
  0
ARC
  8
0
  6
PHANTOM
 10
-447.730835
 20
84.999908
 40
29.999996
 50
329.999939
 51
30.000055
  0
ARC
  8
0
  6
PHANTOM
 10
-394.254639
 20
111.999908
 40
29.999990
 50
156.421860
 51
203.578094
  0
ARC
  8
0
  6
PHANTOM
 10
-394.254761
 20
296.999969
 40
29.999994
 50
147.769104
 51
203.578125
  0
ARC
  8
0
  6
PHANTOM
 10
-449.245636
 20
272.999969
 40
30.000010
 50
327.769073
 51
23.578180
  0
ARC
  8
0
  6
PHANTOM
 10
-589.245605
 20
272.999969
 40
29.999985
 50
327.769043
 51
23.578156
  0
ARC
  8
0
  6
PHANTOM
 10
-534.254761
 20
296.999969
 40
29.999985
 50
147.769028
 51
203.578110
  0
ARC
  8
0
  6
PHANTOM
 10
-222.131241
 20
69.999939
 40
4.000000
 50
90.000000
 51
149.999954
  0
ARC
  8
0
  6
PHANTOM
 10
-201.368851
 20
69.999939
 40
3.999995
 50
30.000040
 51
90.000000
  0
ARC
  8
0
  6
PHANTOM
 10
-238.950043
 20
79.799942
 40
0.800003
 50
180.000000
 51
0.000000
  0
ARC
  8
0
  6
PHANTOM
 10
-237.300049
 20
79.799942
 40
0.850006
 50
0.000000
 51
180.000000
  0
ARC
  8
0
  6
PHANTOM
 10
-236.750046
 20
76.299942
 40
0.300003
 50
270.000000
 51
0.000000
  0
ARC
  8
0
  6
PHANTOM
 10
-238.950043
 20
89.999939
 40
0.800003
 50
0.000000
 51
180.000000
  0
ARC
  8
0
  6
PHANTOM
 10
-237.750046
 20
121.999939
 40
2.000000
 50
90.000000
 51
180.000000
  0
ARC
  8
0
  6
PHANTOM
 10
-240.632034
 20
115.978577
 40
8.027240
 50
282.033325
 51
343.366577
  0
ARC
  8
0
  6
PHANTOM
 10
-235.344833
 20
87.399940
 40
2.199995
 50
195.000107
 51
15.000111
  0
ARC
  8
0
  6
PHANTOM
 10
-235.433716
 20
94.299942
 40
0.499993
 50
15.000237
 51
90.000000
  0
ARC
  8
0
  6
PHANTOM
 10
-238.750046
 20
107.149696
 40
1.000001
 50
102.033333
 51
180.000000
  0
ARC
  8
0
  6
PHANTOM
 10
-233.898849
 20
113.967049
 40
1.000004
 50
343.366669
 51
60.000069
  0
ARC
  8
0
  6
PHANTOM
 10
-184.750046
 20
107.149696
 40
1.000000
 50
0.000000
 51
77.966667
  0
ARC
  8
0
  6
PHANTOM
 10
-189.601242
 20
113.967049
 40
1.000002
 50
119.999931
 51
196.633347
  0
ARC
  8
0
  6
PHANTOM
 10
-188.066376
 20
94.299942
 40
0.500000
 50
90.000000
 51
164.999756
  0
ARC
  8
0
  6
PHANTOM
 10
-184.550049
 20
79.799942
 40
0.800003
 50
180.000000
 51
0.000000
  0
ARC
  8
0
  6
PHANTOM
 10
-186.200043
 20
79.799942
 40
0.850006
 50
0.000000
 51
180.000000
  0
ARC
  8
0
  6
PHANTOM
 10
-186.750046
 20
76.299942
 40
0.300003
 50
180.000000
 51
270.000000
  0
ARC
  8
0
  6
PHANTOM
 10
-184.550049
 20
89.999939
 40
0.800003
 50
0.000000
 51
180.000000
  0
ARC
  8
0
  6
PHANTOM
 10
-185.750046
 20
121.999939
 40
2.000000
 50
0.000000
 51
90.000000
  0
ARC
  8
0
  6
PHANTOM
 10
-182.868057
 20
115.978577
 40
8.027237
 50
196.633362
 51
257.966675
  0
ARC
  8
0
  6
PHANTOM
 10
-188.155258
 20
87.399940
 40
2.199995
 50
164.999893
 51
344.999878
  0
ARC
  8
0
  6
PHANTOM
 10
337.470032
 20
113.999931
 40
40.000004
 50
159.512726
 51
200.487274
  0
ARC
  8
0
  6
PHANTOM
 10
263.339386
 20
83.999931
 40
40.000008
 50
336.421814
 51
23.578173
  0
ARC
  8
0
  6
PHANTOM
 10
123.339386
 20
83.999931
 40
40.000008
 50
336.421814
 51
23.578173
  0
ARC
  8
0
  6
PHANTOM
 10
197.470001
 20
113.999931
 40
40.000004
 50
159.512726
 51
200.487274
  0
ARC
  8
0
  6
PHANTOM
 10
336.660614
 20
300.999969
 40
39.999996
 50
156.421860
 51
203.578140
  0
ARC
  8
0
  6
PHANTOM
 10
263.339386
 20
268.999969
 40
40.000008
 50
336.421814
 51
23.578173
  0
ARC
  8
0
  6
PHANTOM
 10
196.660614
 20
300.999969
 40
39.999996
 50
156.421860
 51
203.578140
  0
ARC
  8
0
  6
PHANTOM
 10
123.339386
 20
268.999969
 40
40.000008
 50
336.421814
 51
23.578173
  0
ARC
  8
0
  6
PHANTOM
 10
508.799988
 20
79.799927
 40
0.799988
 50
180.000000
 51
0.000000
  0
ARC
  8
0
  6
PHANTOM
 10
508.799988
 20
89.999939
 40
0.799988
 50
0.000000
 51
180.000000
  0
ARC
  8
0
  6
PHANTOM
 10
510.000000
 20
125.999931
 40
2.000000
 50
90.000000
 51
180.000000
  0
ARC
  8
0
  6
PHANTOM
 10
512.405212
 20
87.399933
 40
2.199995
 50
195.000107
 51
14.999905
  0
ARC
  8
0
  6
PHANTOM
 10
512.316345
 20
94.299934
 40
0.500008
 50
14.999784
 51
90.000000
  0
ARC
  8
0
  6
PHANTOM
 10
567.683655
 20
94.299934
 40
0.500000
 50
90.000000
 51
165.000214
  0
ARC
  8
0
  6
PHANTOM
 10
571.200012
 20
79.799927
 40
0.799988
 50
180.000000
 51
0.000000
  0
ARC
  8
0
  6
PHANTOM
 10
569.549988
 20
79.799927
 40
0.849976
 50
0.000000
 51
88.263550
  0
ARC
  8
0
  6
PHANTOM
 10
571.200012
 20
89.999939
 40
0.799988
 50
0.000000
 51
180.000000
  0
ARC
  8
0
  6
PHANTOM
 10
570.000000
 20
125.999931
 40
2.000000
 50
0.000000
 51
90.000000
  0
ARC
  8
0
  6
PHANTOM
 10
567.594788
 20
87.399933
 40
2.200024
 50
165.000092
 51
345.000092
  0
ARC
  8
0
  6
PHANTOM
 10
507.914429
 20
118.699524
 40
8.999996
 50
276.232178
 51
336.904388
  0
ARC
  8
0
  6
PHANTOM
 10
515.273193
 20
115.561378
 40
1.000008
 50
336.904663
 51
59.534412
  0
ARC
  8
0
  6
PHANTOM
 10
509.000000
 20
108.758621
 40
0.999996
 50
96.231819
 51
180.000000
  0
ARC
  8
0
  6
PHANTOM
 10
564.726746
 20
115.561378
 40
0.999997
 50
120.465591
 51
203.095337
  0
ARC
  8
0
  6
PHANTOM
 10
572.085571
 20
118.699524
 40
9.000025
 50
203.095612
 51
263.767609
  0
ARC
  8
0
  6
PHANTOM
 10
571.000000
 20
108.758621
 40
1.000000
 50
0.000000
 51
83.766441
  0
ARC
  8
0
  6
PHANTOM
 10
569.500000
 20
78.150688
 40
2.500003
 50
88.263794
 51
233.130096
  0
ARC
  8
0
  6
PHANTOM
 10
510.500000
 20
78.150688
 40
2.500000
 50
306.869904
 51
91.736206
  0
ARC
  8
0
  6
PHANTOM
 10
510.450012
 20
79.799927
 40
0.850000
 50
91.736450
 51
180.000000
  0
ARC
  8
0
  6
PHANTOM
 10
555.171570
 20
66.999931
 40
3.000003
 50
19.471201
 51
90.000000
  0
ARC
  8
0
  6
PHANTOM
 10
524.828430
 20
66.999931
 40
3.000000
 50
90.000000
 51
160.528793
  0
ARC
  8
0
  6
PHANTOM
 10
-84.912476
 20
-356.614990
 40
50.000008
 50
159.512695
 51
200.487274
  0
ARC
  8
0
  6
PHANTOM
 10
-177.575745
 20
-394.114990
 40
50.000004
 50
336.421814
 51
23.578176
  0
ARC
  8
0
  6
PHANTOM
 10
-244.912506
 20
-356.614990
 40
50.000008
 50
159.512695
 51
200.487274
  0
ARC
  8
0
  6
PHANTOM
 10
-337.575745
 20
-394.114990
 40
49.999989
 50
336.421814
 51
23.578184
  0
ARC
  8
0
  6
PHANTOM
 10
-85.709229
 20
-139.614960
 40
49.999996
 50
157.045502
 51
202.954468
  0
ARC
  8
0
  6
PHANTOM
 10
-177.790741
 20
-178.614960
 40
50.000000
 50
337.045502
 51
22.954500
  0
ARC
  8
0
  6
PHANTOM
 10
-245.709259
 20
-139.614960
 40
49.999996
 50
157.045502
 51
202.954468
  0
ARC
  8
0
  6
PHANTOM
 10
-337.790741
 20
-178.614960
 40
50.000000
 50
337.045502
 51
22.954500
  0
ARC
  8
0
  6
PHANTOM
 10
121.050003
 20
-402.315002
 40
0.800003
 50
180.000000
 51
0.000000
  0
ARC
  8
0
  6
PHANTOM
 10
121.050003
 20
-384.114990
 40
0.800003
 50
0.000000
 51
180.000000
  0
ARC
  8
0
  6
PHANTOM
 10
121.250000
 20
-341.114990
 40
2.000000
 50
90.000000
 51
180.000000
  0
ARC
  8
0
  6
PHANTOM
 10
124.655212
 20
-386.714996
 40
2.200000
 50
194.999863
 51
14.999867
  0
ARC
  8
0
  6
PHANTOM
 10
124.566345
 20
-379.815002
 40
0.499997
 50
14.998322
 51
90.000000
  0
ARC
  8
0
  6
PHANTOM
 10
191.933655
 20
-379.815002
 40
0.500000
 50
90.000000
 51
164.998077
  0
ARC
  8
0
  6
PHANTOM
 10
195.449997
 20
-402.315002
 40
0.800003
 50
180.000000
 51
0.000000
  0
ARC
  8
0
  6
PHANTOM
 10
193.800003
 20
-402.315002
 40
0.850006
 50
0.000000
 51
88.263550
  0
ARC
  8
0
  6
PHANTOM
 10
195.449997
 20
-384.114990
 40
0.800003
 50
0.000000
 51
180.000000
  0
ARC
  8
0
  6
PHANTOM
 10
195.250000
 20
-341.114990
 40
2.000000
 50
0.000000
 51
90.000000
  0
ARC
  8
0
  6
PHANTOM
 10
191.844788
 20
-386.714996
 40
2.199993
 50
165.000076
 51
345.000092
  0
ARC
  8
0
  6
PHANTOM
 10
193.750000
 20
-403.964233
 40
2.499989
 50
88.263435
 51
258.463043
  0
ARC
  8
0
  6
PHANTOM
 10
122.750000
 20
-403.964233
 40
2.500004
 50
281.536957
 51
91.736565
  0
ARC
  8
0
  6
PHANTOM
 10
122.699997
 20
-402.315002
 40
0.850000
 50
91.736450
 51
180.000000
  0
ARC
  8
0
  6
PHANTOM
 10
175.250000
 20
-414.114990
 40
3.000000
 50
0.000000
 51
90.000000
  0
ARC
  8
0
  6
PHANTOM
 10
141.250000
 20
-414.114990
 40
3.000000
 50
90.000000
 51
180.000000
  0
ARC
  8
0
  6
PHANTOM
 10
119.166901
 20
-351.115295
 40
11.000006
 50
275.178436
 51
339.730377
  0
ARC
  8
0
  6
PHANTOM
 10
120.250000
 20
-363.066315
 40
0.999993
 50
95.178795
 51
180.000000
  0
ARC
  8
0
  6
PHANTOM
 10
128.547638
 20
-354.579681
 40
1.000006
 50
339.730682
 51
60.255444
  0
ARC
  8
0
  6
PHANTOM
 10
187.952362
 20
-354.579681
 40
1.000011
 50
119.744553
 51
200.269333
  0
ARC
  8
0
  6
PHANTOM
 10
197.333099
 20
-351.115295
 40
11.000002
 50
200.269623
 51
264.821533
  0
ARC
  8
0
  6
PHANTOM
 10
196.250000
 20
-363.066315
 40
1.000000
 50
0.000000
 51
84.821640
  0
CIRCLE
  8
0
 10
-469.250122
 20
320.000000
 40
3.300000
  0
CIRCLE
  8
0
 10
-514.250122
 20
320.000000
 40
3.300000
  0
CIRCLE
  8
0
 10
-469.250122
 20
250.000000
 40
3.300000
  0
CIRCLE
  8
0
 10
-514.250122
 20
250.000000
 40
3.300000
  0
ARC
  8
0
 10
-237.750000
 20
76.999954
 40
1.000000
 50
0.000000
 51
90.000000
  0
ARC
  8
0
 10
-251.750000
 20
76.999954
 40
1.000000
 50
90.000000
 51
180.000000
  0
ARC
  8
0
 10
-185.750000
 20
76.999954
 40
1.000000
 50
90.000000
 51
180.000000
  0
ARC
  8
0
 10
-171.750000
 20
76.999954
 40
1.000000
 50
0.000000
 51
90.000000
  0
CIRCLE
  8
0
 10
257.499878
 20
324.999847
 40
4.500000
  0
CIRCLE
  8
0
 10
257.499878
 20
244.999847
 40
4.500000
  0
CIRCLE
  8
0
 10
202.499863
 20
244.999847
 40
4.500000
  0
CIRCLE
  8
0
 10
202.499863
 20
324.999847
 40
4.500000
  0
ARC
  8
0
 10
493.500305
 20
76.500061
 40
1.500000
 50
90.000000
 51
180.000000
  0
ARC
  8
0
 10
510.500305
 20
76.500061
 40
1.500000
 50
0.000000
 51
90.000000
  0
ARC
  8
0
 10
569.500305
 20
76.500061
 40
1.500000
 50
90.000000
 51
180.000000
  0
ARC
  8
0
 10
586.500305
 20
76.500061
 40
1.500000
 50
0.000000
 51
90.000000
  0
CIRCLE
  8
0
 10
-239.250000
 20
-112.114960
 40
4.500000
  0
CIRCLE
  8
0
 10
-239.250000
 20
-206.114960
 40
4.500000
  0
CIRCLE
  8
0
 10
-184.250000
 20
-206.114960
 40
4.500000
  0
CIRCLE
  8
0
 10
-184.250000
 20
-112.114960
 40
4.500000
  0
ARC
  8
0
 10
121.750015
 20
-405.615021
 40
1.500000
 50
0.000000
 51
90.000000
  0
ARC
  8
0
 10
104.750015
 20
-405.615021
 40
1.500000
 50
90.000000
 51
180.000000
  0
ARC
  8
0
 10
211.750015
 20
-405.615021
 40
1.500000
 50
0.000000
 51
90.000000
  0
ARC
  8
0
 10
194.750015
 20
-405.615021
 40
1.500000
 50
90.000000
 51
180.000000
  0
TEXT
  8
0
 10
452.676331
 20
466.216309
 40
17.000000
  1
DATE : JUN ,1991
 50
0.000000
 41
1.052631
 51
0.000000
  7
STANDARD
  0
TEXT
  8
0
 10
-672.223755
 20
463.516205
 40
20.000000
  1
ORGA F SUPPORT
 50
0.000000
 41
1.052632
 51
0.000000
  7
STANDARD
  0
TEXT
  8
0
 10
-704.357117
 20
384.914032
 40
20.000000
  1
BORE : 32
 50
0.000000
 41
1.052632
 51
0.000000
  7
STANDARD
  0
TEXT
  8
0
 10
37.392860
 20
424.914032
 40
20.000000
  1
BORE : 40
 50
0.000000
 41
1.052632
 51
0.000000
  7
STANDARD
  0
TEXT
  8
0
 10
-704.357117
 20
-67.000061
 40
20.000000
  1
BORE : 50
 50
0.000000
 41
1.052632
 51
0.000000
  7
STANDARD
  0
ENDSEC
  0
EOF
