  0
SECTION
  2
HEADER
  0
ENDSEC
  0
SECTION
  2
TABLES
  0
TABLE
  2
LTYPE
 70
     4
  0
LTYPE
  2
CONTINUOUS
 70
    64
  3
Solid line
 72
    65
 73
     0
 40
0.000000
  0
LTYPE
  2
DASHED
 70
    64
  3
__ __ __ __ __ __ __ __ __ __ __ __ __ __ __
 72
    65
 73
     2
 40
3.500000
 49
2.000000
 49
-1.500000
  0
LTYPE
  2
CENTER
 70
    64
  3
____ _ ____ _ ____ _ ____ _ ____ _ ____ _ ____
 72
    65
 73
     4
 40
17.500000
 49
13.000000
 49
-1.500000
 49
1.500000
 49
-1.500000
  0
LTYPE
  2
PHANTOM
 70
    64
  3
_____ _ _ _____ _ _ _____ _ _ _____ _ _ ____  
 72
    65
 73
     6
 40
15.500000
 49
8.000000
 49
-1.500000
 49
1.500000
 49
-1.500000
 49
1.500000
 49
-1.500000
  0
LTYPE
  2
DASHED1
 70
    64
  3
__ __ __ __ __ __ __ __ __ __ __ __ __ __ __
 72
    65
 73
     2
 40
1.500000
 49
1.000000
 49
-0.500000
  0
LTYPE
  2
DASHED2
 70
    64
  3
__ __ __ __ __ __ __ __ __ __ __ __ __ __ __
 72
    65
 73
     2
 40
3.500000
 49
2.500000
 49
-1.000000
  0
LTYPE
  2
DASHED3
 70
    64
  3
__ __ __ __ __ __ __ __ __ __ __ __ __ __ __
 72
    65
 73
     2
 40
6.000000
 49
4.000000
 49
-2.000000
  0
LTYPE
  2
DASHED4
 70
    64
  3
__ __ __ __ __ __ __ __ __ __ __ __ __ __ __
 72
    65
 73
     2
 40
12.000000
 49
10.000000
 49
-2.000000
  0
LTYPE
  2
DASHED5
 70
    64
  3
__ __ __ __ __ __ __ __ __ __ __ __ __ __ __
 72
    65
 73
     2
 40
17.000000
 49
15.000000
 49
-2.000000
  0
LTYPE
  2
DASHED6
 70
    64
  3
__ __ __ __ __ __ __ __ __ __ __ __ __ __ __
 72
    65
 73
     2
 40
29.000000
 49
27.000000
 49
-2.000000
  0
LTYPE
  2
PHANTOM1
 70
    64
  3
_____ _ _ _____ _ _ _____ _ _ _____ _ _ ____  
 72
    65
 73
     6
 40
31.000000
 49
25.000000
 49
-1.500000
 49
1.000000
 49
-1.000000
 49
1.000000
 49
-1.500000
  0
LTYPE
  2
PHANTOM2
 70
    64
  3
_____ _ _ _____ _ _ _____ _ _ _____ _ _ ____  
 72
    65
 73
     6
 40
36.000000
 49
27.000000
 49
-1.500000
 49
2.500000
 49
-1.000000
 49
2.500000
 49
-1.500000
  0
LTYPE
  2
PHANTOM3
 70
    64
  3
_____ _ _ _____ _ _ _____ _ _ _____ _ _ ____  
 72
    65
 73
     6
 40
78.000000
 49
64.000000
 49
-2.000000
 49
4.000000
 49
-2.000000
 49
4.000000
 49
-2.000000
  0
LTYPE
  2
CENTER1
 70
    64
  3
____ _ ____ _ ____ _ ____ _ ____ _ ____ _ ____
 72
    65
 73
     4
 40
19.000000
 49
14.000000
 49
-1.000000
 49
3.000000
 49
-1.000000
  0
LTYPE
  2
CENTER2
 70
    64
  3
____ _ ____ _ ____ _ ____ _ ____ _ ____ _ ____
 72
    65
 73
     4
 40
28.500000
 49
25.000000
 49
-1.000000
 49
1.500000
 49
-1.000000
  0
LTYPE
  2
CENTER3
 70
    64
  3
____ _ ____ _ ____ _ ____ _ ____ _ ____ _ ____
 72
    65
 73
     4
 40
31.500000
 49
27.000000
 49
-1.000000
 49
2.500000
 49
-1.000000
  0
LTYPE
  2
CENTER4
 70
    64
  3
____ _ ____ _ ____ _ ____ _ ____ _ ____ _ ____
 72
    65
 73
     4
 40
50.000000
 49
45.000000
 49
-1.000000
 49
3.000000
 49
-1.000000
  0
LTYPE
  2
CENTER5
 70
    64
  3
____ _ ____ _ ____ _ ____ _ ____ _ ____ _ ____
 72
    65
 73
     4
 40
100.000000
 49
92.000000
 49
-2.000000
 49
4.000000
 49
-2.000000
  0
LTYPE
  2
SBK1
 70
    64
  3
______ _ _ _ ______ _ _ _ ______ _ _ _ _____  
 72
    65
 73
     8
 40
60.500000
 49
45.000000
 49
-2.000000
 49
2.500000
 49
-2.000000
 49
2.500000
 49
-2.000000
 49
2.500000
 49
-2.000000
  0
LTYPE
  2
SBK2
 70
    64
  3
______ _ _ _ ______ _ _ _ ______ _ _ _ _____  
 72
    65
 73
     8
 40
84.000000
 49
64.000000
 49
-2.000000
 49
4.000000
 49
-2.000000
 49
4.000000
 49
-2.000000
 49
4.000000
 49
-2.000000
  0
LTYPE
  2
STCH
 70
    64
  3
__ __ __ __ __ __ __ __ __ __ __ __ __ __ __
 72
    65
 73
     2
 40
3.000000
 49
1.000000
 49
-2.000000
  0
LTYPE
  2
MTCH
 70
    64
  3
_____ _ _ _____ _ _ _____ _ _ _____ _ _ ____  
 72
    65
 73
     6
 40
80.000000
 49
66.000000
 49
-2.000000
 49
4.000000
 49
-2.000000
 49
4.000000
 49
-2.000000
  0
ENDTAB
  0
TABLE
  2
LAYER
 70
     1
  0
LAYER
  2
0
 70
     0
 62
     7
  6
CONTINUOUS
  0
ENDTAB
  0
TABLE
  2
STYLE
 70
     1
  0
STYLE
  2
STANDARD
 70
     0
 40
0.000000
 41
1.000000
 50
0.000000
 71
     0
 42
0.200000
  3
txt
  4
BIGFONT
  0
ENDTAB
  0
TABLE
  2
VIEW
 70
     0
  0
ENDTAB
  0
ENDSEC
  0
SECTION
  2
BLOCKS
  0
ENDSEC
  0
SECTION
  2
ENTITIES
  0
POINT
  8
0
 10
-474.750000
 20
99.999985
  0
POINT
  8
0
 10
-474.750061
 20
279.999969
  0
POINT
  8
0
 10
-214.750000
 20
99.999924
  0
POINT
  8
0
 10
-448.750000
 20
99.999985
  0
POINT
  8
0
 10
-448.750061
 20
279.999969
  0
POINT
  8
0
 10
-188.750275
 20
99.999924
  0
POINT
  8
0
 10
290.000061
 20
300.000000
  0
POINT
  8
0
 10
290.000122
 20
99.999969
  0
POINT
  8
0
 10
530.000122
 20
99.999901
  0
POINT
  8
0
 10
314.000122
 20
99.999969
  0
POINT
  8
0
 10
314.000122
 20
300.000000
  0
POINT
  8
0
 10
560.000122
 20
99.999901
  0
POINT
  8
0
 10
-139.750031
 20
-149.114975
  0
POINT
  8
0
 10
-139.750092
 20
-389.115021
  0
POINT
  8
0
 10
168.250015
 20
-389.114929
  0
POINT
  8
0
 10
-107.750092
 20
-389.115021
  0
POINT
  8
0
 10
-107.750031
 20
-149.114975
  0
POINT
  8
0
 10
205.249985
 20
-389.114929
  0
LINE
  8
0
 62
     3
 10
-741.750000
 20
-509.114990
 11
741.750000
 21
-509.114990
  0
LINE
  8
0
 62
     3
 10
-741.750000
 20
509.114990
 11
741.750000
 21
509.114990
  0
LINE
  8
0
 62
     3
 10
741.750000
 20
509.114990
 11
741.750000
 21
-509.114990
  0
LINE
  8
0
 62
     3
 10
-741.750000
 20
509.114990
 11
-741.750000
 21
-509.114990
  0
LINE
  8
0
 62
     5
 10
516.764709
 20
-465.668823
 11
546.072388
 21
-465.668823
  0
LINE
  8
0
 62
     5
 10
516.764709
 20
-491.658691
 11
541.648621
 21
-491.658691
  0
LINE
  8
0
 62
     5
 10
516.764709
 20
-498.294342
 11
550.496216
 21
-498.294342
  0
LINE
  8
0
 62
     5
 10
516.764709
 20
-472.304474
 11
541.648621
 21
-472.304474
  0
LINE
  8
0
 62
     5
 10
516.764709
 20
-465.668823
 11
516.764709
 21
-472.304474
  0
LINE
  8
0
 62
     5
 10
550.496216
 20
-470.092651
 11
550.496216
 21
-498.294342
  0
LINE
  8
0
 62
     5
 10
541.648621
 20
-472.304474
 11
541.648621
 21
-491.658691
  0
LINE
  8
0
 62
     5
 10
555.472900
 20
-465.668823
 11
555.472900
 21
-472.304474
  0
LINE
  8
0
 62
     5
 10
586.992432
 20
-472.304474
 11
586.992432
 21
-493.870697
  0
LINE
  8
0
 62
     5
 10
578.144897
 20
-472.304474
 11
578.144897
 21
-491.658691
  0
LINE
  8
0
 62
     5
 10
516.764709
 20
-491.658691
 11
516.764709
 21
-498.294342
  0
LINE
  8
0
 62
     5
 10
555.472900
 20
-465.668823
 11
564.214966
 21
-465.668823
  0
LINE
  8
0
 62
     5
 10
555.472900
 20
-498.294342
 11
562.342773
 21
-498.294342
  0
LINE
  8
0
 62
     5
 10
555.472717
 20
-498.294098
 11
562.436890
 21
-472.304413
  0
LINE
  8
0
 62
     5
 10
555.472900
 20
-472.304474
 11
562.436951
 21
-472.304474
  0
LINE
  8
0
 62
     5
 10
562.343140
 20
-498.294647
 11
569.307007
 21
-472.304871
  0
LINE
  8
0
 62
     5
 10
571.509094
 20
-491.658691
 11
578.144897
 21
-491.658691
  0
LINE
  8
0
 62
     5
 10
571.508972
 20
-491.658600
 11
573.286804
 21
-498.294128
  0
LINE
  8
0
 62
     5
 10
573.287354
 20
-498.294342
 11
582.568787
 21
-498.294342
  0
LINE
  8
0
 62
     5
 10
569.306763
 20
-472.304474
 11
578.144897
 21
-472.304474
  0
LINE
  8
0
 62
     5
 10
571.084717
 20
-465.668823
 11
580.356750
 21
-465.668823
  0
LINE
  8
0
 62
     5
 10
564.215088
 20
-465.668854
 11
565.533630
 21
-460.747498
  0
LINE
  8
0
 62
     5
 10
571.084290
 20
-465.668488
 11
572.402893
 21
-460.746979
  0
LINE
  8
0
 62
     5
 10
592.522278
 20
-465.668823
 11
603.028809
 21
-465.668823
  0
LINE
  8
0
 62
     5
 10
592.522278
 20
-472.304474
 11
618.325867
 21
-472.304474
  0
LINE
  8
0
 62
     5
 10
603.028809
 20
-498.294342
 11
611.876221
 21
-498.294342
  0
LINE
  8
0
 62
     5
 10
592.522278
 20
-465.668823
 11
592.522278
 21
-472.304474
  0
LINE
  8
0
 62
     5
 10
625.147827
 20
-484.336975
 11
625.147827
 21
-491.658691
  0
LINE
  8
0
 62
     5
 10
592.521790
 20
-491.658447
 11
603.028564
 21
-486.759003
  0
LINE
  8
0
 62
     5
 10
592.522827
 20
-484.337433
 11
618.326355
 21
-472.304932
  0
LINE
  8
0
 62
     5
 10
592.522278
 20
-484.336975
 11
592.522278
 21
-491.658691
  0
LINE
  8
0
 62
     5
 10
611.876038
 20
-485.469879
 11
625.147766
 21
-491.658478
  0
LINE
  8
0
 62
     5
 10
616.686646
 20
-480.391724
 11
625.148682
 21
-484.337585
  0
LINE
  8
0
 62
     5
 10
625.147827
 20
-470.092651
 11
625.147827
 21
-473.626892
  0
LINE
  8
0
 62
     5
 10
603.028809
 20
-460.747406
 11
603.028809
 21
-465.668823
  0
LINE
  8
0
 62
     5
 10
611.876221
 20
-460.747406
 11
611.876221
 21
-465.668823
  0
LINE
  8
0
 62
     5
 10
611.876221
 20
-465.668823
 11
620.723999
 21
-465.668823
  0
LINE
  8
0
 62
     5
 10
603.028809
 20
-486.759460
 11
603.028809
 21
-498.294342
  0
LINE
  8
0
 62
     5
 10
611.876221
 20
-485.470184
 11
611.876221
 21
-498.294342
  0
LINE
  8
0
 62
     5
 10
616.686707
 20
-480.391937
 11
622.594543
 21
-477.637115
  0
LINE
  8
0
 62
     5
 10
655.008484
 20
-462.738159
 11
661.644043
 21
-462.738159
  0
LINE
  8
0
 62
     5
 10
627.912720
 20
-476.445160
 11
627.912720
 21
-483.586365
  0
LINE
  8
0
 62
     5
 10
661.644043
 20
-462.738159
 11
661.644043
 21
-465.668823
  0
LINE
  8
0
 62
     5
 10
655.008484
 20
-462.738159
 11
655.008484
 21
-464.168060
  0
LINE
  8
0
 62
     5
 10
646.160828
 20
-476.328888
 11
646.160828
 21
-498.294342
  0
LINE
  8
0
 62
     5
 10
627.912903
 20
-476.445496
 11
653.614319
 21
-466.223785
  0
LINE
  8
0
 62
     5
 10
627.912598
 20
-483.586365
 11
646.160706
 21
-476.328796
  0
LINE
  8
0
 62
     5
 10
646.160828
 20
-498.294342
 11
655.008484
 21
-498.294342
  0
LINE
  8
0
 62
     5
 10
655.008484
 20
-472.810120
 11
655.008484
 21
-498.294342
  0
LINE
  8
0
 62
     5
 10
655.009155
 20
-472.810547
 11
657.461609
 21
-471.835114
  0
LINE
  8
0
 62
     5
 10
565.533691
 20
-460.747406
 11
572.403381
 21
-460.747406
  0
LINE
  8
0
 62
     5
 10
583.398193
 20
-460.747406
 11
586.218201
 21
-460.747406
  0
LINE
  8
0
 62
     5
 10
603.028809
 20
-460.747406
 11
611.876221
 21
-460.747406
  0
LINE
  8
0
 62
     5
 10
583.398193
 20
-465.171234
 11
586.218201
 21
-465.171234
  0
LINE
  8
0
 62
     5
 10
583.398193
 20
-460.747406
 11
583.398193
 21
-465.171234
  0
LINE
  8
0
 62
     5
 10
586.218201
 20
-460.747406
 11
586.218201
 21
-465.171234
  0
LINE
  8
0
 62
     5
 10
587.877319
 20
-460.747406
 11
587.877319
 21
-465.171234
  0
LINE
  8
0
 62
     5
 10
591.029297
 20
-460.747406
 11
591.029297
 21
-465.171234
  0
LINE
  8
0
 62
     5
 10
587.877319
 20
-460.747406
 11
591.029297
 21
-460.747406
  0
LINE
  8
0
 62
     5
 10
587.877319
 20
-465.171234
 11
591.029297
 21
-465.171234
  0
LINE
  8
0
 62
     3
 10
436.659546
 20
-451.914154
 11
436.659546
 21
-509.118408
  0
LINE
  8
0
 62
     3
 10
436.659546
 20
-451.914154
 11
741.749207
 21
-451.914154
  0
LINE
  8
0
 62
     3
 10
436.659546
 20
509.118408
 11
436.659546
 21
451.914032
  0
LINE
  8
0
 62
     3
 10
436.659546
 20
451.914032
 11
741.749207
 21
451.914032
  0
LINE
  8
0
 62
     3
 10
-317.483978
 20
451.914032
 11
-317.483978
 21
509.118408
  0
LINE
  8
0
 62
     3
 10
-741.749207
 20
451.914032
 11
-317.483978
 21
451.914032
  0
LINE
  8
0
 10
0.000000
 20
509.114990
 11
0.000000
 21
-0.000061
  0
LINE
  8
0
 10
-741.749207
 20
-0.000061
 11
741.750000
 21
-0.000061
  0
LINE
  8
0
  6
PHANTOM
 10
-474.750000
 20
126.000015
 11
-474.750000
 21
89.999962
  0
LINE
  8
0
  6
PHANTOM
 10
-501.750000
 20
125.999992
 11
-501.750000
 21
69.999947
  0
LINE
  8
0
  6
PHANTOM
 10
-474.750000
 20
125.999893
 11
-501.750000
 21
125.999893
  0
LINE
  8
0
  6
PHANTOM
 10
-474.750000
 20
73.999893
 11
-501.750000
 21
73.999893
  0
LINE
  8
0
  6
PHANTOM
 10
-571.750000
 20
69.999893
 11
-501.750000
 21
69.999893
  0
LINE
  8
0
  6
CENTER
 10
-576.750000
 20
99.999939
 11
-469.750000
 21
99.999939
  0
LINE
  8
0
  6
PHANTOM
 10
-573.083496
 20
103.699936
 11
-501.750000
 21
103.699936
  0
LINE
  8
0
  6
PHANTOM
 10
-569.446472
 20
94.999939
 11
-501.750000
 21
94.999939
  0
LINE
  8
0
  6
PHANTOM
 10
-568.336914
 20
90.999939
 11
-501.750000
 21
90.999939
  0
LINE
  8
0
  6
PHANTOM
 10
-568.336853
 20
78.999939
 11
-501.750000
 21
78.999939
  0
LINE
  8
0
  6
PHANTOM
 10
-569.628235
 20
74.499939
 11
-501.750000
 21
74.499939
  0
LINE
  8
0
  6
PHANTOM
 10
-573.541870
 20
118.499939
 11
-501.750000
 21
118.499939
  0
LINE
  8
0
  6
PHANTOM
 10
-574.153625
 20
114.458481
 11
-501.750000
 21
114.458481
  0
LINE
  8
0
  6
PHANTOM
 10
-573.986694
 20
107.999939
 11
-501.750000
 21
107.999939
  0
LINE
  8
0
  6
PHANTOM
 10
-571.750000
 20
123.999893
 11
-501.750000
 21
123.999893
  0
LINE
  8
0
  6
CENTER
 10
-576.750000
 20
279.999939
 11
-443.750000
 21
279.999939
  0
LINE
  8
0
  6
PHANTOM
 10
-501.750000
 20
307.999939
 11
-501.750000
 21
251.999939
  0
LINE
  8
0
  6
PHANTOM
 10
-474.750000
 20
305.999939
 11
-474.750000
 21
304.999939
  0
LINE
  8
0
  6
PHANTOM
 10
-474.750000
 20
253.999939
 11
-501.750000
 21
253.999939
  0
LINE
  8
0
  6
PHANTOM
 10
-474.750000
 20
305.999939
 11
-501.750000
 21
305.999939
  0
LINE
  8
0
  6
PHANTOM
 10
-501.750000
 20
288.499939
 11
-574.049683
 21
288.499939
  0
LINE
  8
0
  6
PHANTOM
 10
-501.750000
 20
271.499939
 11
-569.450317
 21
271.499939
  0
LINE
  8
0
  6
CENTER
 10
-245.749908
 20
99.999878
 11
-183.749908
 21
99.999878
  0
LINE
  8
0
  6
CENTER
 10
-214.749908
 20
130.999878
 11
-214.749908
 21
64.999878
  0
LINE
  8
0
  6
PHANTOM
 10
-232.750061
 20
125.999878
 11
-196.750061
 21
125.999878
  0
LINE
  8
0
  6
PHANTOM
 10
-240.749908
 20
117.999741
 11
-240.749908
 21
81.999741
  0
LINE
  8
0
  6
PHANTOM
 10
-188.749908
 20
118.000015
 11
-188.749908
 21
82.000015
  0
LINE
  8
0
  6
PHANTOM
 10
-242.749908
 20
121.999794
 11
-242.749908
 21
118.499794
  0
LINE
  8
0
  6
PHANTOM
 10
-242.749817
 20
69.999878
 11
-239.749939
 21
69.999878
  0
LINE
  8
0
  6
PHANTOM
 10
-240.749969
 20
123.999878
 11
-238.041443
 21
123.999878
  0
LINE
  8
0
  6
PHANTOM
 10
-189.749939
 20
69.999878
 11
-186.749908
 21
69.999878
  0
LINE
  8
0
  6
PHANTOM
 10
-242.749908
 20
74.499794
 11
-242.749908
 21
69.999794
  0
LINE
  8
0
  6
PHANTOM
 10
-242.749802
 20
74.499863
 11
-239.749786
 21
73.970879
  0
LINE
  8
0
  6
PHANTOM
 10
-242.749908
 20
89.999802
 11
-242.749908
 21
79.799797
  0
LINE
  8
0
  6
PHANTOM
 10
-241.149902
 20
89.999802
 11
-241.149902
 21
89.368866
  0
LINE
  8
0
  6
PHANTOM
 10
-242.749908
 20
107.149544
 11
-242.749908
 21
103.499878
  0
LINE
  8
0
  6
PHANTOM
 10
-242.749908
 20
103.499878
 11
-240.749908
 21
103.499878
  0
LINE
  8
0
  6
PHANTOM
 10
-242.749878
 20
118.499863
 11
-240.749893
 21
117.345169
  0
LINE
  8
0
  6
PHANTOM
 10
-240.749908
 20
87.876022
 11
-241.149918
 21
89.368866
  0
LINE
  8
0
  6
PHANTOM
 10
-186.749908
 20
121.999962
 11
-186.749908
 21
118.499962
  0
LINE
  8
0
  6
PHANTOM
 10
-186.749908
 20
74.499962
 11
-186.749908
 21
69.999962
  0
LINE
  8
0
  6
PHANTOM
 10
-186.749847
 20
74.499878
 11
-189.749863
 21
73.970894
  0
LINE
  8
0
  6
PHANTOM
 10
-186.749908
 20
89.999954
 11
-186.749908
 21
79.799965
  0
LINE
  8
0
  6
PHANTOM
 10
-188.349915
 20
89.999954
 11
-188.349915
 21
89.369019
  0
LINE
  8
0
  6
PHANTOM
 10
-186.749908
 20
107.149712
 11
-186.749908
 21
103.499878
  0
LINE
  8
0
  6
PHANTOM
 10
-186.749908
 20
103.499878
 11
-188.749908
 21
103.499878
  0
LINE
  8
0
  6
PHANTOM
 10
-186.749908
 20
118.499847
 11
-188.749908
 21
117.345154
  0
LINE
  8
0
  6
PHANTOM
 10
-188.749939
 20
87.876122
 11
-188.349915
 21
89.369011
  0
LINE
  8
0
  6
PHANTOM
 10
-191.458435
 20
123.999878
 11
-188.749969
 21
123.999878
  0
LINE
  8
0
  6
PHANTOM
 10
-474.750000
 20
76.199966
 11
-474.750000
 21
74.000015
  0
LINE
  8
0
  6
PHANTOM
 10
-474.750000
 20
254.999939
 11
-474.750000
 21
253.999939
  0
LINE
  8
0
  6
PHANTOM
 10
260.000031
 20
129.999939
 11
260.000031
 21
67.999947
  0
LINE
  8
0
  6
PHANTOM
 10
260.000031
 20
69.999908
 11
290.000031
 21
69.999908
  0
LINE
  8
0
  6
PHANTOM
 10
260.000031
 20
129.999908
 11
290.000031
 21
129.999908
  0
LINE
  8
0
  6
PHANTOM
 10
290.000031
 20
129.999954
 11
290.000031
 21
88.999847
  0
LINE
  8
0
  6
CENTER
 10
185.000031
 20
99.999939
 11
295.000153
 21
99.999939
  0
LINE
  8
0
  6
PHANTOM
 10
190.000031
 20
67.999939
 11
260.000031
 21
67.999939
  0
LINE
  8
0
  6
PHANTOM
 10
190.000000
 20
127.999939
 11
260.000031
 21
127.999939
  0
LINE
  8
0
  6
PHANTOM
 10
188.818848
 20
103.699982
 11
260.000031
 21
103.699982
  0
LINE
  8
0
  6
PHANTOM
 10
191.797180
 20
94.999985
 11
260.000031
 21
94.999985
  0
LINE
  8
0
  6
PHANTOM
 10
192.722137
 20
90.999985
 11
260.000031
 21
90.999985
  0
LINE
  8
0
  6
PHANTOM
 10
193.025696
 20
78.999985
 11
260.000031
 21
78.999985
  0
LINE
  8
0
  6
PHANTOM
 10
192.044678
 20
73.905289
 11
260.000031
 21
73.905289
  0
LINE
  8
0
  6
PHANTOM
 10
188.087280
 20
120.999985
 11
260.000031
 21
120.999985
  0
LINE
  8
0
  6
PHANTOM
 10
187.520050
 20
115.999969
 11
260.000031
 21
115.999969
  0
LINE
  8
0
  6
PHANTOM
 10
187.701782
 20
109.699997
 11
260.000031
 21
109.699997
  0
LINE
  8
0
  6
CENTER
 10
185.000000
 20
299.999939
 11
319.000031
 21
299.999939
  0
LINE
  8
0
  6
PHANTOM
 10
290.000000
 20
329.999878
 11
290.000000
 21
328.999939
  0
LINE
  8
0
  6
PHANTOM
 10
260.000000
 20
331.999939
 11
260.000000
 21
267.999939
  0
LINE
  8
0
  6
PHANTOM
 10
260.000000
 20
269.999939
 11
290.000000
 21
269.999939
  0
LINE
  8
0
  6
PHANTOM
 10
260.000000
 20
329.999939
 11
290.000000
 21
329.999939
  0
LINE
  8
0
  6
PHANTOM
 10
260.000000
 20
290.999939
 11
192.340698
 21
290.999939
  0
LINE
  8
0
  6
PHANTOM
 10
260.000000
 20
308.999939
 11
187.659302
 21
308.999939
  0
LINE
  8
0
  6
CENTER
 10
530.000000
 20
134.999893
 11
530.000000
 21
59.999847
  0
LINE
  8
0
  6
CENTER
 10
495.000061
 20
99.999893
 11
565.000061
 21
99.999893
  0
LINE
  8
0
  6
PHANTOM
 10
560.000000
 20
120.999908
 11
560.000000
 21
78.999847
  0
LINE
  8
0
  6
PHANTOM
 10
500.000000
 20
120.999786
 11
500.000000
 21
78.999786
  0
LINE
  8
0
  6
PHANTOM
 10
509.000000
 20
129.999893
 11
551.000000
 21
129.999893
  0
LINE
  8
0
  6
PHANTOM
 10
498.000000
 20
125.999878
 11
498.000000
 21
120.999878
  0
LINE
  8
0
  6
PHANTOM
 10
500.000000
 20
127.999924
 11
503.343262
 21
127.999924
  0
LINE
  8
0
  6
PHANTOM
 10
498.000000
 20
89.999878
 11
498.000000
 21
79.799881
  0
LINE
  8
0
  6
PHANTOM
 10
499.600037
 20
89.999878
 11
499.600037
 21
89.368942
  0
LINE
  8
0
  6
PHANTOM
 10
498.000000
 20
108.758575
 11
498.000000
 21
103.499924
  0
LINE
  8
0
  6
PHANTOM
 10
498.000000
 20
103.499924
 11
500.000000
 21
103.499924
  0
LINE
  8
0
  6
PHANTOM
 10
500.000061
 20
87.876129
 11
499.600067
 21
89.368973
  0
LINE
  8
0
  6
PHANTOM
 10
562.000000
 20
125.999969
 11
562.000000
 21
120.999969
  0
LINE
  8
0
  6
PHANTOM
 10
562.000000
 20
89.999969
 11
562.000000
 21
79.799973
  0
LINE
  8
0
  6
PHANTOM
 10
560.400024
 20
89.999969
 11
560.400024
 21
89.369034
  0
LINE
  8
0
  6
PHANTOM
 10
562.000000
 20
108.758667
 11
562.000000
 21
103.499924
  0
LINE
  8
0
  6
PHANTOM
 10
562.000000
 20
103.499924
 11
560.000000
 21
103.499924
  0
LINE
  8
0
  6
PHANTOM
 10
560.000244
 20
87.876175
 11
560.400208
 21
89.369003
  0
LINE
  8
0
  6
PHANTOM
 10
498.000122
 20
67.999924
 11
501.000000
 21
67.999924
  0
LINE
  8
0
  6
PHANTOM
 10
562.000000
 20
73.634232
 11
562.000000
 21
67.999969
  0
LINE
  8
0
  6
PHANTOM
 10
498.000000
 20
73.634247
 11
498.000000
 21
67.999878
  0
LINE
  8
0
  6
PHANTOM
 10
559.000000
 20
73.105240
 11
562.000000
 21
73.634232
  0
LINE
  8
0
  6
PHANTOM
 10
497.999847
 20
120.999832
 11
499.999847
 21
119.823357
  0
LINE
  8
0
  6
PHANTOM
 10
561.999878
 20
121.000023
 11
559.999939
 21
119.823578
  0
LINE
  8
0
  6
PHANTOM
 10
501.000000
 20
73.105278
 11
498.000031
 21
73.634262
  0
LINE
  8
0
  6
PHANTOM
 10
559.000000
 20
67.999924
 11
562.000122
 21
67.999924
  0
LINE
  8
0
  6
PHANTOM
 10
556.656738
 20
127.999924
 11
560.000000
 21
127.999924
  0
LINE
  8
0
  6
PHANTOM
 10
290.000000
 20
270.999939
 11
290.000000
 21
269.999878
  0
LINE
  8
0
  6
PHANTOM
 10
-139.750000
 20
-352.114990
 11
-139.750000
 21
-405.114960
  0
LINE
  8
0
  6
PHANTOM
 10
-171.750000
 20
-352.114960
 11
-139.750000
 21
-352.114960
  0
LINE
  8
0
  6
PHANTOM
 10
-171.750000
 20
-426.114960
 11
-139.750000
 21
-426.114960
  0
LINE
  8
0
  6
PHANTOM
 10
-171.750000
 20
-352.114990
 11
-171.750000
 21
-429.114990
  0
LINE
  8
0
  6
CENTER
 10
-256.750000
 20
-389.114990
 11
-134.750061
 21
-389.114990
  0
LINE
  8
0
  6
PHANTOM
 10
-251.750000
 20
-429.114990
 11
-171.750000
 21
-429.114990
  0
LINE
  8
0
  6
PHANTOM
 10
-251.750031
 20
-354.114990
 11
-171.750000
 21
-354.114990
  0
LINE
  8
0
  6
PHANTOM
 10
-252.912537
 20
-385.614960
 11
-171.750000
 21
-385.614960
  0
LINE
  8
0
  6
PHANTOM
 10
-249.816345
 20
-394.314941
 11
-171.750000
 21
-394.314941
  0
LINE
  8
0
  6
PHANTOM
 10
-248.756073
 20
-398.314941
 11
-171.750000
 21
-398.314941
  0
LINE
  8
0
  6
PHANTOM
 10
-248.392395
 20
-418.114960
 11
-171.750000
 21
-418.114960
  0
LINE
  8
0
  6
PHANTOM
 10
-249.603455
 20
-423.209656
 11
-171.750000
 21
-423.209656
  0
LINE
  8
0
  6
PHANTOM
 10
-254.184723
 20
-363.114960
 11
-171.750000
 21
-363.114960
  0
LINE
  8
0
  6
PHANTOM
 10
-254.850006
 20
-369.114929
 11
-171.750000
 21
-369.114929
  0
LINE
  8
0
  6
PHANTOM
 10
-254.609131
 20
-377.114929
 11
-171.750000
 21
-377.114929
  0
LINE
  8
0
  6
PHANTOM
 10
-253.797607
 20
-382.114960
 11
-171.750000
 21
-382.114960
  0
LINE
  8
0
  6
CENTER
 10
-256.750000
 20
-149.114990
 11
-102.750000
 21
-149.114990
  0
LINE
  8
0
  6
PHANTOM
 10
-139.750000
 20
-112.115021
 11
-139.750000
 21
-113.114990
  0
LINE
  8
0
  6
PHANTOM
 10
-171.750000
 20
-110.114990
 11
-171.750000
 21
-188.114990
  0
LINE
  8
0
  6
PHANTOM
 10
-171.750000
 20
-112.114990
 11
-139.750000
 21
-112.114990
  0
LINE
  8
0
  6
PHANTOM
 10
-171.750000
 20
-186.114990
 11
-139.750000
 21
-186.114990
  0
LINE
  8
0
  6
PHANTOM
 10
-254.095856
 20
-140.614990
 11
-171.750000
 21
-140.614990
  0
LINE
  8
0
  6
PHANTOM
 10
-249.404175
 20
-157.614990
 11
-171.750000
 21
-157.614990
  0
LINE
  8
0
  6
PHANTOM
 10
200.574448
 20
-354.114990
 11
205.249924
 21
-354.114990
  0
LINE
  8
0
  6
CENTER
 10
126.249847
 20
-389.114990
 11
210.249847
 21
-389.114990
  0
LINE
  8
0
  6
PHANTOM
 10
142.250015
 20
-352.114990
 11
194.250046
 21
-352.114990
  0
LINE
  8
0
  6
PHANTOM
 10
205.249847
 20
-363.115112
 11
205.249847
 21
-415.115112
  0
LINE
  8
0
  6
PHANTOM
 10
131.249847
 20
-363.114807
 11
131.249847
 21
-415.114807
  0
LINE
  8
0
  6
PHANTOM
 10
129.249847
 20
-356.114868
 11
129.249847
 21
-363.114868
  0
LINE
  8
0
  6
PHANTOM
 10
131.249924
 20
-354.114990
 11
135.925339
 21
-354.114990
  0
LINE
  8
0
  6
PHANTOM
 10
130.249847
 20
-399.114868
 11
130.249847
 21
-417.314880
  0
LINE
  8
0
  6
PHANTOM
 10
130.249847
 20
-382.114868
 11
130.249847
 21
-385.614868
  0
LINE
  8
0
  6
PHANTOM
 10
130.249847
 20
-385.614990
 11
131.249847
 21
-385.614990
  0
LINE
  8
0
  6
PHANTOM
 10
207.249847
 20
-356.115051
 11
207.249847
 21
-363.115051
  0
LINE
  8
0
  6
PHANTOM
 10
206.249847
 20
-399.115051
 11
206.249847
 21
-417.315063
  0
LINE
  8
0
  6
PHANTOM
 10
206.249847
 20
-382.115051
 11
206.249847
 21
-385.615051
  0
LINE
  8
0
  6
PHANTOM
 10
206.249847
 20
-385.614990
 11
205.249847
 21
-385.614990
  0
LINE
  8
0
  6
PHANTOM
 10
129.249756
 20
-429.114990
 11
132.249908
 21
-429.114990
  0
LINE
  8
0
  6
PHANTOM
 10
207.249847
 20
-423.209778
 11
207.249847
 21
-429.115051
  0
LINE
  8
0
  6
PHANTOM
 10
129.249847
 20
-423.209595
 11
129.249847
 21
-429.114868
  0
LINE
  8
0
  6
PHANTOM
 10
204.249939
 20
-423.738739
 11
207.249786
 21
-423.209808
  0
LINE
  8
0
  6
PHANTOM
 10
132.249893
 20
-423.738892
 11
129.249741
 21
-423.209869
  0
LINE
  8
0
  6
PHANTOM
 10
204.249908
 20
-429.114990
 11
207.249756
 21
-429.114990
  0
LINE
  8
0
  6
PHANTOM
 10
129.249863
 20
-382.114990
 11
130.249863
 21
-382.114990
  0
LINE
  8
0
  6
PHANTOM
 10
206.249863
 20
-382.114990
 11
207.249863
 21
-382.114990
  0
LINE
  8
0
  6
PHANTOM
 10
129.249847
 20
-378.066223
 11
129.249847
 21
-382.114868
  0
LINE
  8
0
  6
PHANTOM
 10
207.249847
 20
-378.066406
 11
207.249847
 21
-382.115051
  0
LINE
  8
0
  6
PHANTOM
 10
129.249817
 20
-363.114960
 11
131.249817
 21
-364.257812
  0
LINE
  8
0
  6
PHANTOM
 10
207.249878
 20
-363.114960
 11
205.249878
 21
-364.257812
  0
LINE
  8
0
  6
CENTER
 10
168.250000
 20
-347.114990
 11
168.250000
 21
-431.114990
  0
LINE
  8
0
  6
PHANTOM
 10
-139.750000
 20
-422.114960
 11
-139.750000
 21
-426.114990
  0
LINE
  8
0
  6
PHANTOM
 10
-139.750000
 20
-185.114990
 11
-139.750000
 21
-186.115021
  0
LINE
  8
0
  6
PHANTOM
 10
-569.631653
 20
307.999939
 11
-501.750000
 21
307.999939
  0
LINE
  8
0
  6
PHANTOM
 10
-573.868347
 20
251.999939
 11
-501.750000
 21
251.999939
  0
LINE
  8
0
  6
PHANTOM
 10
191.310623
 20
331.999939
 11
260.000000
 21
331.999939
  0
LINE
  8
0
  6
PHANTOM
 10
188.689377
 20
267.999939
 11
260.000000
 21
267.999939
  0
LINE
  8
0
  6
PHANTOM
 10
-253.446045
 20
-188.114990
 11
-171.750000
 21
-188.114990
  0
LINE
  8
0
  6
PHANTOM
 10
-250.053986
 20
-110.114990
 11
-171.750000
 21
-110.114990
  0
LINE
  8
0
 10
-466.150116
 20
77.000145
 11
-465.550110
 21
77.600128
  0
LINE
  8
0
 10
-466.149902
 20
87.000031
 11
-465.549866
 21
86.399994
  0
LINE
  8
0
  6
DASHED
 10
-460.049988
 20
73.200012
 11
-460.049988
 21
70.000008
  0
LINE
  8
0
 10
-471.549988
 20
90.000008
 11
-474.750000
 21
90.000008
  0
LINE
  8
0
 10
-471.549988
 20
90.000008
 11
-471.549988
 21
76.200012
  0
LINE
  8
0
  6
CENTER
 10
-456.750000
 20
78.200012
 11
-456.750000
 21
65.000008
  0
LINE
  8
0
 10
-448.750000
 20
73.200012
 11
-468.549988
 21
73.200012
  0
LINE
  8
0
 10
-474.750000
 20
90.000008
 11
-474.750000
 21
76.200012
  0
LINE
  8
0
 10
-466.150024
 20
87.000008
 11
-466.150024
 21
77.000008
  0
LINE
  8
0
 10
-465.549988
 20
86.400009
 11
-465.549988
 21
77.600006
  0
LINE
  8
0
 10
-466.150024
 20
87.000008
 11
-471.549988
 21
87.000008
  0
LINE
  8
0
 10
-466.150024
 20
77.000008
 11
-471.549988
 21
77.000008
  0
LINE
  8
0
  6
CENTER
 10
-460.549988
 20
82.000008
 11
-485.750000
 21
82.000008
  0
LINE
  8
0
  6
DASHED
 10
-453.450012
 20
73.200012
 11
-453.450012
 21
70.000008
  0
LINE
  8
0
 10
-448.750000
 20
73.200012
 11
-448.750000
 21
70.000008
  0
LINE
  8
0
 10
-448.750000
 20
70.000008
 11
-468.549988
 21
70.000008
  0
LINE
  8
0
 10
-471.550049
 20
304.999969
 11
-471.550049
 21
254.999969
  0
LINE
  8
0
 10
-448.750061
 20
304.999969
 11
-448.750061
 21
291.999969
  0
LINE
  8
0
 10
-474.750061
 20
304.999969
 11
-448.750061
 21
304.999969
  0
LINE
  8
0
 10
-474.750061
 20
254.999969
 11
-448.750061
 21
254.999969
  0
LINE
  8
0
 10
-466.150085
 20
266.999969
 11
-466.150085
 21
256.999969
  0
LINE
  8
0
 10
-465.550049
 20
266.399963
 11
-465.550049
 21
257.599945
  0
LINE
  8
0
 10
-474.750061
 20
267.999969
 11
-471.550049
 21
267.999969
  0
LINE
  8
0
 10
-474.750061
 20
291.999969
 11
-471.550049
 21
291.999969
  0
LINE
  8
0
 10
-448.750061
 20
267.999969
 11
-448.750061
 21
254.999969
  0
LINE
  8
0
 10
-466.150208
 20
257.000061
 11
-465.550201
 21
257.600037
  0
LINE
  8
0
 10
-466.150085
 20
292.999969
 11
-471.550049
 21
292.999969
  0
LINE
  8
0
 10
-466.150085
 20
302.999969
 11
-471.550049
 21
302.999969
  0
LINE
  8
0
 10
-465.550049
 20
302.399963
 11
-465.550049
 21
293.599945
  0
LINE
  8
0
 10
-466.150085
 20
302.999969
 11
-466.150085
 21
292.999969
  0
LINE
  8
0
 10
-466.149933
 20
302.999939
 11
-465.549927
 21
302.399963
  0
LINE
  8
0
 10
-466.150208
 20
293.000061
 11
-465.550232
 21
293.600067
  0
LINE
  8
0
 10
-474.750061
 20
304.999969
 11
-474.750061
 21
254.999969
  0
LINE
  8
0
 10
-466.150085
 20
256.999969
 11
-471.550049
 21
256.999969
  0
LINE
  8
0
 10
-466.150085
 20
266.999969
 11
-471.550049
 21
266.999969
  0
LINE
  8
0
 10
-466.149902
 20
266.999939
 11
-465.549896
 21
266.399933
  0
LINE
  8
0
  6
CENTER
 10
-485.750061
 20
297.999969
 11
-451.250061
 21
297.999969
  0
LINE
  8
0
  6
CENTER
 10
-485.750061
 20
261.999969
 11
-451.250061
 21
261.999969
  0
LINE
  8
0
  6
CENTER
 10
-456.750061
 20
267.499969
 11
-456.750061
 21
256.499969
  0
LINE
  8
0
  6
CENTER
 10
-456.750061
 20
303.499969
 11
-456.750061
 21
292.499969
  0
LINE
  8
0
 10
-235.249908
 20
80.556473
 11
-235.249908
 21
83.443230
  0
LINE
  8
0
 10
-232.749878
 20
79.113190
 11
-235.249878
 21
80.556564
  0
LINE
  8
0
 10
-229.749847
 20
69.999825
 11
-229.749847
 21
69.999825
  0
LINE
  8
0
 10
-239.749939
 20
89.999947
 11
-226.749939
 21
89.999947
  0
LINE
  8
0
 10
-239.749939
 20
73.199951
 11
-189.749939
 21
73.199951
  0
LINE
  8
0
 10
-239.749939
 20
69.999947
 11
-189.749939
 21
69.999947
  0
LINE
  8
0
 10
-189.749939
 20
89.999947
 11
-189.749939
 21
69.999947
  0
LINE
  8
0
 10
-239.749939
 20
89.999947
 11
-239.749939
 21
69.999947
  0
LINE
  8
0
 10
-202.749939
 20
73.199951
 11
-202.749939
 21
69.999947
  0
LINE
  8
0
 10
-235.249786
 20
83.443123
 11
-232.749817
 21
84.886475
  0
LINE
  8
0
 10
-226.749939
 20
73.199951
 11
-226.749939
 21
69.999947
  0
LINE
  8
0
 10
-202.749939
 20
89.999947
 11
-189.749939
 21
89.999947
  0
LINE
  8
0
 10
-230.249771
 20
80.556328
 11
-232.749771
 21
79.112953
  0
LINE
  8
0
 10
-199.249969
 20
83.443237
 11
-199.249969
 21
80.556488
  0
LINE
  8
0
 10
-199.250000
 20
80.556465
 11
-196.750000
 21
79.113091
  0
LINE
  8
0
 10
-194.250000
 20
83.443214
 11
-196.749969
 21
84.886574
  0
LINE
  8
0
 10
-196.750046
 20
84.886719
 11
-199.250046
 21
83.443344
  0
LINE
  8
0
 10
-196.750015
 20
79.113152
 11
-194.250000
 21
80.556534
  0
LINE
  8
0
 10
-194.249969
 20
80.556473
 11
-194.249969
 21
83.443230
  0
LINE
  8
0
 10
-230.249908
 20
83.443237
 11
-230.249908
 21
80.556488
  0
LINE
  8
0
 10
-232.749832
 20
84.886635
 11
-230.249863
 21
83.443275
  0
LINE
  8
0
  6
CENTER
 10
-232.749908
 20
90.999847
 11
-232.749908
 21
64.999947
  0
LINE
  8
0
  6
DASHED
 10
-236.049988
 20
69.999947
 11
-236.049988
 21
73.199951
  0
LINE
  8
0
  6
DASHED
 10
-229.449951
 20
69.999947
 11
-229.449951
 21
73.199951
  0
LINE
  8
0
  6
CENTER
 10
-223.749908
 20
81.999847
 11
-241.749908
 21
81.999847
  0
LINE
  8
0
  6
CENTER
 10
-205.749969
 20
81.999847
 11
-187.749969
 21
81.999847
  0
LINE
  8
0
  6
DASHED
 10
-200.049988
 20
69.999947
 11
-200.049988
 21
73.199951
  0
LINE
  8
0
  6
CENTER
 10
-196.749969
 20
90.999847
 11
-196.749969
 21
64.999947
  0
LINE
  8
0
  6
DASHED
 10
-193.449951
 20
69.999947
 11
-193.449951
 21
73.199951
  0
LINE
  8
0
 10
290.000122
 20
67.999878
 11
314.000122
 21
67.999878
  0
LINE
  8
0
 10
298.000122
 20
72.999878
 11
314.000122
 21
72.999878
  0
LINE
  8
0
 10
295.000122
 20
88.999878
 11
295.000122
 21
75.999878
  0
LINE
  8
0
 10
314.000122
 20
72.999878
 11
314.000122
 21
67.999878
  0
LINE
  8
0
 10
290.000122
 20
88.999878
 11
290.000122
 21
67.999878
  0
LINE
  8
0
 10
290.000122
 20
88.999878
 11
295.000122
 21
88.999878
  0
LINE
  8
0
  6
CENTER
 10
285.000122
 20
78.999878
 11
302.300110
 21
78.999878
  0
LINE
  8
0
  6
DASHED
 10
295.500122
 20
74.341568
 11
295.500122
 21
71.999878
  0
LINE
  8
0
  6
DASHED
 10
295.500122
 20
71.999878
 11
309.500122
 21
71.999878
  0
LINE
  8
0
  6
DASHED
 10
298.000122
 20
71.999878
 11
298.000122
 21
67.999878
  0
LINE
  8
0
  6
CENTER
 10
302.500122
 20
77.999878
 11
302.500122
 21
62.999878
  0
LINE
  8
0
  6
DASHED
 10
307.000122
 20
71.999878
 11
307.000122
 21
67.999878
  0
LINE
  8
0
  6
DASHED
 10
309.500122
 20
72.999878
 11
309.500122
 21
71.999878
  0
LINE
  8
0
 10
290.000061
 20
314.966492
 11
295.000122
 21
314.966492
  0
LINE
  8
0
 10
290.000061
 20
285.033508
 11
295.000122
 21
285.033508
  0
LINE
  8
0
  6
CENTER
 10
285.000122
 20
279.000000
 11
302.300110
 21
279.000000
  0
LINE
  8
0
 10
295.000122
 20
329.000000
 11
295.000122
 21
271.000000
  0
LINE
  8
0
 10
314.000122
 20
329.000000
 11
314.000122
 21
271.000000
  0
LINE
  8
0
 10
290.000061
 20
271.000000
 11
314.000122
 21
271.000000
  0
LINE
  8
0
 10
290.000061
 20
329.000000
 11
314.000122
 21
329.000000
  0
LINE
  8
0
 10
290.000061
 20
329.000000
 11
290.000061
 21
271.000000
  0
LINE
  8
0
  6
CENTER
 10
285.000122
 20
321.000000
 11
302.300110
 21
321.000000
  0
LINE
  8
0
  6
CENTER
 10
302.500122
 20
301.000000
 11
302.500122
 21
323.000000
  0
LINE
  8
0
  6
CENTER
 10
291.500122
 20
312.000000
 11
313.500122
 21
312.000000
  0
LINE
  8
0
  6
CENTER
 10
302.500122
 20
299.000000
 11
302.500122
 21
277.000000
  0
LINE
  8
0
  6
CENTER
 10
291.500122
 20
288.000000
 11
313.500122
 21
288.000000
  0
LINE
  8
0
 10
551.000000
 20
81.309097
 11
553.000000
 21
80.154388
  0
LINE
  8
0
 10
507.000153
 20
77.845139
 11
509.000183
 21
76.690414
  0
LINE
  8
0
 10
544.966736
 20
88.999855
 11
559.000122
 21
88.999855
  0
LINE
  8
0
 10
507.000122
 20
80.154518
 11
507.000122
 21
77.845070
  0
LINE
  8
0
 10
509.000275
 20
81.309105
 11
507.000244
 21
80.154381
  0
LINE
  8
0
 10
511.000153
 20
80.154602
 11
509.000122
 21
81.309326
  0
LINE
  8
0
 10
511.000122
 20
77.845131
 11
511.000122
 21
80.154579
  0
LINE
  8
0
 10
509.000183
 20
76.690399
 11
511.000214
 21
77.845123
  0
LINE
  8
0
 10
549.000061
 20
80.154457
 11
551.000183
 21
81.309196
  0
LINE
  8
0
 10
553.000122
 20
80.154518
 11
553.000122
 21
77.845070
  0
LINE
  8
0
 10
553.000000
 20
77.845123
 11
550.999939
 21
76.690376
  0
LINE
  8
0
 10
549.000122
 20
77.845131
 11
549.000122
 21
80.154579
  0
LINE
  8
0
 10
551.000122
 20
76.690468
 11
549.000061
 21
77.845200
  0
LINE
  8
0
 10
501.000122
 20
67.999855
 11
559.000122
 21
67.999855
  0
LINE
  8
0
 10
501.000122
 20
88.999855
 11
515.033508
 21
88.999855
  0
LINE
  8
0
 10
559.000122
 20
88.999855
 11
559.000122
 21
67.999855
  0
LINE
  8
0
 10
501.000122
 20
88.999855
 11
501.000122
 21
67.999855
  0
LINE
  8
0
 10
501.000122
 20
72.999855
 11
559.000122
 21
72.999855
  0
LINE
  8
0
  6
DASHED
 10
511.000122
 20
72.999855
 11
511.000122
 21
71.999855
  0
LINE
  8
0
  6
CENTER
 10
509.000183
 20
87.999855
 11
509.000183
 21
69.999855
  0
LINE
  8
0
  6
CENTER
 10
500.000183
 20
78.999855
 11
518.000183
 21
78.999855
  0
LINE
  8
0
  6
DASHED
 10
513.500122
 20
71.999855
 11
513.500122
 21
67.999855
  0
LINE
  8
0
  6
DASHED
 10
511.000122
 20
71.999855
 11
525.000122
 21
71.999855
  0
LINE
  8
0
  6
CENTER
 10
518.000122
 20
77.999855
 11
518.000122
 21
62.999855
  0
LINE
  8
0
  6
DASHED
 10
522.500122
 20
71.999855
 11
522.500122
 21
67.999855
  0
LINE
  8
0
  6
DASHED
 10
525.000122
 20
72.999855
 11
525.000122
 21
71.999855
  0
LINE
  8
0
  6
DASHED
 10
535.000122
 20
72.999855
 11
535.000122
 21
71.999855
  0
LINE
  8
0
  6
DASHED
 10
549.000122
 20
71.999855
 11
535.000122
 21
71.999855
  0
LINE
  8
0
  6
DASHED
 10
537.500122
 20
71.999855
 11
537.500122
 21
67.999855
  0
LINE
  8
0
  6
CENTER
 10
542.000122
 20
77.999855
 11
542.000122
 21
62.999855
  0
LINE
  8
0
  6
DASHED
 10
546.500122
 20
71.999855
 11
546.500122
 21
67.999855
  0
LINE
  8
0
  6
DASHED
 10
549.000122
 20
72.999855
 11
549.000122
 21
71.999855
  0
LINE
  8
0
  6
CENTER
 10
551.000061
 20
87.999855
 11
551.000061
 21
69.999855
  0
LINE
  8
0
  6
CENTER
 10
560.000061
 20
78.999855
 11
542.000061
 21
78.999855
  0
LINE
  8
0
 10
-127.750092
 20
-409.414978
 11
-127.750092
 21
-420.814972
  0
LINE
  8
0
 10
-128.550140
 20
-421.615021
 11
-127.750107
 21
-420.814972
  0
LINE
  8
0
 10
-128.550003
 20
-408.614899
 11
-127.750015
 21
-409.414886
  0
LINE
  8
0
 10
-128.550095
 20
-408.614990
 11
-128.550095
 21
-421.614990
  0
LINE
  8
0
 10
-135.750092
 20
-408.614990
 11
-128.550095
 21
-408.614990
  0
LINE
  8
0
 10
-135.750092
 20
-421.614990
 11
-128.550095
 21
-421.614990
  0
LINE
  8
0
 10
-107.750092
 20
-425.114990
 11
-107.750092
 21
-429.114990
  0
LINE
  8
0
 10
-132.750092
 20
-425.114990
 11
-107.750092
 21
-425.114990
  0
LINE
  8
0
 10
-139.750092
 20
-405.114990
 11
-135.750092
 21
-405.114990
  0
LINE
  8
0
 10
-135.750092
 20
-405.114990
 11
-135.750092
 21
-422.114990
  0
LINE
  8
0
 10
-132.750092
 20
-429.114990
 11
-107.750092
 21
-429.114990
  0
LINE
  8
0
 10
-139.750092
 20
-405.114990
 11
-139.750092
 21
-422.114990
  0
LINE
  8
0
  6
CENTER
 10
-152.750092
 20
-415.114990
 11
-122.750092
 21
-415.114990
  0
LINE
  8
0
  6
CENTER
 10
-117.750092
 20
-420.114990
 11
-117.750092
 21
-434.114990
  0
LINE
  8
0
  6
DASHED
 10
-122.250092
 20
-425.114990
 11
-122.250092
 21
-429.114990
  0
LINE
  8
0
  6
DASHED
 10
-113.250092
 20
-425.114990
 11
-113.250092
 21
-429.114990
  0
LINE
  8
0
 10
-139.750031
 20
-113.114975
 11
-139.750031
 21
-185.114975
  0
LINE
  8
0
 10
-127.750031
 20
-169.414963
 11
-127.750031
 21
-180.814957
  0
LINE
  8
0
 10
-128.550034
 20
-181.614990
 11
-127.750046
 21
-180.815002
  0
LINE
  8
0
 10
-139.750031
 20
-167.114975
 11
-135.750031
 21
-167.114975
  0
LINE
  8
0
 10
-139.750031
 20
-131.114975
 11
-135.750031
 21
-131.114975
  0
LINE
  8
0
 10
-107.750031
 20
-167.114975
 11
-107.750031
 21
-185.114975
  0
LINE
  8
0
 10
-127.750031
 20
-117.414963
 11
-127.750031
 21
-128.814957
  0
LINE
  8
0
 10
-135.750031
 20
-129.614975
 11
-128.550034
 21
-129.614975
  0
LINE
  8
0
 10
-135.750031
 20
-116.614975
 11
-128.550034
 21
-116.614975
  0
LINE
  8
0
 10
-128.550034
 20
-116.614975
 11
-128.550034
 21
-129.614975
  0
LINE
  8
0
 10
-128.549957
 20
-116.614914
 11
-127.749969
 21
-117.414902
  0
LINE
  8
0
 10
-128.550034
 20
-129.615005
 11
-127.750046
 21
-128.815018
  0
LINE
  8
0
 10
-128.549988
 20
-168.614899
 11
-127.749985
 21
-169.414886
  0
LINE
  8
0
 10
-128.550034
 20
-168.614975
 11
-128.550034
 21
-181.614975
  0
LINE
  8
0
 10
-135.750031
 20
-168.614975
 11
-128.550034
 21
-168.614975
  0
LINE
  8
0
 10
-135.750031
 20
-181.614975
 11
-128.550034
 21
-181.614975
  0
LINE
  8
0
 10
-107.750031
 20
-113.114975
 11
-107.750031
 21
-131.114975
  0
LINE
  8
0
 10
-135.750031
 20
-113.114975
 11
-135.750031
 21
-185.114975
  0
LINE
  8
0
 10
-139.750031
 20
-113.114975
 11
-107.750031
 21
-113.114975
  0
LINE
  8
0
 10
-139.750031
 20
-185.114975
 11
-107.750031
 21
-185.114975
  0
LINE
  8
0
  6
CENTER
 10
-152.750031
 20
-123.114975
 11
-109.250031
 21
-123.114975
  0
LINE
  8
0
  6
CENTER
 10
-117.750031
 20
-114.614975
 11
-117.750031
 21
-131.614975
  0
LINE
  8
0
  6
CENTER
 10
-152.750031
 20
-175.114975
 11
-109.250031
 21
-175.114975
  0
LINE
  8
0
  6
CENTER
 10
-117.750031
 20
-166.614975
 11
-117.750031
 21
-183.614975
  0
LINE
  8
0
 10
194.250015
 20
-411.651123
 11
191.250015
 21
-413.383179
  0
LINE
  8
0
 10
191.249924
 20
-416.847015
 11
194.249924
 21
-418.579071
  0
LINE
  8
0
 10
142.249725
 20
-418.579193
 11
139.249725
 21
-416.847137
  0
LINE
  8
0
 10
142.249786
 20
-411.651001
 11
145.249786
 21
-413.383057
  0
LINE
  8
0
 10
186.249924
 20
-425.114929
 11
186.249924
 21
-429.114929
  0
LINE
  8
0
 10
150.249924
 20
-425.114868
 11
150.249924
 21
-429.114868
  0
LINE
  8
0
 10
145.249924
 20
-413.382782
 11
145.249924
 21
-416.846893
  0
LINE
  8
0
 10
191.249924
 20
-413.382904
 11
191.249924
 21
-416.847015
  0
LINE
  8
0
 10
145.250061
 20
-416.847229
 11
142.250046
 21
-418.579285
  0
LINE
  8
0
 10
204.249832
 20
-429.114899
 11
132.249832
 21
-429.114899
  0
LINE
  8
0
 10
204.249893
 20
-405.114899
 11
186.249893
 21
-405.114899
  0
LINE
  8
0
 10
204.249847
 20
-425.114899
 11
132.249847
 21
-425.114899
  0
LINE
  8
0
 10
204.249924
 20
-405.114960
 11
204.249924
 21
-429.114960
  0
LINE
  8
0
 10
132.249924
 20
-405.114838
 11
132.249924
 21
-429.114838
  0
LINE
  8
0
 10
150.249893
 20
-405.114899
 11
132.249893
 21
-405.114899
  0
LINE
  8
0
 10
139.249924
 20
-416.846893
 11
139.249924
 21
-413.382782
  0
LINE
  8
0
 10
139.250076
 20
-413.383087
 11
142.250076
 21
-411.651031
  0
LINE
  8
0
 10
194.250046
 20
-418.579346
 11
197.250061
 21
-416.847290
  0
LINE
  8
0
 10
197.249924
 20
-416.847015
 11
197.249924
 21
-413.382904
  0
LINE
  8
0
 10
197.249893
 20
-413.382935
 11
194.249908
 21
-411.650909
  0
LINE
  8
0
  6
CENTER
 10
142.249924
 20
-405.114838
 11
142.249924
 21
-434.114838
  0
LINE
  8
0
  6
CENTER
 10
152.249863
 20
-415.114899
 11
132.249863
 21
-415.114899
  0
LINE
  8
0
  6
DASHED
 10
137.749924
 20
-425.114838
 11
137.749924
 21
-429.114838
  0
LINE
  8
0
  6
DASHED
 10
146.749924
 20
-425.114868
 11
146.749924
 21
-429.114868
  0
LINE
  8
0
  6
CENTER
 10
184.249863
 20
-415.114899
 11
204.249863
 21
-415.114899
  0
LINE
  8
0
  6
CENTER
 10
194.249924
 20
-405.114960
 11
194.249924
 21
-434.114960
  0
LINE
  8
0
  6
DASHED
 10
189.749924
 20
-425.114929
 11
189.749924
 21
-429.114929
  0
LINE
  8
0
  6
DASHED
 10
198.749924
 20
-425.114960
 11
198.749924
 21
-429.114960
  0
ARC
  8
0
 62
     5
 10
655.008484
 20
-465.668823
 40
6.635708
 50
291.688293
 51
0.000000
  0
ARC
  8
0
 62
     5
 10
652.796448
 20
-464.168060
 40
2.211920
 50
291.688660
 51
0.000000
  0
ARC
  8
0
 62
     5
 10
546.072388
 20
-470.092651
 40
4.423828
 50
0.000000
 51
90.000000
  0
ARC
  8
0
 62
     5
 10
582.568787
 20
-493.870697
 40
4.423798
 50
270.000000
 51
0.000000
  0
ARC
  8
0
 62
     5
 10
580.356750
 20
-472.304474
 40
6.635681
 50
0.000000
 51
90.000000
  0
ARC
  8
0
 62
     5
 10
620.723999
 20
-470.092651
 40
4.423828
 50
0.000000
 51
90.000000
  0
ARC
  8
0
 62
     5
 10
620.723999
 20
-473.626892
 40
4.423808
 50
294.999786
 51
0.000000
  0
ARC
  8
0
  6
PHANTOM
 10
-544.254578
 20
111.999939
 40
30.000017
 50
156.421890
 51
203.578094
  0
ARC
  8
0
  6
PHANTOM
 10
-597.730713
 20
84.999893
 40
30.000021
 50
329.999969
 51
30.000027
  0
ARC
  8
0
  6
PHANTOM
 10
-544.254517
 20
291.999939
 40
29.999985
 50
147.769028
 51
203.578110
  0
ARC
  8
0
  6
PHANTOM
 10
-599.245483
 20
267.999939
 40
29.999992
 50
327.769012
 51
23.578156
  0
ARC
  8
0
  6
PHANTOM
 10
-232.749817
 20
81.999779
 40
8.000000
 50
180.000000
 51
208.953232
  0
ARC
  8
0
  6
PHANTOM
 10
-232.750000
 20
117.999779
 40
8.000000
 50
90.000000
 51
179.999939
  0
ARC
  8
0
  6
PHANTOM
 10
-196.750000
 20
117.999977
 40
8.000000
 50
0.000000
 51
90.000000
  0
ARC
  8
0
  6
PHANTOM
 10
-196.749817
 20
81.999977
 40
8.000002
 50
331.043152
 51
0.000000
  0
ARC
  8
0
  6
PHANTOM
 10
-241.949860
 20
79.799805
 40
0.800003
 50
180.000000
 51
0.000000
  0
ARC
  8
0
  6
PHANTOM
 10
-240.299835
 20
79.799805
 40
0.850003
 50
112.406876
 51
180.000000
  0
ARC
  8
0
  6
PHANTOM
 10
-241.949890
 20
89.999802
 40
0.800003
 50
0.000000
 51
180.000000
  0
ARC
  8
0
  6
PHANTOM
 10
-240.749969
 20
121.999802
 40
2.000000
 50
90.000000
 51
180.000000
  0
ARC
  8
0
  6
PHANTOM
 10
-243.631958
 20
115.978432
 40
8.027240
 50
282.033325
 51
291.040405
  0
ARC
  8
0
  6
PHANTOM
 10
-241.749939
 20
107.149551
 40
1.000001
 50
102.033333
 51
180.000000
  0
ARC
  8
0
  6
PHANTOM
 10
-187.749939
 20
107.149704
 40
1.000000
 50
0.000000
 51
77.966667
  0
ARC
  8
0
  6
PHANTOM
 10
-187.549835
 20
79.799957
 40
0.800003
 50
180.000000
 51
0.000000
  0
ARC
  8
0
  6
PHANTOM
 10
-189.199860
 20
79.799957
 40
0.850006
 50
0.000000
 51
67.590828
  0
ARC
  8
0
  6
PHANTOM
 10
-187.549866
 20
89.999954
 40
0.800003
 50
0.000000
 51
180.000000
  0
ARC
  8
0
  6
PHANTOM
 10
-188.749969
 20
121.999954
 40
2.000000
 50
0.000000
 51
90.000000
  0
ARC
  8
0
  6
PHANTOM
 10
-185.867981
 20
115.978600
 40
8.027239
 50
248.959595
 51
257.966675
  0
ARC
  8
0
  6
PHANTOM
 10
227.470001
 20
113.999947
 40
40.000004
 50
159.512726
 51
200.487274
  0
ARC
  8
0
  6
PHANTOM
 10
153.339417
 20
83.999931
 40
40.000008
 50
336.421814
 51
23.578173
  0
ARC
  8
0
  6
PHANTOM
 10
227.279358
 20
314.499939
 40
40.000000
 50
154.055573
 51
201.253769
  0
ARC
  8
0
  6
PHANTOM
 10
152.720642
 20
285.499939
 40
40.000000
 50
334.055511
 51
21.253805
  0
ARC
  8
0
  6
PHANTOM
 10
509.000122
 20
78.999802
 40
9.000000
 50
180.000000
 51
207.264359
  0
ARC
  8
0
  6
PHANTOM
 10
551.000122
 20
78.999893
 40
9.000001
 50
332.732239
 51
359.999695
  0
ARC
  8
0
  6
PHANTOM
 10
509.000000
 20
120.999802
 40
9.000000
 50
90.000000
 51
179.999954
  0
ARC
  8
0
  6
PHANTOM
 10
551.000000
 20
120.999893
 40
9.000000
 50
0.000000
 51
90.000000
  0
ARC
  8
0
  6
PHANTOM
 10
498.800049
 20
79.799881
 40
0.799988
 50
180.000000
 51
0.000000
  0
ARC
  8
0
  6
PHANTOM
 10
498.800049
 20
89.999878
 40
0.799988
 50
0.000000
 51
180.000000
  0
ARC
  8
0
  6
PHANTOM
 10
500.000000
 20
125.999878
 40
2.000000
 50
90.000000
 51
180.000000
  0
ARC
  8
0
  6
PHANTOM
 10
561.200073
 20
79.799973
 40
0.799988
 50
180.000000
 51
0.000000
  0
ARC
  8
0
  6
PHANTOM
 10
559.550049
 20
79.799973
 40
0.849976
 50
0.000000
 51
58.033211
  0
ARC
  8
0
  6
PHANTOM
 10
561.200073
 20
89.999969
 40
0.799988
 50
0.000000
 51
180.000000
  0
ARC
  8
0
  6
PHANTOM
 10
560.000000
 20
125.999969
 40
2.000000
 50
0.000000
 51
90.000000
  0
ARC
  8
0
  6
PHANTOM
 10
497.914429
 20
118.699478
 40
8.999996
 50
276.232178
 51
283.398956
  0
ARC
  8
0
  6
PHANTOM
 10
499.000000
 20
108.758575
 40
0.999996
 50
96.231819
 51
180.000000
  0
ARC
  8
0
  6
PHANTOM
 10
562.085571
 20
118.699570
 40
8.999999
 50
256.601044
 51
263.767609
  0
ARC
  8
0
  6
PHANTOM
 10
561.000000
 20
108.758667
 40
1.000000
 50
0.000000
 51
83.766441
  0
ARC
  8
0
  6
PHANTOM
 10
500.450073
 20
79.799881
 40
0.849998
 50
121.966789
 51
180.000000
  0
ARC
  8
0
  6
PHANTOM
 10
-204.912537
 20
-371.614990
 40
50.000008
 50
159.512695
 51
200.487274
  0
ARC
  8
0
  6
PHANTOM
 10
-297.575745
 20
-409.114990
 40
50.000004
 50
336.421814
 51
23.578176
  0
ARC
  8
0
  6
PHANTOM
 10
-204.912537
 20
-131.614990
 40
49.999996
 50
154.532455
 51
200.487274
  0
ARC
  8
0
  6
PHANTOM
 10
-298.587494
 20
-166.614990
 40
50.000004
 50
334.532440
 51
20.487318
  0
ARC
  8
0
  6
PHANTOM
 10
207.332993
 20
-366.115356
 40
11.000006
 50
259.083832
 51
264.821533
  0
ARC
  8
0
  6
PHANTOM
 10
206.249878
 20
-378.066406
 40
1.000000
 50
0.000000
 51
84.821640
  0
ARC
  8
0
  6
PHANTOM
 10
131.049774
 20
-417.314880
 40
0.800003
 50
180.000000
 51
314.012360
  0
ARC
  8
0
  6
PHANTOM
 10
131.049820
 20
-399.114899
 40
0.800004
 50
75.521652
 51
180.000000
  0
ARC
  8
0
  6
PHANTOM
 10
131.249908
 20
-356.114899
 40
2.000000
 50
90.000000
 51
180.000000
  0
ARC
  8
0
  6
PHANTOM
 10
205.449799
 20
-417.315063
 40
0.799993
 50
225.981445
 51
0.000000
  0
ARC
  8
0
  6
PHANTOM
 10
205.449844
 20
-399.115051
 40
0.800003
 50
0.000000
 51
104.478348
  0
ARC
  8
0
  6
PHANTOM
 10
205.249908
 20
-356.115051
 40
2.000000
 50
0.000000
 51
90.000000
  0
ARC
  8
0
  6
PHANTOM
 10
129.166794
 20
-366.115204
 40
11.000007
 50
275.178467
 51
280.916168
  0
ARC
  8
0
  6
PHANTOM
 10
130.249878
 20
-378.066223
 40
0.999992
 50
95.178360
 51
180.000000
  0
ARC
  8
0
  6
PHANTOM
 10
142.249725
 20
-415.114868
 40
11.000000
 50
180.000000
 51
204.622101
  0
ARC
  8
0
  6
PHANTOM
 10
142.249969
 20
-363.114868
 40
11.000000
 50
90.000000
 51
180.000000
  0
ARC
  8
0
  6
PHANTOM
 10
194.249969
 20
-363.115082
 40
11.000000
 50
0.000000
 51
90.000000
  0
ARC
  8
0
  6
PHANTOM
 10
194.249725
 20
-415.115082
 40
11.000003
 50
335.382263
 51
0.000000
  0
ARC
  8
0
 10
-468.549988
 20
76.200012
 40
3.000000
 50
180.000000
 51
270.000000
  0
ARC
  8
0
 10
-468.549988
 20
76.200012
 40
6.200012
 50
180.000000
 51
270.000000
  0
CIRCLE
  8
0
 10
-456.750061
 20
297.999969
 40
3.300000
  0
CIRCLE
  8
0
 10
-456.750061
 20
261.999969
 40
3.300000
  0
ARC
  8
0
 10
-445.250061
 20
279.999969
 40
12.500000
 50
106.260208
 51
253.739792
  0
ARC
  8
0
 10
-214.749939
 20
93.499947
 40
12.500000
 50
196.260208
 51
343.739807
  0
CIRCLE
  8
0
 10
-196.749969
 20
81.999847
 40
5.000000
  0
CIRCLE
  8
0
 10
-232.749908
 20
81.999847
 40
5.000000
  0
ARC
  8
0
 10
291.473999
 20
78.999878
 40
5.826130
 50
311.440247
 51
52.754890
  0
ARC
  8
0
 10
298.000122
 20
75.999878
 40
3.000000
 50
180.000000
 51
270.000000
  0
ARC
  8
0
 10
291.473969
 20
279.000000
 40
5.826142
 50
311.440125
 51
52.754890
  0
CIRCLE
  8
0
 10
302.500122
 20
312.000000
 40
4.500000
  0
CIRCLE
  8
0
 10
302.500122
 20
312.000000
 40
7.000000
  0
CIRCLE
  8
0
 10
302.500122
 20
288.000000
 40
7.000000
  0
CIRCLE
  8
0
 10
302.500122
 20
288.000000
 40
4.500000
  0
ARC
  8
0
 10
291.473969
 20
321.000000
 40
5.826142
 50
311.440125
 51
52.754890
  0
CIRCLE
  8
0
 10
551.000061
 20
78.999855
 40
5.500000
  0
ARC
  8
0
 10
530.000122
 20
98.999855
 40
17.999987
 50
213.749023
 51
326.250977
  0
CIRCLE
  8
0
 10
509.000183
 20
78.999855
 40
5.500000
  0
ARC
  8
0
 10
-132.750092
 20
-422.114990
 40
3.000000
 50
180.000000
 51
270.000000
  0
ARC
  8
0
 10
-132.750092
 20
-422.114990
 40
7.000000
 50
180.000000
 51
270.000000
  0
CIRCLE
  8
0
 10
-117.750031
 20
-123.114975
 40
4.500000
  0
CIRCLE
  8
0
 10
-117.750031
 20
-175.114975
 40
4.500000
  0
ARC
  8
0
 10
-94.250031
 20
-149.114975
 40
22.500004
 50
126.869911
 51
233.130066
  0
ARC
  8
0
 10
168.249924
 20
-391.614899
 40
22.500000
 50
216.869904
 51
323.130096
  0
CIRCLE
  8
0
 10
194.249863
 20
-415.114960
 40
6.500000
  0
CIRCLE
  8
0
 10
142.249863
 20
-415.114838
 40
6.500000
  0
TEXT
  8
0
 10
452.676331
 20
466.216309
 40
17.000000
  1
DATE : JUN ,1991
 50
0.000000
 41
1.052631
 51
0.000000
  7
STANDARD
  0
TEXT
  8
0
 10
-672.223755
 20
463.516205
 40
20.000000
  1
ORGA L SUPPORT
 50
0.000000
 41
1.052632
 51
0.000000
  7
STANDARD
  0
TEXT
  8
0
 10
-704.357117
 20
384.914032
 40
20.000000
  1
BORE : 32
 50
0.000000
 41
1.052632
 51
0.000000
  7
STANDARD
  0
TEXT
  8
0
 10
37.392860
 20
424.914032
 40
20.000000
  1
BORE : 40
 50
0.000000
 41
1.052632
 51
0.000000
  7
STANDARD
  0
TEXT
  8
0
 10
-704.357117
 20
-67.000061
 40
20.000000
  1
BORE : 50
 50
0.000000
 41
1.052632
 51
0.000000
  7
STANDARD
  0
ENDSEC
  0
EOF
