  0
SECTION
  2
HEADER
  0
ENDSEC
  0
SECTION
  2
TABLES
  0
TABLE
  2
LTYPE
 70
     4
  0
LTYPE
  2
CONTINUOUS
 70
    64
  3
Solid line
 72
    65
 73
     0
 40
0.000000
  0
LTYPE
  2
DASHED
 70
    64
  3
__ __ __ __ __ __ __ __ __ __ __ __ __ __ __
 72
    65
 73
     2
 40
3.500000
 49
2.000000
 49
-1.500000
  0
LTYPE
  2
CENTER
 70
    64
  3
____ _ ____ _ ____ _ ____ _ ____ _ ____ _ ____
 72
    65
 73
     4
 40
17.500000
 49
13.000000
 49
-1.500000
 49
1.500000
 49
-1.500000
  0
LTYPE
  2
PHANTOM
 70
    64
  3
_____ _ _ _____ _ _ _____ _ _ _____ _ _ ____  
 72
    65
 73
     6
 40
15.500000
 49
8.000000
 49
-1.500000
 49
1.500000
 49
-1.500000
 49
1.500000
 49
-1.500000
  0
LTYPE
  2
DASHED1
 70
    64
  3
__ __ __ __ __ __ __ __ __ __ __ __ __ __ __
 72
    65
 73
     2
 40
1.500000
 49
1.000000
 49
-0.500000
  0
LTYPE
  2
DASHED2
 70
    64
  3
__ __ __ __ __ __ __ __ __ __ __ __ __ __ __
 72
    65
 73
     2
 40
3.500000
 49
2.500000
 49
-1.000000
  0
LTYPE
  2
DASHED3
 70
    64
  3
__ __ __ __ __ __ __ __ __ __ __ __ __ __ __
 72
    65
 73
     2
 40
6.000000
 49
4.000000
 49
-2.000000
  0
LTYPE
  2
DASHED4
 70
    64
  3
__ __ __ __ __ __ __ __ __ __ __ __ __ __ __
 72
    65
 73
     2
 40
12.000000
 49
10.000000
 49
-2.000000
  0
LTYPE
  2
DASHED5
 70
    64
  3
__ __ __ __ __ __ __ __ __ __ __ __ __ __ __
 72
    65
 73
     2
 40
17.000000
 49
15.000000
 49
-2.000000
  0
LTYPE
  2
DASHED6
 70
    64
  3
__ __ __ __ __ __ __ __ __ __ __ __ __ __ __
 72
    65
 73
     2
 40
29.000000
 49
27.000000
 49
-2.000000
  0
LTYPE
  2
PHANTOM1
 70
    64
  3
_____ _ _ _____ _ _ _____ _ _ _____ _ _ ____  
 72
    65
 73
     6
 40
31.000000
 49
25.000000
 49
-1.500000
 49
1.000000
 49
-1.000000
 49
1.000000
 49
-1.500000
  0
LTYPE
  2
PHANTOM2
 70
    64
  3
_____ _ _ _____ _ _ _____ _ _ _____ _ _ ____  
 72
    65
 73
     6
 40
36.000000
 49
27.000000
 49
-1.500000
 49
2.500000
 49
-1.000000
 49
2.500000
 49
-1.500000
  0
LTYPE
  2
PHANTOM3
 70
    64
  3
_____ _ _ _____ _ _ _____ _ _ _____ _ _ ____  
 72
    65
 73
     6
 40
78.000000
 49
64.000000
 49
-2.000000
 49
4.000000
 49
-2.000000
 49
4.000000
 49
-2.000000
  0
LTYPE
  2
CENTER1
 70
    64
  3
____ _ ____ _ ____ _ ____ _ ____ _ ____ _ ____
 72
    65
 73
     4
 40
19.000000
 49
14.000000
 49
-1.000000
 49
3.000000
 49
-1.000000
  0
LTYPE
  2
CENTER2
 70
    64
  3
____ _ ____ _ ____ _ ____ _ ____ _ ____ _ ____
 72
    65
 73
     4
 40
28.500000
 49
25.000000
 49
-1.000000
 49
1.500000
 49
-1.000000
  0
LTYPE
  2
CENTER3
 70
    64
  3
____ _ ____ _ ____ _ ____ _ ____ _ ____ _ ____
 72
    65
 73
     4
 40
31.500000
 49
27.000000
 49
-1.000000
 49
2.500000
 49
-1.000000
  0
LTYPE
  2
CENTER4
 70
    64
  3
____ _ ____ _ ____ _ ____ _ ____ _ ____ _ ____
 72
    65
 73
     4
 40
50.000000
 49
45.000000
 49
-1.000000
 49
3.000000
 49
-1.000000
  0
LTYPE
  2
CENTER5
 70
    64
  3
____ _ ____ _ ____ _ ____ _ ____ _ ____ _ ____
 72
    65
 73
     4
 40
100.000000
 49
92.000000
 49
-2.000000
 49
4.000000
 49
-2.000000
  0
LTYPE
  2
SBK1
 70
    64
  3
______ _ _ _ ______ _ _ _ ______ _ _ _ _____  
 72
    65
 73
     8
 40
60.500000
 49
45.000000
 49
-2.000000
 49
2.500000
 49
-2.000000
 49
2.500000
 49
-2.000000
 49
2.500000
 49
-2.000000
  0
LTYPE
  2
SBK2
 70
    64
  3
______ _ _ _ ______ _ _ _ ______ _ _ _ _____  
 72
    65
 73
     8
 40
84.000000
 49
64.000000
 49
-2.000000
 49
4.000000
 49
-2.000000
 49
4.000000
 49
-2.000000
 49
4.000000
 49
-2.000000
  0
LTYPE
  2
STCH
 70
    64
  3
__ __ __ __ __ __ __ __ __ __ __ __ __ __ __
 72
    65
 73
     2
 40
3.000000
 49
1.000000
 49
-2.000000
  0
LTYPE
  2
MTCH
 70
    64
  3
_____ _ _ _____ _ _ _____ _ _ _____ _ _ ____  
 72
    65
 73
     6
 40
80.000000
 49
66.000000
 49
-2.000000
 49
4.000000
 49
-2.000000
 49
4.000000
 49
-2.000000
  0
ENDTAB
  0
TABLE
  2
LAYER
 70
     1
  0
LAYER
  2
0
 70
     0
 62
     7
  6
CONTINUOUS
  0
ENDTAB
  0
TABLE
  2
STYLE
 70
     1
  0
STYLE
  2
STANDARD
 70
     0
 40
0.000000
 41
1.000000
 50
0.000000
 71
     0
 42
0.200000
  3
txt
  4
BIGFONT
  0
ENDTAB
  0
TABLE
  2
VIEW
 70
     0
  0
ENDTAB
  0
ENDSEC
  0
SECTION
  2
BLOCKS
  0
ENDSEC
  0
SECTION
  2
ENTITIES
  0
POINT
  8
0
 10
-135.436798
 20
-57.279232
  0
POINT
  8
0
 10
-135.436798
 20
25.531475
  0
POINT
  8
0
 10
-43.436756
 20
-57.279228
  0
POINT
  8
0
 10
50.000004
 20
-57.279240
  0
POINT
  8
0
 10
49.999973
 20
-56.279228
  0
POINT
  8
0
 10
50.000000
 20
34.731487
  0
POINT
  8
0
 10
50.000008
 20
38.231499
  0
POINT
  8
0
 10
137.000061
 20
-57.279274
  0
POINT
  8
0
 10
140.500031
 20
-56.279251
  0
POINT
  8
0
 10
-111.436798
 20
-57.279232
  0
POINT
  8
0
 10
-111.436798
 20
25.531475
  0
POINT
  8
0
 10
-27.936756
 20
-57.279228
  0
POINT
  8
0
 10
74.000000
 20
-57.279240
  0
POINT
  8
0
 10
74.000000
 20
34.731487
  0
POINT
  8
0
 10
156.500061
 20
-57.279274
  0
LINE
  8
0
 62
     3
 10
-185.436783
 20
-127.279236
 11
-185.436783
 21
127.279236
  0
LINE
  8
0
 62
     3
 10
185.436783
 20
127.279236
 11
185.436783
 21
-127.279236
  0
LINE
  8
0
 62
     3
 10
-185.436783
 20
-127.279236
 11
185.436783
 21
-127.279236
  0
LINE
  8
0
 62
     3
 10
-185.436783
 20
127.279236
 11
185.436783
 21
127.279236
  0
LINE
  8
0
 62
     3
 10
-185.436783
 20
112.978195
 11
-109.164589
 21
112.978195
  0
LINE
  8
0
 62
     3
 10
-109.164589
 20
112.978195
 11
-109.164589
 21
127.279236
  0
LINE
  8
0
 62
     3
 10
109.164581
 20
-112.978210
 11
185.436783
 21
-112.978210
  0
LINE
  8
0
 62
     5
 10
129.190811
 20
-116.416870
 11
136.517700
 21
-116.416870
  0
LINE
  8
0
 62
     5
 10
129.190811
 20
-122.914322
 11
135.411774
 21
-122.914322
  0
LINE
  8
0
 62
     5
 10
129.190811
 20
-124.573227
 11
137.623672
 21
-124.573227
  0
LINE
  8
0
 62
     5
 10
129.190811
 20
-118.075790
 11
135.411774
 21
-118.075790
  0
LINE
  8
0
 62
     5
 10
129.190811
 20
-116.416870
 11
129.190811
 21
-118.075790
  0
LINE
  8
0
 62
     5
 10
137.623672
 20
-117.522827
 11
137.623672
 21
-124.573227
  0
LINE
  8
0
 62
     5
 10
135.411774
 20
-118.075790
 11
135.411774
 21
-122.914322
  0
LINE
  8
0
 62
     5
 10
138.867828
 20
-116.416870
 11
138.867828
 21
-118.075790
  0
LINE
  8
0
 62
     5
 10
146.747696
 20
-118.075790
 11
146.747696
 21
-123.467316
  0
LINE
  8
0
 62
     5
 10
144.535812
 20
-118.075790
 11
144.535812
 21
-122.914322
  0
LINE
  8
0
 62
     5
 10
129.190811
 20
-122.914322
 11
129.190811
 21
-124.573227
  0
LINE
  8
0
 62
     5
 10
138.867828
 20
-116.416870
 11
141.053345
 21
-116.416870
  0
LINE
  8
0
 62
     5
 10
138.867828
 20
-124.573227
 11
140.585297
 21
-124.573227
  0
LINE
  8
0
 62
     5
 10
138.867752
 20
-124.573166
 11
140.608795
 21
-118.075737
  0
LINE
  8
0
 62
     5
 10
138.867828
 20
-118.075790
 11
140.608841
 21
-118.075790
  0
LINE
  8
0
 62
     5
 10
140.585434
 20
-124.573364
 11
142.326385
 21
-118.075928
  0
LINE
  8
0
 62
     5
 10
142.876877
 20
-122.914322
 11
144.535812
 21
-122.914322
  0
LINE
  8
0
 62
     5
 10
142.876907
 20
-122.914337
 11
143.321396
 21
-124.573227
  0
LINE
  8
0
 62
     5
 10
143.321426
 20
-124.573227
 11
145.641785
 21
-124.573227
  0
LINE
  8
0
 62
     5
 10
142.326279
 20
-118.075790
 11
144.535812
 21
-118.075790
  0
LINE
  8
0
 62
     5
 10
142.770782
 20
-116.416870
 11
145.088776
 21
-116.416870
  0
LINE
  8
0
 62
     5
 10
141.053421
 20
-116.416908
 11
141.383072
 21
-115.186577
  0
LINE
  8
0
 62
     5
 10
142.770691
 20
-116.416794
 11
143.100342
 21
-115.186401
  0
LINE
  8
0
 62
     5
 10
148.130142
 20
-116.416870
 11
150.756775
 21
-116.416870
  0
LINE
  8
0
 62
     5
 10
148.130142
 20
-118.075790
 11
154.581039
 21
-118.075790
  0
LINE
  8
0
 62
     5
 10
150.756775
 20
-124.573227
 11
152.968643
 21
-124.573227
  0
LINE
  8
0
 62
     5
 10
148.130142
 20
-116.416870
 11
148.130142
 21
-118.075790
  0
LINE
  8
0
 62
     5
 10
156.286499
 20
-121.083908
 11
156.286499
 21
-122.914322
  0
LINE
  8
0
 62
     5
 10
148.130035
 20
-122.914253
 11
150.756714
 21
-121.689400
  0
LINE
  8
0
 62
     5
 10
148.130325
 20
-121.084061
 11
154.581238
 21
-118.075935
  0
LINE
  8
0
 62
     5
 10
148.130142
 20
-121.083908
 11
148.130142
 21
-122.914322
  0
LINE
  8
0
 62
     5
 10
152.968597
 20
-121.367157
 11
156.286514
 21
-122.914276
  0
LINE
  8
0
 62
     5
 10
154.171204
 20
-120.097549
 11
156.286728
 21
-121.084045
  0
LINE
  8
0
 62
     5
 10
156.286499
 20
-117.522827
 11
156.286499
 21
-118.406387
  0
LINE
  8
0
 62
     5
 10
150.756775
 20
-115.186523
 11
150.756775
 21
-116.416870
  0
LINE
  8
0
 62
     5
 10
152.968643
 20
-115.186523
 11
152.968643
 21
-116.416870
  0
LINE
  8
0
 62
     5
 10
152.968643
 20
-116.416870
 11
155.180557
 21
-116.416870
  0
LINE
  8
0
 62
     5
 10
150.756775
 20
-121.689514
 11
150.756775
 21
-124.573227
  0
LINE
  8
0
 62
     5
 10
152.968643
 20
-121.367203
 11
152.968643
 21
-124.573227
  0
LINE
  8
0
 62
     5
 10
154.171204
 20
-120.097557
 11
155.648163
 21
-119.408852
  0
LINE
  8
0
 62
     5
 10
163.751663
 20
-115.684204
 11
165.410553
 21
-115.684204
  0
LINE
  8
0
 62
     5
 10
156.977722
 20
-119.110947
 11
156.977722
 21
-120.896240
  0
LINE
  8
0
 62
     5
 10
165.410553
 20
-115.684204
 11
165.410553
 21
-116.416870
  0
LINE
  8
0
 62
     5
 10
163.751663
 20
-115.684204
 11
163.751663
 21
-116.041687
  0
LINE
  8
0
 62
     5
 10
161.539749
 20
-119.081879
 11
161.539749
 21
-124.573227
  0
LINE
  8
0
 62
     5
 10
156.977844
 20
-119.111031
 11
163.403137
 21
-116.555603
  0
LINE
  8
0
 62
     5
 10
156.977783
 20
-120.896362
 11
161.539810
 21
-119.081955
  0
LINE
  8
0
 62
     5
 10
161.539749
 20
-124.573227
 11
163.751663
 21
-124.573227
  0
LINE
  8
0
 62
     5
 10
163.751663
 20
-118.202194
 11
163.751663
 21
-124.573227
  0
LINE
  8
0
 62
     5
 10
163.751831
 20
-118.202301
 11
164.364929
 21
-117.958435
  0
LINE
  8
0
 62
     5
 10
141.383057
 20
-115.186523
 11
143.100449
 21
-115.186523
  0
LINE
  8
0
 62
     5
 10
145.849136
 20
-115.186523
 11
146.554138
 21
-115.186523
  0
LINE
  8
0
 62
     5
 10
150.756775
 20
-115.186523
 11
152.968643
 21
-115.186523
  0
LINE
  8
0
 62
     5
 10
145.849136
 20
-116.292480
 11
146.554138
 21
-116.292480
  0
LINE
  8
0
 62
     5
 10
145.849136
 20
-115.186523
 11
145.849136
 21
-116.292480
  0
LINE
  8
0
 62
     5
 10
146.554138
 20
-115.186523
 11
146.554138
 21
-116.292480
  0
LINE
  8
0
 62
     5
 10
146.968918
 20
-115.186523
 11
146.968918
 21
-116.292480
  0
LINE
  8
0
 62
     5
 10
147.756912
 20
-115.186523
 11
147.756912
 21
-116.292480
  0
LINE
  8
0
 62
     5
 10
146.968918
 20
-115.186523
 11
147.756912
 21
-115.186523
  0
LINE
  8
0
 62
     5
 10
146.968918
 20
-116.292480
 11
147.756912
 21
-116.292480
  0
LINE
  8
0
 62
     3
 10
109.164581
 20
112.978195
 11
185.436783
 21
112.978195
  0
LINE
  8
0
 62
     3
 10
109.164581
 20
127.279236
 11
109.164581
 21
112.978195
  0
LINE
  8
0
 62
     3
 10
109.164581
 20
-112.978210
 11
109.164581
 21
-127.279236
  0
LINE
  8
0
 10
0.000000
 20
-127.279236
 11
0.000000
 21
127.279236
  0
LINE
  8
0
  6
CENTER
 10
-43.436775
 20
-40.279236
 11
-43.436775
 21
-77.279236
  0
LINE
  8
0
  6
PHANTOM
 10
-58.936775
 20
-72.279236
 11
-50.936775
 21
-72.279236
  0
LINE
  8
0
  6
PHANTOM
 10
-57.936775
 20
-45.279236
 11
-43.436775
 21
-45.279236
  0
LINE
  8
0
  6
PHANTOM
 10
-48.815437
 20
-70.779236
 11
-43.436775
 21
-70.779236
  0
LINE
  8
0
  6
PHANTOM
 10
-50.936703
 20
-72.279327
 11
-49.876034
 21
-71.218666
  0
LINE
  8
0
  6
PHANTOM
 10
-58.936775
 20
-46.279236
 11
-58.936775
 21
-47.279236
  0
LINE
  8
0
  6
PHANTOM
 10
-58.936775
 20
-53.279236
 11
-58.936775
 21
-54.779236
  0
LINE
  8
0
  6
PHANTOM
 10
-58.936752
 20
-47.279205
 11
-54.701797
 21
-49.724255
  0
LINE
  8
0
  6
PHANTOM
 10
-58.936775
 20
-54.779236
 11
-55.436775
 21
-54.779236
  0
LINE
  8
0
  6
PHANTOM
 10
-58.936775
 20
-63.379234
 11
-58.936775
 21
-64.479240
  0
LINE
  8
0
  6
PHANTOM
 10
-55.436775
 20
-54.779236
 11
-55.436775
 21
-55.479233
  0
LINE
  8
0
  6
PHANTOM
 10
-57.636772
 20
-64.179237
 11
-56.436775
 21
-64.179237
  0
LINE
  8
0
  6
PHANTOM
 10
-58.936775
 20
-66.679237
 11
-57.336769
 21
-66.679237
  0
LINE
  8
0
  6
PHANTOM
 10
-56.936775
 20
-68.595757
 11
-56.936775
 21
-69.731888
  0
LINE
  8
0
  6
PHANTOM
 10
-58.936775
 20
-69.379234
 11
-58.936775
 21
-72.279236
  0
LINE
  8
0
  6
PHANTOM
 10
-58.936810
 20
-69.379318
 11
-56.936810
 21
-69.731972
  0
LINE
  8
0
  6
CENTER
 10
-63.436775
 20
-57.279236
 11
-24.936775
 21
-57.279236
  0
LINE
  8
0
  6
PHANTOM
 10
-55.436775
 20
-61.479225
 11
-55.436775
 21
-63.179237
  0
LINE
  8
0
  6
PHANTOM
 10
-55.436775
 20
-56.479240
 11
-55.436775
 21
-60.479240
  0
LINE
  8
0
  6
PHANTOM
 10
-58.136772
 20
-63.548920
 11
-58.136772
 21
-63.679237
  0
LINE
  8
0
  6
CENTER
 10
-160.436783
 20
-57.279236
 11
-96.436783
 21
-57.279236
  0
LINE
  8
0
  6
PHANTOM
 10
-155.436783
 20
-45.279236
 11
-101.436783
 21
-45.279236
  0
LINE
  8
0
  6
PHANTOM
 10
-155.436783
 20
-72.279236
 11
-101.436783
 21
-72.279236
  0
LINE
  8
0
  6
PHANTOM
 10
-156.145889
 20
-47.279232
 11
-102.145889
 21
-47.279232
  0
LINE
  8
0
  6
PHANTOM
 10
-156.555115
 20
-53.279236
 11
-102.555122
 21
-53.279236
  0
LINE
  8
0
  6
PHANTOM
 10
-153.547974
 20
-66.679237
 11
-132.436783
 21
-66.679237
  0
LINE
  8
0
  6
PHANTOM
 10
-154.149902
 20
-69.379234
 11
-100.149902
 21
-69.379234
  0
LINE
  8
0
  6
PHANTOM
 10
-153.920807
 20
-68.595757
 11
-99.920815
 21
-68.595757
  0
LINE
  8
0
  6
PHANTOM
 10
-156.275009
 20
-54.779236
 11
-102.275009
 21
-54.779236
  0
LINE
  8
0
  6
PHANTOM
 10
-153.535553
 20
-62.979240
 11
-132.436783
 21
-62.979240
  0
LINE
  8
0
  6
PHANTOM
 10
-117.436783
 20
-62.979240
 11
-99.535553
 21
-62.979240
  0
LINE
  8
0
  6
PHANTOM
 10
-117.436783
 20
-66.679237
 11
-99.547981
 21
-66.679237
  0
LINE
  8
0
  6
CENTER
 10
-160.436783
 20
25.531494
 11
-96.436783
 21
25.531494
  0
LINE
  8
0
  6
PHANTOM
 10
-155.436783
 20
10.031494
 11
-101.436783
 21
10.031494
  0
LINE
  8
0
  6
PHANTOM
 10
-153.592926
 20
20.831497
 11
-99.592941
 21
20.831497
  0
LINE
  8
0
  6
PHANTOM
 10
-58.936775
 20
-65.479240
 11
-58.936775
 21
-66.679237
  0
LINE
  8
0
  6
PHANTOM
 10
-156.541565
 20
-49.180935
 11
-102.541565
 21
-49.180935
  0
LINE
  8
0
  6
CENTER
 10
25.000000
 20
-57.279236
 11
89.000000
 21
-57.279236
  0
LINE
  8
0
  6
PHANTOM
 10
118.500000
 20
-41.779240
 11
137.000000
 21
-41.779240
  0
LINE
  8
0
  6
CENTER
 10
137.000000
 20
-36.779240
 11
137.000000
 21
-81.279236
  0
LINE
  8
0
  6
PHANTOM
 10
117.500000
 20
-76.279236
 11
127.000000
 21
-76.279236
  0
LINE
  8
0
  6
PHANTOM
 10
117.500000
 20
-42.779240
 11
117.500000
 21
-44.779240
  0
LINE
  8
0
  6
PHANTOM
 10
117.500000
 20
-51.529240
 11
117.500000
 21
-53.779240
  0
LINE
  8
0
  6
PHANTOM
 10
117.500015
 20
-44.779247
 11
122.419586
 21
-47.619560
  0
LINE
  8
0
  6
PHANTOM
 10
117.500000
 20
-72.679245
 11
117.500000
 21
-76.279236
  0
LINE
  8
0
  6
PHANTOM
 10
121.800003
 20
-53.779240
 11
121.800003
 21
-54.279240
  0
LINE
  8
0
  6
PHANTOM
 10
118.500000
 20
-64.779236
 11
118.500000
 21
-65.979248
  0
LINE
  8
0
  6
PHANTOM
 10
120.000000
 20
-71.610611
 11
120.000000
 21
-73.120056
  0
LINE
  8
0
  6
PHANTOM
 10
118.500000
 20
-69.279236
 11
119.600006
 21
-69.279236
  0
LINE
  8
0
  6
PHANTOM
 10
117.500000
 20
-72.679230
 11
120.000008
 21
-73.120049
  0
LINE
  8
0
  6
PHANTOM
 10
129.000000
 20
-74.279236
 11
137.000000
 21
-74.279236
  0
LINE
  8
0
  6
PHANTOM
 10
118.500000
 20
-67.979248
 11
118.500000
 21
-69.279236
  0
LINE
  8
0
  6
PHANTOM
 10
121.300018
 20
-53.779247
 11
121.800003
 21
-53.779247
  0
LINE
  8
0
  6
PHANTOM
 10
121.800003
 20
-55.279247
 11
121.800003
 21
-59.279247
  0
LINE
  8
0
  6
PHANTOM
 10
121.800003
 20
-60.279205
 11
121.800003
 21
-64.779236
  0
LINE
  8
0
  6
PHANTOM
 10
30.000000
 20
-41.779240
 11
84.000000
 21
-41.779240
  0
LINE
  8
0
  6
PHANTOM
 10
30.000000
 20
-76.279236
 11
84.000000
 21
-76.279236
  0
LINE
  8
0
  6
PHANTOM
 10
29.009644
 20
-44.779240
 11
83.009644
 21
-44.779240
  0
LINE
  8
0
  6
PHANTOM
 10
28.537643
 20
-51.529240
 11
82.537643
 21
-51.529240
  0
LINE
  8
0
  6
PHANTOM
 10
28.528778
 20
-47.619560
 11
82.528778
 21
-47.619560
  0
LINE
  8
0
  6
PHANTOM
 10
28.894173
 20
-53.779240
 11
52.000000
 21
-53.779240
  0
LINE
  8
0
  6
PHANTOM
 10
32.243416
 20
-69.279236
 11
53.000000
 21
-69.279236
  0
LINE
  8
0
  6
PHANTOM
 10
31.807961
 20
-71.610611
 11
85.807961
 21
-71.610611
  0
LINE
  8
0
  6
PHANTOM
 10
31.510231
 20
-72.679245
 11
85.510231
 21
-72.679245
  0
LINE
  8
0
  6
PHANTOM
 10
32.203316
 20
-63.979244
 11
53.000000
 21
-63.979244
  0
LINE
  8
0
  6
PHANTOM
 10
74.000000
 20
-53.779240
 11
82.894173
 21
-53.779240
  0
LINE
  8
0
  6
PHANTOM
 10
68.000000
 20
-69.279236
 11
86.243416
 21
-69.279236
  0
LINE
  8
0
  6
PHANTOM
 10
68.000000
 20
-63.979244
 11
86.203316
 21
-63.979244
  0
LINE
  8
0
  6
CENTER
 10
25.000000
 20
34.731495
 11
89.000000
 21
34.731495
  0
LINE
  8
0
  6
PHANTOM
 10
30.000000
 20
15.231495
 11
84.000000
 21
15.231495
  0
LINE
  8
0
  6
PHANTOM
 10
32.374306
 20
27.531494
 11
86.374313
 21
27.531494
  0
LINE
  8
0
 10
-111.436798
 20
-54.979233
 11
-111.436798
 21
-61.979229
  0
LINE
  8
0
 10
-117.436798
 20
-61.979229
 11
-111.436798
 21
-61.979229
  0
LINE
  8
0
 10
-145.436798
 20
-60.179272
 11
-135.436798
 21
-60.179272
  0
LINE
  8
0
 10
-135.436798
 20
-55.979279
 11
-135.436798
 21
-60.979275
  0
LINE
  8
0
 10
-135.436798
 20
-60.979275
 11
-133.436798
 21
-60.979275
  0
LINE
  8
0
 10
-133.436798
 20
-61.979229
 11
-132.436798
 21
-61.979229
  0
LINE
  8
0
 10
-145.436798
 20
-56.779278
 11
-135.436798
 21
-56.779278
  0
LINE
  8
0
 10
-135.436798
 20
-55.979279
 11
-133.436798
 21
-55.979279
  0
LINE
  8
0
 10
-117.436798
 20
-54.979233
 11
-117.436798
 21
-66.979233
  0
LINE
  8
0
 10
-133.436798
 20
-54.979233
 11
-111.436798
 21
-54.979233
  0
LINE
  8
0
 10
-127.436798
 20
-54.979233
 11
-127.436798
 21
-56.979237
  0
LINE
  8
0
 10
-133.436798
 20
-54.979233
 11
-133.436798
 21
-61.979229
  0
LINE
  8
0
 10
-132.436798
 20
-66.979233
 11
-117.436798
 21
-66.979233
  0
LINE
  8
0
 10
-132.436798
 20
-56.979237
 11
-132.436798
 21
-66.979233
  0
LINE
  8
0
 10
-132.436798
 20
-56.979237
 11
-117.436798
 21
-56.979237
  0
LINE
  8
0
 10
-124.936806
 20
-64.459618
 11
-125.386818
 21
-64.719429
  0
LINE
  8
0
 10
-125.386780
 20
-64.719421
 11
-125.386780
 21
-65.239044
  0
LINE
  8
0
 10
-125.386795
 20
-65.239052
 11
-124.936790
 21
-65.498863
  0
LINE
  8
0
 10
-124.936806
 20
-65.498863
 11
-124.486809
 21
-65.239059
  0
LINE
  8
0
 10
-124.486786
 20
-65.239044
 11
-124.486786
 21
-64.719437
  0
LINE
  8
0
 10
-124.486794
 20
-64.719437
 11
-124.936790
 21
-64.459633
  0
LINE
  8
0
  6
CENTER
 10
-148.436798
 20
-58.479229
 11
-108.436798
 21
-58.479229
  0
LINE
  8
0
  6
CENTER
 10
-114.436798
 20
-55.479279
 11
-114.436798
 21
-61.479275
  0
LINE
  8
0
  6
CENTER
 10
-124.936798
 20
-62.479237
 11
-124.936798
 21
-67.479233
  0
LINE
  8
0
  6
CENTER
 10
-127.436798
 20
-64.979233
 11
-122.436798
 21
-64.979233
  0
LINE
  8
0
 10
-117.436798
 20
13.531475
 11
-117.436798
 21
6.231480
  0
LINE
  8
0
 10
-111.436798
 20
13.531475
 11
-111.436798
 21
6.231480
  0
LINE
  8
0
 10
-133.436798
 20
13.231480
 11
-133.436798
 21
6.231480
  0
LINE
  8
0
 10
-135.436798
 20
12.381435
 11
-135.436798
 21
7.381432
  0
LINE
  8
0
 10
-133.436798
 20
6.231480
 11
-111.436798
 21
6.231480
  0
LINE
  8
0
 10
-127.436798
 20
13.231480
 11
-127.436798
 21
6.231480
  0
LINE
  8
0
 10
-135.436798
 20
12.381435
 11
-133.436798
 21
12.381435
  0
LINE
  8
0
 10
-135.436798
 20
7.381432
 11
-133.436798
 21
7.381432
  0
LINE
  8
0
 10
-145.436798
 20
11.581432
 11
-135.436798
 21
11.581432
  0
LINE
  8
0
 10
-145.436798
 20
8.181435
 11
-135.436798
 21
8.181435
  0
LINE
  8
0
 10
-133.436798
 20
13.531475
 11
-111.436798
 21
13.531475
  0
LINE
  8
0
 10
-117.436798
 20
6.231480
 11
-117.436798
 21
3.731480
  0
LINE
  8
0
 10
-132.436798
 20
3.731480
 11
-117.436798
 21
3.731480
  0
LINE
  8
0
 10
-132.436798
 20
6.231480
 11
-132.436798
 21
3.731480
  0
LINE
  8
0
  6
CENTER
 10
-114.436798
 20
9.231480
 11
-114.436798
 21
2.031475
  0
LINE
  8
0
 10
-62.736755
 20
-61.979233
 11
-55.936752
 21
-61.979233
  0
LINE
  8
0
 10
-62.736755
 20
-54.979233
 11
-55.936752
 21
-54.979233
  0
LINE
  8
0
 10
-62.736755
 20
-54.979233
 11
-62.736755
 21
-61.979233
  0
LINE
  8
0
 10
-55.936771
 20
-61.979218
 11
-55.436775
 21
-61.479221
  0
LINE
  8
0
 10
-55.936749
 20
-54.979221
 11
-55.436749
 21
-55.479221
  0
LINE
  8
0
 10
-55.436752
 20
-55.479233
 11
-55.436752
 21
-56.479233
  0
LINE
  8
0
 10
-55.436752
 20
-60.479233
 11
-55.436752
 21
-61.479233
  0
LINE
  8
0
 10
-59.436752
 20
-63.979233
 11
-59.436752
 21
-65.979233
  0
LINE
  8
0
 10
-58.936760
 20
-65.479233
 11
-59.436760
 21
-65.979233
  0
LINE
  8
0
 10
-58.936756
 20
-64.479233
 11
-59.436756
 21
-63.979233
  0
LINE
  8
0
 10
-60.936752
 20
-63.979233
 11
-59.436752
 21
-63.979233
  0
LINE
  8
0
 10
-58.136749
 20
-63.379227
 11
-58.136749
 21
-63.429230
  0
LINE
  8
0
 10
-60.936752
 20
-65.979233
 11
-59.436752
 21
-65.979233
  0
LINE
  8
0
 10
-60.936752
 20
-65.762733
 11
-59.220261
 21
-65.762733
  0
LINE
  8
0
 10
-58.936752
 20
-64.479233
 11
-58.936752
 21
-65.479233
  0
LINE
  8
0
 10
-65.236755
 20
-58.979233
 11
-65.236755
 21
-65.979233
  0
LINE
  8
0
 10
-64.236755
 20
-66.979233
 11
-61.936752
 21
-66.979233
  0
LINE
  8
0
 10
-60.936752
 20
-63.827087
 11
-60.936752
 21
-65.979233
  0
LINE
  8
0
 10
-62.936752
 20
-62.179230
 11
-61.936752
 21
-62.179230
  0
LINE
  8
0
 10
-61.736748
 20
-61.979237
 11
-61.936756
 21
-62.179241
  0
LINE
  8
0
 10
-62.936752
 20
-60.358948
 11
-62.936752
 21
-62.179230
  0
LINE
  8
0
 10
-60.936756
 20
-63.827072
 11
-58.673573
 21
-63.003338
  0
LINE
  8
0
 10
-60.936752
 20
-64.195732
 11
-59.220261
 21
-64.195732
  0
LINE
  8
0
  6
CENTER
 10
-67.236755
 20
-64.979233
 11
-56.936752
 21
-64.979233
  0
LINE
  8
0
  6
CENTER
 10
-64.736755
 20
-58.479233
 11
-53.436756
 21
-58.479233
  0
LINE
  8
0
 10
74.000000
 20
-53.779243
 11
74.000000
 21
-60.779243
  0
LINE
  8
0
 10
68.000000
 20
-60.779243
 11
74.000000
 21
-60.779243
  0
LINE
  8
0
 10
40.000004
 20
-58.979282
 11
50.000004
 21
-58.979282
  0
LINE
  8
0
 10
50.000004
 20
-54.779289
 11
50.000004
 21
-59.779285
  0
LINE
  8
0
 10
50.000004
 20
-59.779285
 11
52.000004
 21
-59.779285
  0
LINE
  8
0
 10
52.000004
 20
-60.779243
 11
53.000004
 21
-60.779243
  0
LINE
  8
0
 10
40.000004
 20
-55.579288
 11
50.000004
 21
-55.579288
  0
LINE
  8
0
 10
50.000004
 20
-54.779289
 11
52.000004
 21
-54.779289
  0
LINE
  8
0
 10
68.000000
 20
-53.779243
 11
68.000000
 21
-69.479248
  0
LINE
  8
0
 10
52.000004
 20
-53.779243
 11
74.000000
 21
-53.779243
  0
LINE
  8
0
 10
58.000004
 20
-53.779243
 11
58.000004
 21
-55.779247
  0
LINE
  8
0
 10
52.000004
 20
-53.779243
 11
52.000004
 21
-60.779243
  0
LINE
  8
0
 10
53.000004
 20
-55.779247
 11
53.000004
 21
-69.479248
  0
LINE
  8
0
 10
61.250023
 20
-66.546234
 11
60.500019
 21
-66.113220
  0
LINE
  8
0
 10
53.000004
 20
-55.779247
 11
68.000000
 21
-55.779247
  0
LINE
  8
0
 10
53.000004
 20
-69.479248
 11
68.000000
 21
-69.479248
  0
LINE
  8
0
 10
60.500019
 20
-66.113251
 11
59.750015
 21
-66.546265
  0
LINE
  8
0
 10
59.750008
 20
-66.546242
 11
59.750008
 21
-67.412270
  0
LINE
  8
0
 10
59.750011
 20
-67.412270
 11
60.500015
 21
-67.845284
  0
LINE
  8
0
 10
60.500011
 20
-67.845299
 11
61.250011
 21
-67.412285
  0
LINE
  8
0
 10
61.250015
 20
-67.412262
 11
61.250015
 21
-66.546234
  0
LINE
  8
0
  6
CENTER
 10
60.500004
 20
-63.979248
 11
60.500004
 21
-69.979248
  0
LINE
  8
0
  6
CENTER
 10
57.500004
 20
-66.979248
 11
63.500004
 21
-66.979248
  0
LINE
  8
0
  6
CENTER
 10
71.000000
 20
-54.279289
 11
71.000000
 21
-60.279289
  0
LINE
  8
0
 10
68.000000
 20
19.531483
 11
68.000000
 21
12.231487
  0
LINE
  8
0
 10
74.000000
 20
19.531483
 11
74.000000
 21
12.231487
  0
LINE
  8
0
 10
52.000000
 20
19.231487
 11
52.000000
 21
12.231487
  0
LINE
  8
0
 10
50.000000
 20
18.381443
 11
50.000000
 21
13.381439
  0
LINE
  8
0
 10
52.000000
 20
12.231487
 11
74.000000
 21
12.231487
  0
LINE
  8
0
 10
58.000000
 20
19.231487
 11
58.000000
 21
12.231487
  0
LINE
  8
0
  6
CENTER
 10
71.000000
 20
15.231487
 11
71.000000
 21
8.031483
  0
LINE
  8
0
 10
50.000000
 20
18.381443
 11
52.000000
 21
18.381443
  0
LINE
  8
0
 10
50.000000
 20
13.381439
 11
52.000000
 21
13.381439
  0
LINE
  8
0
 10
40.000000
 20
17.581440
 11
50.000000
 21
17.581440
  0
LINE
  8
0
 10
40.000000
 20
14.181442
 11
50.000000
 21
14.181442
  0
LINE
  8
0
 10
52.000000
 20
19.531483
 11
74.000000
 21
19.531483
  0
LINE
  8
0
 10
68.000000
 20
12.231487
 11
68.000000
 21
9.231487
  0
LINE
  8
0
 10
53.000000
 20
12.231487
 11
53.000000
 21
9.231487
  0
LINE
  8
0
 10
53.000000
 20
9.231487
 11
68.000000
 21
9.231487
  0
LINE
  8
0
 10
114.500076
 20
-60.779274
 11
121.300064
 21
-60.779274
  0
LINE
  8
0
 10
114.500076
 20
-53.779274
 11
121.300079
 21
-53.779274
  0
LINE
  8
0
 10
114.500061
 20
-53.779274
 11
114.500061
 21
-60.779274
  0
LINE
  8
0
 10
121.300034
 20
-60.779224
 11
121.800026
 21
-60.279236
  0
LINE
  8
0
 10
121.300049
 20
-53.779266
 11
121.800049
 21
-54.279266
  0
LINE
  8
0
 10
121.800064
 20
-54.279274
 11
121.800064
 21
-55.279274
  0
LINE
  8
0
 10
121.800064
 20
-59.279274
 11
121.800064
 21
-60.279274
  0
LINE
  8
0
 10
120.100067
 20
-64.779266
 11
120.100067
 21
-64.779266
  0
LINE
  8
0
 10
113.207611
 20
-69.479271
 11
116.000061
 21
-69.479271
  0
LINE
  8
0
 10
113.500061
 20
-55.779270
 11
113.867401
 21
-55.779270
  0
LINE
  8
0
 10
114.200073
 20
-61.079277
 11
116.200073
 21
-61.079277
  0
LINE
  8
0
 10
114.200073
 20
-59.079277
 11
114.200073
 21
-61.079277
  0
LINE
  8
0
 10
116.500061
 20
-60.779259
 11
116.200058
 21
-61.079258
  0
LINE
  8
0
 10
117.000061
 20
-65.183411
 11
117.000061
 21
-68.479271
  0
LINE
  8
0
 10
118.900055
 20
-64.086426
 11
117.000053
 21
-65.183395
  0
LINE
  8
0
 10
117.000061
 20
-65.479271
 11
118.000061
 21
-65.479271
  0
LINE
  8
0
 10
117.000061
 20
-68.479271
 11
118.000061
 21
-68.479271
  0
LINE
  8
0
 10
117.000061
 20
-68.208771
 11
118.270569
 21
-68.208771
  0
LINE
  8
0
 10
117.000061
 20
-65.749771
 11
118.270569
 21
-65.749771
  0
LINE
  8
0
 10
118.500061
 20
-65.979256
 11
118.000061
 21
-65.479256
  0
LINE
  8
0
 10
118.500092
 20
-67.979279
 11
118.000092
 21
-68.479279
  0
LINE
  8
0
 10
118.000061
 20
-65.479271
 11
118.000061
 21
-68.479271
  0
LINE
  8
0
 10
118.500061
 20
-65.979271
 11
118.500061
 21
-67.979279
  0
LINE
  8
0
  6
CENTER
 10
109.500069
 20
-66.979271
 11
120.500061
 21
-66.979271
  0
LINE
  8
0
  6
CENTER
 10
107.000061
 20
-57.279274
 11
167.000061
 21
-57.279274
  0
ARC
  8
0
 62
     5
 10
136.517700
 20
-117.522827
 40
1.105942
 50
0.000000
 51
90.000000
  0
ARC
  8
0
 62
     5
 10
145.641785
 20
-123.467316
 40
1.105949
 50
270.000000
 51
0.000000
  0
ARC
  8
0
 62
     5
 10
145.088776
 20
-118.075790
 40
1.658920
 50
0.000000
 51
90.000000
  0
ARC
  8
0
 62
     5
 10
155.180557
 20
-117.522827
 40
1.105942
 50
0.000000
 51
90.000000
  0
ARC
  8
0
 62
     5
 10
155.180557
 20
-118.406387
 40
1.105945
 50
294.999969
 51
0.000000
  0
ARC
  8
0
 62
     5
 10
163.751663
 20
-116.416870
 40
1.658920
 50
291.688385
 51
0.000000
  0
ARC
  8
0
 62
     5
 10
163.198654
 20
-116.041687
 40
0.552973
 50
291.688965
 51
0.000000
  0
ARC
  8
0
  6
PHANTOM
 10
-48.815437
 20
-72.279236
 40
1.500000
 50
90.000000
 51
135.000305
  0
ARC
  8
0
  6
PHANTOM
 10
-57.936775
 20
-46.279236
 40
1.000000
 50
90.000000
 51
180.000000
  0
ARC
  8
0
  6
PHANTOM
 10
-58.936775
 20
-48.979233
 40
4.299999
 50
270.000000
 51
350.021973
  0
ARC
  8
0
  6
PHANTOM
 10
-57.636772
 20
-63.679237
 40
0.500000
 50
180.000000
 51
270.000000
  0
ARC
  8
0
  6
PHANTOM
 10
-56.436775
 20
-63.179237
 40
1.000000
 50
270.000000
 51
0.000000
  0
ARC
  8
0
  6
PHANTOM
 10
-57.336769
 20
-67.679237
 40
1.000001
 50
293.577759
 51
90.000000
  0
ARC
  8
0
  6
PHANTOM
 10
-58.536781
 20
-63.379234
 40
0.399993
 50
110.000145
 51
180.000000
  0
ARC
  8
0
  6
PHANTOM
 10
-87.689056
 20
-51.279236
 40
14.999998
 50
156.421829
 51
203.578156
  0
ARC
  8
0
  6
PHANTOM
 10
-114.427162
 20
-64.779236
 40
14.999998
 50
330.000000
 51
30.000004
  0
ARC
  8
0
  6
PHANTOM
 10
-141.689056
 20
-51.279236
 40
14.999998
 50
156.421829
 51
203.578156
  0
ARC
  8
0
  6
PHANTOM
 10
-168.427155
 20
-64.779236
 40
15.000005
 50
330.000000
 51
29.999989
  0
ARC
  8
0
  6
PHANTOM
 10
-114.279587
 20
17.781494
 40
14.999997
 50
328.891083
 51
31.108929
  0
ARC
  8
0
  6
PHANTOM
 10
-168.279572
 20
17.781494
 40
15.000005
 50
328.891083
 51
31.108919
  0
ARC
  8
0
  6
PHANTOM
 10
118.500000
 20
-42.779240
 40
1.000000
 50
90.000000
 51
180.000000
  0
ARC
  8
0
  6
PHANTOM
 10
117.500000
 20
-46.479240
 40
5.049999
 50
270.000000
 51
346.949768
  0
ARC
  8
0
  6
PHANTOM
 10
119.600006
 20
-70.479248
 40
1.200000
 50
289.471283
 51
90.000000
  0
ARC
  8
0
  6
PHANTOM
 10
129.000000
 20
-76.279236
 40
2.000000
 50
90.000000
 51
180.000000
  0
ARC
  8
0
  6
PHANTOM
 10
120.950012
 20
-64.779236
 40
0.849999
 50
268.299561
 51
0.000000
  0
ARC
  8
0
  6
PHANTOM
 10
119.300003
 20
-64.779236
 40
0.799998
 50
120.000191
 51
180.000000
  0
ARC
  8
0
  6
PHANTOM
 10
102.437393
 20
-49.529240
 40
19.999998
 50
157.200974
 51
202.798981
  0
ARC
  8
0
  6
PHANTOM
 10
66.400284
 20
-66.779236
 40
20.000000
 50
331.640656
 51
28.359360
  0
ARC
  8
0
  6
PHANTOM
 10
48.437393
 20
-49.529240
 40
20.000002
 50
157.200989
 51
202.798981
  0
ARC
  8
0
  6
PHANTOM
 10
12.400284
 20
-66.779236
 40
20.000000
 50
331.640656
 51
28.359362
  0
ARC
  8
0
  6
PHANTOM
 10
66.537537
 20
24.981495
 40
20.000004
 50
330.823608
 51
29.176392
  0
ARC
  8
0
  6
PHANTOM
 10
12.537537
 20
24.981495
 40
20.000000
 50
330.823608
 51
29.176384
  0
CIRCLE
  8
0
 10
-124.936798
 20
-64.979233
 40
0.783500
  0
CIRCLE
  8
0
 10
-124.936798
 20
-64.979233
 40
1.000000
  0
CIRCLE
  8
0
 10
-114.436798
 20
-58.479275
 40
2.000000
  0
ARC
  8
0
 10
-147.247192
 20
-59.329273
 40
2.000006
 50
334.849457
 51
25.150532
  0
ARC
  8
0
 10
-143.626404
 20
-57.629276
 40
1.999994
 50
154.849182
 51
205.150528
  0
ARC
  8
0
 10
-114.436798
 20
7.298145
 40
2.266666
 50
208.072449
 51
331.927521
  0
ARC
  8
0
 10
-147.247192
 20
9.031433
 40
2.000006
 50
334.849457
 51
25.150532
  0
ARC
  8
0
 10
-143.626404
 20
10.731434
 40
1.999994
 50
154.849213
 51
205.150513
  0
ARC
  8
0
 10
-57.636749
 20
-63.429230
 40
0.500000
 50
180.000000
 51
0.000000
  0
ARC
  8
0
 10
-58.586761
 20
-63.429230
 40
1.450001
 50
0.000000
 51
90.000000
  0
ARC
  8
0
 10
-61.936752
 20
-65.979233
 40
1.000000
 50
270.000000
 51
0.000000
  0
ARC
  8
0
 10
-64.236755
 20
-65.979233
 40
1.000000
 50
180.000000
 51
270.000000
  0
ARC
  8
0
 10
-63.236755
 20
-58.979233
 40
2.000000
 50
93.922279
 51
180.000000
  0
ARC
  8
0
 10
-58.536758
 20
-63.379227
 40
0.399994
 50
0.000000
 51
110.000145
  0
ARC
  8
0
 10
-61.670090
 20
-58.479233
 40
2.266666
 50
118.072464
 51
241.927536
  0
ARC
  8
0
 10
-51.686756
 20
-58.479233
 40
4.250000
 50
151.927505
 51
208.072449
  0
CIRCLE
  8
0
 10
60.500004
 20
-66.979248
 40
1.229500
  0
CIRCLE
  8
0
 10
60.500004
 20
-66.979248
 40
1.500000
  0
CIRCLE
  8
0
 10
71.000000
 20
-57.279285
 40
2.000000
  0
ARC
  8
0
 10
38.189617
 20
-58.129284
 40
1.999999
 50
334.849365
 51
25.150625
  0
ARC
  8
0
 10
41.810390
 20
-56.429287
 40
2.000001
 50
154.849274
 51
205.150620
  0
ARC
  8
0
 10
71.000000
 20
13.298153
 40
2.266666
 50
208.072449
 51
331.927521
  0
ARC
  8
0
 10
41.810387
 20
16.731441
 40
2.000001
 50
154.849274
 51
205.150604
  0
ARC
  8
0
 10
38.189613
 20
15.031441
 40
1.999999
 50
334.849365
 51
25.150625
  0
ARC
  8
0
 10
119.300064
 20
-64.779266
 40
0.800003
 50
0.000000
 51
120.000191
  0
ARC
  8
0
 10
125.550064
 20
-57.279274
 40
4.250000
 50
151.927505
 51
208.072449
  0
ARC
  8
0
 10
120.900070
 20
-64.829277
 40
0.799998
 50
271.775055
 51
0.000000
  0
ARC
  8
0
 10
117.650070
 20
-64.829277
 40
4.050003
 50
0.000000
 51
90.000000
  0
ARC
  8
0
 10
116.000061
 20
-68.479271
 40
1.000000
 50
270.000000
 51
0.000000
  0
ARC
  8
0
 10
113.207611
 20
-68.479271
 40
1.000000
 50
187.229233
 51
270.000000
  0
ARC
  8
0
 10
201.500061
 20
-57.279270
 40
89.999992
 50
180.325516
 51
187.229401
  0
ARC
  8
0
 10
113.500061
 20
-57.779270
 40
2.000000
 50
90.000000
 51
182.508408
  0
ARC
  8
0
 10
115.566742
 20
-57.279274
 40
2.266666
 50
118.072464
 51
241.927536
  0
ARC
  8
0
 10
120.950073
 20
-64.779266
 40
0.849998
 50
180.000000
 51
268.299561
  0
TEXT
  8
0
 10
113.360985
 20
117.310349
 40
4.242641
  1
DATE : OCT ,1991
 50
0.000000
 41
1.052631
 51
0.000000
  7
STANDARD
  0
TEXT
  8
0
 10
-182.764969
 20
116.628723
 40
5.000000
  1
ORGA SENSOR SW
 50
0.000000
 41
1.052632
 51
0.000000
  7
STANDARD
  0
TEXT
  8
0
 10
106.598930
 20
58.478195
 40
5.000000
  1
     CS5M
 50
0.000000
 41
1.052632
 51
0.000000
  7
STANDARD
  0
TEXT
  8
0
 10
16.598932
 20
85.478195
 40
5.000000
  1
        ORGA 25
 50
0.000000
 41
1.052632
 51
0.000000
  7
STANDARD
  0
TEXT
  8
0
 10
16.598932
 20
94.478195
 40
5.000000
  1
MODEL : ORGA 20
 50
0.000000
 41
1.052632
 51
0.000000
  7
STANDARD
  0
TEXT
  8
0
 10
106.598930
 20
94.478195
 40
5.000000
  1
SW : ZG530
 50
0.000000
 41
1.052632
 51
0.000000
  7
STANDARD
  0
TEXT
  8
0
 10
106.598930
 20
85.478195
 40
5.000000
  1
     ZG553
 50
0.000000
 41
1.052632
 51
0.000000
  7
STANDARD
  0
TEXT
  8
0
 10
106.598930
 20
76.478195
 40
5.000000
  1
     CS3M
 50
0.000000
 41
1.052632
 51
0.000000
  7
STANDARD
  0
TEXT
  8
0
 10
106.598930
 20
67.478195
 40
5.000000
  1
     CS4M
 50
0.000000
 41
1.052632
 51
0.000000
  7
STANDARD
  0
TEXT
  8
0
 10
-168.401062
 20
94.478195
 40
5.000000
  1
MODEL : ORGA 16
 50
0.000000
 41
1.052632
 51
0.000000
  7
STANDARD
  0
TEXT
  8
0
 10
-78.401070
 20
94.478195
 40
5.000000
  1
SW : ZG530
 50
0.000000
 41
1.052632
 51
0.000000
  7
STANDARD
  0
TEXT
  8
0
 10
-78.401070
 20
85.478195
 40
5.000000
  1
     ZG553
 50
0.000000
 41
1.052632
 51
0.000000
  7
STANDARD
  0
TEXT
  8
0
 10
-78.401070
 20
76.478195
 40
5.000000
  1
     CS3M
 50
0.000000
 41
1.052632
 51
0.000000
  7
STANDARD
  0
TEXT
  8
0
 10
-78.401070
 20
67.478195
 40
5.000000
  1
     CS4M
 50
0.000000
 41
1.052632
 51
0.000000
  7
STANDARD
  0
TEXT
  8
0
 10
-78.401070
 20
58.478195
 40
5.000000
  1
     CS5M
 50
0.000000
 41
1.052632
 51
0.000000
  7
STANDARD
  0
ENDSEC
  0
EOF
