  0
SECTION
  2
HEADER
  0
ENDSEC
  0
SECTION
  2
TABLES
  0
TABLE
  2
LTYPE
 70
     4
  0
LTYPE
  2
CONTINUOUS
 70
    64
  3
Solid line
 72
    65
 73
     0
 40
0.000000
  0
LTYPE
  2
DASHED
 70
    64
  3
__ __ __ __ __ __ __ __ __ __ __ __ __ __ __
 72
    65
 73
     2
 40
3.500000
 49
2.000000
 49
-1.500000
  0
LTYPE
  2
CENTER
 70
    64
  3
____ _ ____ _ ____ _ ____ _ ____ _ ____ _ ____
 72
    65
 73
     4
 40
17.500000
 49
13.000000
 49
-1.500000
 49
1.500000
 49
-1.500000
  0
LTYPE
  2
PHANTOM
 70
    64
  3
_____ _ _ _____ _ _ _____ _ _ _____ _ _ ____  
 72
    65
 73
     6
 40
15.500000
 49
8.000000
 49
-1.500000
 49
1.500000
 49
-1.500000
 49
1.500000
 49
-1.500000
  0
LTYPE
  2
DASHED1
 70
    64
  3
__ __ __ __ __ __ __ __ __ __ __ __ __ __ __
 72
    65
 73
     2
 40
1.500000
 49
1.000000
 49
-0.500000
  0
LTYPE
  2
DASHED2
 70
    64
  3
__ __ __ __ __ __ __ __ __ __ __ __ __ __ __
 72
    65
 73
     2
 40
3.500000
 49
2.500000
 49
-1.000000
  0
LTYPE
  2
DASHED3
 70
    64
  3
__ __ __ __ __ __ __ __ __ __ __ __ __ __ __
 72
    65
 73
     2
 40
6.000000
 49
4.000000
 49
-2.000000
  0
LTYPE
  2
DASHED4
 70
    64
  3
__ __ __ __ __ __ __ __ __ __ __ __ __ __ __
 72
    65
 73
     2
 40
12.000000
 49
10.000000
 49
-2.000000
  0
LTYPE
  2
DASHED5
 70
    64
  3
__ __ __ __ __ __ __ __ __ __ __ __ __ __ __
 72
    65
 73
     2
 40
17.000000
 49
15.000000
 49
-2.000000
  0
LTYPE
  2
DASHED6
 70
    64
  3
__ __ __ __ __ __ __ __ __ __ __ __ __ __ __
 72
    65
 73
     2
 40
29.000000
 49
27.000000
 49
-2.000000
  0
LTYPE
  2
PHANTOM1
 70
    64
  3
_____ _ _ _____ _ _ _____ _ _ _____ _ _ ____  
 72
    65
 73
     6
 40
31.000000
 49
25.000000
 49
-1.500000
 49
1.000000
 49
-1.000000
 49
1.000000
 49
-1.500000
  0
LTYPE
  2
PHANTOM2
 70
    64
  3
_____ _ _ _____ _ _ _____ _ _ _____ _ _ ____  
 72
    65
 73
     6
 40
36.000000
 49
27.000000
 49
-1.500000
 49
2.500000
 49
-1.000000
 49
2.500000
 49
-1.500000
  0
LTYPE
  2
PHANTOM3
 70
    64
  3
_____ _ _ _____ _ _ _____ _ _ _____ _ _ ____  
 72
    65
 73
     6
 40
78.000000
 49
64.000000
 49
-2.000000
 49
4.000000
 49
-2.000000
 49
4.000000
 49
-2.000000
  0
LTYPE
  2
CENTER1
 70
    64
  3
____ _ ____ _ ____ _ ____ _ ____ _ ____ _ ____
 72
    65
 73
     4
 40
19.000000
 49
14.000000
 49
-1.000000
 49
3.000000
 49
-1.000000
  0
LTYPE
  2
CENTER2
 70
    64
  3
____ _ ____ _ ____ _ ____ _ ____ _ ____ _ ____
 72
    65
 73
     4
 40
28.500000
 49
25.000000
 49
-1.000000
 49
1.500000
 49
-1.000000
  0
LTYPE
  2
CENTER3
 70
    64
  3
____ _ ____ _ ____ _ ____ _ ____ _ ____ _ ____
 72
    65
 73
     4
 40
31.500000
 49
27.000000
 49
-1.000000
 49
2.500000
 49
-1.000000
  0
LTYPE
  2
CENTER4
 70
    64
  3
____ _ ____ _ ____ _ ____ _ ____ _ ____ _ ____
 72
    65
 73
     4
 40
50.000000
 49
45.000000
 49
-1.000000
 49
3.000000
 49
-1.000000
  0
LTYPE
  2
CENTER5
 70
    64
  3
____ _ ____ _ ____ _ ____ _ ____ _ ____ _ ____
 72
    65
 73
     4
 40
100.000000
 49
92.000000
 49
-2.000000
 49
4.000000
 49
-2.000000
  0
LTYPE
  2
SBK1
 70
    64
  3
______ _ _ _ ______ _ _ _ ______ _ _ _ _____  
 72
    65
 73
     8
 40
60.500000
 49
45.000000
 49
-2.000000
 49
2.500000
 49
-2.000000
 49
2.500000
 49
-2.000000
 49
2.500000
 49
-2.000000
  0
LTYPE
  2
SBK2
 70
    64
  3
______ _ _ _ ______ _ _ _ ______ _ _ _ _____  
 72
    65
 73
     8
 40
84.000000
 49
64.000000
 49
-2.000000
 49
4.000000
 49
-2.000000
 49
4.000000
 49
-2.000000
 49
4.000000
 49
-2.000000
  0
LTYPE
  2
STCH
 70
    64
  3
__ __ __ __ __ __ __ __ __ __ __ __ __ __ __
 72
    65
 73
     2
 40
3.000000
 49
1.000000
 49
-2.000000
  0
LTYPE
  2
MTCH
 70
    64
  3
_____ _ _ _____ _ _ _____ _ _ _____ _ _ ____  
 72
    65
 73
     6
 40
80.000000
 49
66.000000
 49
-2.000000
 49
4.000000
 49
-2.000000
 49
4.000000
 49
-2.000000
  0
ENDTAB
  0
TABLE
  2
LAYER
 70
     1
  0
LAYER
  2
0
 70
     0
 62
     7
  6
CONTINUOUS
  0
ENDTAB
  0
TABLE
  2
STYLE
 70
     1
  0
STYLE
  2
STANDARD
 70
     0
 40
0.000000
 41
1.000000
 50
0.000000
 71
     0
 42
0.200000
  3
txt
  4
BIGFONT
  0
ENDTAB
  0
TABLE
  2
VIEW
 70
     0
  0
ENDTAB
  0
ENDSEC
  0
SECTION
  2
BLOCKS
  0
ENDSEC
  0
SECTION
  2
ENTITIES
  0
LINE
  8
0
 10
78.274994
 20
-128.750000
 11
399.799988
 21
-128.750000
  0
LINE
  8
0
 10
78.274994
 20
3.250000
 11
78.274994
 21
-276.750000
  0
LINE
  8
0
 10
-155.487503
 20
3.250000
 11
-155.487503
 21
-276.750000
  0
LINE
  8
0
  6
CENTER
 62
     2
 10
-252.947556
 20
-212.168427
 11
-208.947556
 21
-212.168427
  0
LINE
  8
0
  6
CENTER
 62
     2
 10
-230.947556
 20
-236.168427
 11
-230.947556
 21
-208.181061
  0
LINE
  8
0
  6
CENTER
 62
     2
 10
-382.231720
 20
-212.168396
 11
-302.947571
 21
-212.168396
  0
LINE
  8
0
  6
CENTER
 62
     2
 10
-14.947540
 20
-212.168396
 11
29.052460
 21
-212.168396
  0
LINE
  8
0
  6
CENTER
 62
     2
 10
7.052460
 20
-236.168396
 11
7.052460
 21
-174.168396
  0
LINE
  8
0
  6
CENTER
 62
     2
 10
-134.947540
 20
-212.168365
 11
-57.947540
 21
-212.168365
  0
LINE
  8
0
 10
-399.250000
 20
3.250000
 11
399.799988
 21
3.250000
  0
LINE
  8
0
  6
CENTER
 62
     2
 10
286.209167
 20
-72.301605
 11
330.209167
 21
-72.301605
  0
LINE
  8
0
  6
CENTER
 62
     2
 10
308.209167
 20
-96.301598
 11
308.209167
 21
-50.301605
  0
LINE
  8
0
  6
CENTER
 62
     2
 10
172.875824
 20
-72.301575
 11
218.209167
 21
-72.301575
  0
LINE
  8
0
  6
PHANTOM
 10
213.209167
 20
-78.301605
 11
213.209167
 21
-55.301575
  0
LINE
  8
0
  6
CENTER
 62
     2
 10
293.209045
 20
-202.301682
 11
337.209045
 21
-202.301682
  0
LINE
  8
0
  6
CENTER
 62
     2
 10
315.209045
 20
-226.301666
 11
315.209045
 21
-181.801651
  0
LINE
  8
0
  6
CENTER
 62
     2
 10
148.542389
 20
-202.301651
 11
243.875717
 21
-202.301651
  0
LINE
  8
0
  6
CENTER
 62
     2
 10
193.209045
 20
-226.301636
 11
193.209045
 21
-181.801651
  0
LINE
  8
0
 10
-399.250000
 20
-8.750000
 11
399.799988
 21
-8.750000
  0
LINE
  8
0
 10
78.274994
 20
-140.750000
 11
399.799988
 21
-140.750000
  0
LINE
  8
0
 10
399.799988
 20
276.250000
 11
399.799988
 21
-276.750000
  0
LINE
  8
0
 10
-399.250000
 20
276.250000
 11
-399.250000
 21
-276.750000
  0
LINE
  8
0
 10
-399.250000
 20
276.250000
 11
399.799988
 21
276.250000
  0
LINE
  8
0
 10
-399.250000
 20
-276.750000
 11
399.799988
 21
-276.750000
  0
LINE
  8
0
 10
239.799988
 20
-251.750000
 11
399.799988
 21
-251.750000
  0
LINE
  8
0
 10
239.799988
 20
251.250000
 11
399.799988
 21
251.250000
  0
LINE
  8
0
 10
-399.250000
 20
251.250000
 11
-239.250000
 21
251.250000
  0
LINE
  8
0
 10
239.799988
 20
-251.750000
 11
239.799988
 21
-276.750000
  0
LINE
  8
0
 10
239.799988
 20
251.250000
 11
239.799988
 21
276.250000
  0
LINE
  8
0
 10
-239.250000
 20
276.250000
 11
-239.250000
 21
251.250000
  0
LINE
  8
0
 10
-232.893295
 20
79.708450
 11
-232.893295
 21
43.208450
  0
LINE
  8
0
 10
-232.893295
 20
43.208450
 11
89.106705
 21
43.208450
  0
LINE
  8
0
 10
-232.893295
 20
46.808449
 11
89.106705
 21
46.808449
  0
LINE
  8
0
 10
-232.893295
 20
47.877083
 11
89.106705
 21
47.877083
  0
LINE
  8
0
 10
-232.893295
 20
54.308453
 11
-181.893295
 21
54.308453
  0
LINE
  8
0
 10
-232.893295
 20
65.508453
 11
-215.893311
 21
65.508453
  0
LINE
  8
0
 10
-232.893295
 20
71.159241
 11
-215.893311
 21
71.159241
  0
LINE
  8
0
 10
-232.893295
 20
74.089104
 11
-215.893311
 21
74.089104
  0
LINE
  8
0
 10
-232.893295
 20
79.708450
 11
-215.893311
 21
79.708450
  0
LINE
  8
0
  6
CENTER
 62
     2
 10
-171.893311
 20
100.208450
 11
-171.893311
 21
38.208450
  0
LINE
  8
0
 10
-208.393311
 20
95.208450
 11
-208.393311
 21
65.208450
  0
LINE
  8
0
 10
-135.393311
 20
95.208450
 11
-135.393311
 21
65.208450
  0
LINE
  8
0
 10
-215.893311
 20
69.403946
 11
-127.893303
 21
69.403946
  0
LINE
  8
0
 10
-215.893311
 20
94.708450
 11
-127.893303
 21
94.708450
  0
LINE
  8
0
 10
-208.393311
 20
95.208450
 11
-135.393311
 21
95.208450
  0
LINE
  8
0
 10
-127.893303
 20
79.708450
 11
89.106705
 21
79.708450
  0
LINE
  8
0
 10
-127.893303
 20
74.089104
 11
89.106705
 21
74.089104
  0
LINE
  8
0
 10
-127.893303
 20
71.159241
 11
89.106705
 21
71.159241
  0
LINE
  8
0
 10
-127.893303
 20
65.508453
 11
17.106705
 21
65.508453
  0
LINE
  8
0
 10
-232.893295
 20
64.508453
 11
-184.893295
 21
64.508453
  0
LINE
  8
0
 10
-215.893311
 20
94.708450
 11
-215.893311
 21
65.208450
  0
LINE
  8
0
 10
-127.893303
 20
94.708450
 11
-127.893303
 21
65.208450
  0
LINE
  8
0
 10
-208.393311
 20
86.708450
 11
-135.393311
 21
86.708450
  0
LINE
  8
0
  6
CENTER
 62
     2
 10
28.106705
 20
84.708450
 11
28.106705
 21
38.208450
  0
LINE
  8
0
 10
89.106705
 20
79.708450
 11
89.106705
 21
43.208450
  0
LINE
  8
0
 10
-251.493301
 20
45.208450
 11
-232.893295
 21
45.208450
  0
LINE
  8
0
 10
-251.493301
 20
79.208450
 11
-232.893295
 21
79.208450
  0
LINE
  8
0
 10
-251.893295
 20
78.808449
 11
-251.893295
 21
78.023079
  0
LINE
  8
0
 10
-235.893295
 20
71.708450
 11
-232.893295
 21
71.708450
  0
LINE
  8
0
 10
-235.893295
 20
65.708450
 11
-232.893295
 21
65.708450
  0
LINE
  8
0
 10
-237.141800
 20
67.146004
 11
-235.164429
 21
70.570908
  0
LINE
  8
0
 10
-236.622192
 20
66.846001
 11
-234.644821
 21
70.270912
  0
LINE
  8
0
 10
-241.893295
 20
63.651825
 11
-241.893295
 21
60.765076
  0
LINE
  8
0
 10
-246.893295
 20
63.651825
 11
-246.893295
 21
60.765076
  0
LINE
  8
0
 10
-246.893295
 20
63.651829
 11
-244.393295
 21
65.095207
  0
LINE
  8
0
 10
-244.393326
 20
59.321709
 11
-241.893326
 21
60.765083
  0
LINE
  8
0
 10
-241.893280
 20
63.651817
 11
-244.393280
 21
65.095192
  0
LINE
  8
0
 10
-244.393295
 20
59.321701
 11
-246.893295
 21
60.765076
  0
LINE
  8
0
 10
-251.493301
 20
69.708450
 11
-248.093292
 21
69.708450
  0
LINE
  8
0
 10
-248.093292
 20
78.808449
 11
-248.093292
 21
69.708450
  0
LINE
  8
0
 10
-248.093292
 20
54.708450
 11
-248.093292
 21
45.608452
  0
LINE
  8
0
 10
-251.742767
 20
52.229172
 11
-249.028534
 21
52.229172
  0
LINE
  8
0
 10
-251.742783
 20
48.187721
 11
-249.028534
 21
48.187721
  0
LINE
  8
0
 10
-251.762360
 20
54.249893
 11
-249.028534
 21
54.249893
  0
LINE
  8
0
 10
-251.762329
 20
46.166992
 11
-249.028534
 21
46.166992
  0
LINE
  8
0
 10
-252.093292
 20
53.676682
 11
-252.093292
 21
46.740223
  0
LINE
  8
0
 10
-251.893295
 20
70.393814
 11
-251.893295
 21
54.023087
  0
LINE
  8
0
 10
-249.028534
 20
78.708450
 11
-248.093292
 21
78.708450
  0
LINE
  8
0
 10
-251.742767
 20
76.229172
 11
-249.028534
 21
76.229172
  0
LINE
  8
0
 10
-251.742783
 20
72.187721
 11
-249.028534
 21
72.187721
  0
LINE
  8
0
 10
-251.762344
 20
78.249893
 11
-249.028534
 21
78.249893
  0
LINE
  8
0
 10
-251.762329
 20
70.166992
 11
-249.028534
 21
70.166992
  0
LINE
  8
0
 10
-252.093292
 20
77.676682
 11
-252.093292
 21
70.740219
  0
LINE
  8
0
 10
-249.028534
 20
45.708450
 11
-248.093292
 21
45.708450
  0
LINE
  8
0
 10
-251.493301
 20
54.708450
 11
-248.093292
 21
54.708450
  0
LINE
  8
0
 10
-251.893295
 20
46.393818
 11
-251.893295
 21
45.608452
  0
LINE
  8
0
 10
-249.028534
 20
78.708450
 11
-249.028534
 21
69.708450
  0
LINE
  8
0
 10
-249.028534
 20
54.708450
 11
-249.028534
 21
45.708450
  0
LINE
  8
0
 10
-252.093292
 20
77.676682
 11
-251.762344
 21
78.249893
  0
LINE
  8
0
 10
-252.093292
 20
70.740227
 11
-251.762344
 21
70.167007
  0
LINE
  8
0
 10
-252.093292
 20
46.740219
 11
-251.762344
 21
46.167015
  0
LINE
  8
0
 10
-252.093277
 20
53.676678
 11
-251.762329
 21
54.249897
  0
LINE
  8
0
 10
107.706711
 20
45.208450
 11
89.106705
 21
45.208450
  0
LINE
  8
0
 10
107.706711
 20
79.208450
 11
89.106705
 21
79.208450
  0
LINE
  8
0
 10
108.106705
 20
78.808449
 11
108.106705
 21
78.023079
  0
LINE
  8
0
 10
92.106705
 20
71.708450
 11
89.106705
 21
71.708450
  0
LINE
  8
0
 10
92.106705
 20
65.708450
 11
89.106705
 21
65.708450
  0
LINE
  8
0
 10
91.377930
 20
66.845963
 11
93.355293
 21
70.270874
  0
LINE
  8
0
 10
90.858315
 20
67.145920
 11
92.835693
 21
70.570808
  0
LINE
  8
0
 10
98.106705
 20
63.651825
 11
98.106705
 21
60.765076
  0
LINE
  8
0
 10
103.106705
 20
63.651825
 11
103.106705
 21
60.765076
  0
LINE
  8
0
 10
103.106628
 20
63.651772
 11
100.606628
 21
65.095146
  0
LINE
  8
0
 10
100.606667
 20
59.321655
 11
98.106674
 21
60.765030
  0
LINE
  8
0
 10
98.106644
 20
63.651859
 11
100.606644
 21
65.095230
  0
LINE
  8
0
 10
100.606667
 20
59.321735
 11
103.106667
 21
60.765110
  0
LINE
  8
0
 10
107.706711
 20
69.708450
 11
104.306686
 21
69.708450
  0
LINE
  8
0
 10
104.306686
 20
78.808449
 11
104.306686
 21
69.708450
  0
LINE
  8
0
 10
104.306686
 20
54.708450
 11
104.306686
 21
45.608452
  0
LINE
  8
0
 10
107.956192
 20
52.229172
 11
105.241928
 21
52.229172
  0
LINE
  8
0
 10
107.956192
 20
48.187721
 11
105.241928
 21
48.187721
  0
LINE
  8
0
 10
107.975754
 20
54.249893
 11
105.241928
 21
54.249893
  0
LINE
  8
0
 10
107.975723
 20
46.166992
 11
105.241928
 21
46.166992
  0
LINE
  8
0
 10
108.306686
 20
53.676682
 11
108.306686
 21
46.740223
  0
LINE
  8
0
 10
108.106705
 20
70.393814
 11
108.106705
 21
54.023087
  0
LINE
  8
0
 10
105.241928
 20
78.708450
 11
104.306686
 21
78.708450
  0
LINE
  8
0
 10
107.956192
 20
76.229172
 11
105.241928
 21
76.229172
  0
LINE
  8
0
 10
107.956192
 20
72.187721
 11
105.241928
 21
72.187721
  0
LINE
  8
0
 10
107.975754
 20
78.249893
 11
105.241928
 21
78.249893
  0
LINE
  8
0
 10
107.975723
 20
70.166992
 11
105.241928
 21
70.166992
  0
LINE
  8
0
 10
108.306686
 20
77.676682
 11
108.306686
 21
70.740219
  0
LINE
  8
0
 10
105.241928
 20
45.708450
 11
104.306686
 21
45.708450
  0
LINE
  8
0
 10
107.706711
 20
54.708450
 11
104.306686
 21
54.708450
  0
LINE
  8
0
 10
108.106705
 20
46.393818
 11
108.106705
 21
45.608452
  0
LINE
  8
0
 10
105.241928
 20
78.708450
 11
105.241928
 21
69.708450
  0
LINE
  8
0
 10
105.241928
 20
54.708450
 11
105.241928
 21
45.708450
  0
LINE
  8
0
 10
108.306648
 20
77.676674
 11
107.975716
 21
78.249886
  0
LINE
  8
0
 10
108.306602
 20
70.740273
 11
107.975632
 21
70.167053
  0
LINE
  8
0
 10
108.306618
 20
46.740253
 11
107.975693
 21
46.167042
  0
LINE
  8
0
 10
108.306671
 20
53.676666
 11
107.975700
 21
54.249889
  0
LINE
  8
0
  6
CENTER
 62
     2
 10
113.940048
 20
62.208450
 11
-257.802338
 21
62.208450
  0
LINE
  8
0
 10
-160.893295
 20
65.208450
 11
-160.893295
 21
59.508446
  0
LINE
  8
0
 10
-166.893295
 20
59.508446
 11
-160.893295
 21
59.508446
  0
LINE
  8
0
 10
-194.893295
 20
61.308407
 11
-184.893295
 21
61.308407
  0
LINE
  8
0
 10
-184.893295
 20
65.208450
 11
-184.893295
 21
60.508404
  0
LINE
  8
0
 10
-184.893295
 20
60.508404
 11
-182.893295
 21
60.508404
  0
LINE
  8
0
 10
-182.893295
 20
59.508446
 11
-181.893295
 21
59.508446
  0
LINE
  8
0
 10
-166.893295
 20
65.208450
 11
-166.893295
 21
50.808441
  0
LINE
  8
0
 10
-176.893295
 20
65.208450
 11
-176.893295
 21
64.508446
  0
LINE
  8
0
 10
-182.893295
 20
65.208450
 11
-182.893295
 21
59.508446
  0
LINE
  8
0
 10
-181.893295
 20
64.508446
 11
-181.893295
 21
50.808441
  0
LINE
  8
0
 10
-173.643295
 20
53.741470
 11
-174.393295
 21
54.174484
  0
LINE
  8
0
 10
-181.893295
 20
64.508446
 11
-166.893295
 21
64.508446
  0
LINE
  8
0
 10
-181.893295
 20
50.808441
 11
-166.893295
 21
50.808441
  0
LINE
  8
0
 10
-174.393280
 20
54.174438
 11
-175.143280
 21
53.741425
  0
LINE
  8
0
 10
-175.143295
 20
53.741447
 11
-175.143295
 21
52.875420
  0
LINE
  8
0
 10
-175.143280
 20
52.875427
 11
-174.393280
 21
52.442413
  0
LINE
  8
0
 10
-174.393295
 20
52.442398
 11
-173.643280
 21
52.875412
  0
LINE
  8
0
 10
-173.643280
 20
52.875427
 11
-173.643280
 21
53.741455
  0
LINE
  8
0
 10
-215.893311
 20
65.208450
 11
-127.893303
 21
65.208450
  0
LINE
  8
0
 10
-160.893295
 20
64.508453
 11
15.106705
 21
64.508453
  0
LINE
  8
0
 10
39.106705
 20
66.508446
 11
39.106705
 21
59.508446
  0
LINE
  8
0
 10
33.106705
 20
59.508446
 11
39.106705
 21
59.508446
  0
LINE
  8
0
 10
5.106705
 20
61.308407
 11
15.106705
 21
61.308407
  0
LINE
  8
0
 10
15.106705
 20
65.508400
 11
15.106705
 21
60.508404
  0
LINE
  8
0
 10
15.106705
 20
60.508404
 11
17.106705
 21
60.508404
  0
LINE
  8
0
 10
17.106705
 20
59.508446
 11
18.106705
 21
59.508446
  0
LINE
  8
0
 10
33.106705
 20
66.508446
 11
33.106705
 21
50.808441
  0
LINE
  8
0
 10
17.106705
 20
66.508446
 11
39.106705
 21
66.508446
  0
LINE
  8
0
 10
23.106705
 20
66.508446
 11
23.106705
 21
64.508446
  0
LINE
  8
0
 10
17.106705
 20
66.508446
 11
17.106705
 21
59.508446
  0
LINE
  8
0
 10
18.106705
 20
64.508446
 11
18.106705
 21
50.808441
  0
LINE
  8
0
 10
26.356720
 20
53.741474
 11
25.606718
 21
54.174488
  0
LINE
  8
0
 10
18.106705
 20
64.508446
 11
33.106705
 21
64.508446
  0
LINE
  8
0
 10
18.106705
 20
50.808441
 11
33.106705
 21
50.808441
  0
LINE
  8
0
 10
25.606718
 20
54.174427
 11
24.856716
 21
53.741413
  0
LINE
  8
0
 10
24.856705
 20
53.741447
 11
24.856705
 21
52.875420
  0
LINE
  8
0
 10
24.856737
 20
52.875420
 11
25.606739
 21
52.442406
  0
LINE
  8
0
 10
25.606697
 20
52.442406
 11
26.356699
 21
52.875420
  0
LINE
  8
0
 10
26.356705
 20
52.875427
 11
26.356705
 21
53.741455
  0
LINE
  8
0
 10
39.106705
 20
65.508453
 11
89.106705
 21
65.508453
  0
LINE
  8
0
 10
39.106705
 20
64.508453
 11
89.106705
 21
64.508453
  0
LINE
  8
0
 10
33.106705
 20
54.308453
 11
89.106705
 21
54.308453
  0
LINE
  8
0
 10
-232.893295
 20
50.208450
 11
89.106705
 21
50.208450
  0
LINE
  8
0
 10
-166.893295
 20
54.308453
 11
18.106705
 21
54.308453
  0
LINE
  8
0
 10
89.106613
 20
186.208405
 11
89.106613
 21
146.208405
  0
LINE
  8
0
 10
-232.893387
 20
186.208405
 11
-232.893387
 21
146.208405
  0
LINE
  8
0
 10
89.106613
 20
146.208405
 11
-127.893372
 21
146.208405
  0
LINE
  8
0
 10
89.106613
 20
150.108398
 11
-127.893387
 21
150.108398
  0
LINE
  8
0
 10
89.106613
 20
154.308411
 11
-127.893372
 21
154.308411
  0
LINE
  8
0
 10
89.106613
 20
178.108398
 11
-127.893372
 21
178.108398
  0
LINE
  8
0
 10
89.106613
 20
182.308411
 11
-127.893372
 21
182.308411
  0
LINE
  8
0
 10
89.106613
 20
186.208405
 11
-127.893372
 21
186.208405
  0
LINE
  8
0
 10
89.106613
 20
173.208405
 11
-127.893372
 21
173.208405
  0
LINE
  8
0
 10
89.106613
 20
159.208405
 11
-127.893372
 21
159.208405
  0
LINE
  8
0
  6
CENTER
 62
     2
 10
-171.893387
 20
199.208420
 11
-171.893387
 21
133.208405
  0
LINE
  8
0
 10
-127.893372
 20
138.208405
 11
-215.893372
 21
138.208405
  0
LINE
  8
0
 10
-127.893372
 20
194.208405
 11
-215.893372
 21
194.208405
  0
LINE
  8
0
 10
-208.393372
 20
194.208420
 11
-208.393372
 21
138.208405
  0
LINE
  8
0
 10
-135.393387
 20
194.208420
 11
-135.393387
 21
138.208405
  0
LINE
  8
0
 10
-127.893387
 20
194.208420
 11
-127.893387
 21
138.208405
  0
LINE
  8
0
 10
-215.893372
 20
194.208420
 11
-215.893372
 21
138.208405
  0
LINE
  8
0
 10
-215.893372
 20
186.208405
 11
-232.893372
 21
186.208405
  0
LINE
  8
0
 10
-215.893372
 20
182.308411
 11
-232.893372
 21
182.308411
  0
LINE
  8
0
 10
-215.893372
 20
178.108398
 11
-232.893372
 21
178.108398
  0
LINE
  8
0
 10
-215.893372
 20
173.208405
 11
-232.893372
 21
173.208405
  0
LINE
  8
0
 10
-215.893372
 20
159.208405
 11
-232.893372
 21
159.208405
  0
LINE
  8
0
 10
-215.893372
 20
154.308411
 11
-232.893372
 21
154.308411
  0
LINE
  8
0
 10
-215.893372
 20
150.108398
 11
-232.893372
 21
150.108398
  0
LINE
  8
0
 10
-215.893372
 20
146.208405
 11
-232.893372
 21
146.208405
  0
LINE
  8
0
  6
CENTER
 62
     2
 10
28.106613
 20
191.208405
 11
28.106613
 21
138.207275
  0
LINE
  8
0
 10
-135.393387
 20
189.208405
 11
-208.393372
 21
189.208405
  0
LINE
  8
0
  6
CENTER
 62
     2
 10
-144.393387
 20
156.208405
 11
-144.393387
 21
145.183640
  0
LINE
  8
0
  6
CENTER
 62
     2
 10
-149.393387
 20
151.208405
 11
-139.393387
 21
151.208405
  0
LINE
  8
0
  6
CENTER
 62
     2
 10
-204.393387
 20
181.208405
 11
-194.393387
 21
181.208405
  0
LINE
  8
0
  6
CENTER
 62
     2
 10
-199.393387
 20
186.208405
 11
-199.393387
 21
176.208405
  0
LINE
  8
0
  6
CENTER
 62
     2
 10
-199.393387
 20
171.208405
 11
-199.393387
 21
161.208405
  0
LINE
  8
0
  6
CENTER
 62
     2
 10
-204.393387
 20
151.208405
 11
-194.393387
 21
151.208405
  0
LINE
  8
0
  6
CENTER
 62
     2
 10
-199.393387
 20
156.208405
 11
-199.393387
 21
145.449905
  0
LINE
  8
0
  6
CENTER
 62
     2
 10
-149.393387
 20
181.208405
 11
-139.393387
 21
181.208405
  0
LINE
  8
0
  6
CENTER
 62
     2
 10
-144.393387
 20
186.208405
 11
-144.393387
 21
176.208405
  0
LINE
  8
0
  6
CENTER
 62
     2
 10
-144.393387
 20
171.208405
 11
-144.393387
 21
161.208405
  0
LINE
  8
0
 10
-135.393387
 20
143.208405
 11
-208.393372
 21
143.208405
  0
LINE
  8
0
 10
-251.893387
 20
182.808411
 11
-251.893387
 21
181.708405
  0
LINE
  8
0
 10
-251.493393
 20
149.208405
 11
-232.893387
 21
149.208405
  0
LINE
  8
0
 10
-251.493393
 20
183.208405
 11
-232.893387
 21
183.208405
  0
LINE
  8
0
 10
-251.493393
 20
173.708405
 11
-248.093384
 21
173.708405
  0
LINE
  8
0
 10
-251.493393
 20
158.708405
 11
-248.093384
 21
158.708405
  0
LINE
  8
0
 10
-248.093384
 20
182.808411
 11
-248.093384
 21
173.708405
  0
LINE
  8
0
 10
-248.093384
 20
158.708405
 11
-248.093384
 21
149.608398
  0
LINE
  8
0
 10
-235.393387
 20
155.108398
 11
-232.893387
 21
155.108398
  0
LINE
  8
0
 10
-235.393387
 20
177.308411
 11
-232.893387
 21
177.308411
  0
LINE
  8
0
 10
-237.893387
 20
174.808411
 11
-237.893387
 21
157.608398
  0
LINE
  8
0
 10
-235.293427
 20
174.508453
 11
-234.515610
 21
175.286285
  0
LINE
  8
0
 10
-235.293442
 20
157.908447
 11
-234.515610
 21
158.686264
  0
LINE
  8
0
 10
-235.293381
 20
174.508408
 11
-236.071182
 21
175.286209
  0
LINE
  8
0
 10
-235.293350
 20
157.908417
 11
-236.071152
 21
158.686218
  0
LINE
  8
0
 10
-235.293259
 20
174.508301
 11
-236.071060
 21
173.730484
  0
LINE
  8
0
 10
-235.293381
 20
174.508408
 11
-234.515549
 21
173.730576
  0
LINE
  8
0
 10
-235.293396
 20
157.908432
 11
-236.071213
 21
157.130615
  0
LINE
  8
0
 10
-235.293381
 20
157.908401
 11
-234.515549
 21
157.130585
  0
LINE
  8
0
 10
-252.093384
 20
181.708405
 11
-249.028625
 21
181.708405
  0
LINE
  8
0
 10
-252.093384
 20
174.708405
 11
-249.028625
 21
174.708405
  0
LINE
  8
0
 10
-252.093384
 20
157.708405
 11
-249.028625
 21
157.708405
  0
LINE
  8
0
 10
-252.093384
 20
150.708405
 11
-249.028625
 21
150.708405
  0
LINE
  8
0
 10
-251.793121
 20
178.208405
 11
-249.028625
 21
178.208405
  0
LINE
  8
0
 10
-251.793121
 20
154.208405
 11
-249.028625
 21
154.208405
  0
LINE
  8
0
 10
-249.028625
 20
182.708405
 11
-248.095154
 21
182.708405
  0
LINE
  8
0
 10
-249.028625
 20
149.708405
 11
-248.086258
 21
149.708405
  0
LINE
  8
0
 10
-249.028625
 20
182.708405
 11
-249.028625
 21
173.708405
  0
LINE
  8
0
 10
-249.028625
 20
158.708405
 11
-249.028625
 21
149.708405
  0
LINE
  8
0
 10
-252.093384
 20
181.708405
 11
-252.093384
 21
174.708405
  0
LINE
  8
0
 10
-251.893387
 20
174.708405
 11
-251.893387
 21
157.708405
  0
LINE
  8
0
 10
-252.093384
 20
157.708405
 11
-252.093384
 21
150.708405
  0
LINE
  8
0
 10
-251.893387
 20
150.708405
 11
-251.893387
 21
149.608398
  0
LINE
  8
0
 10
-232.893387
 20
183.208405
 11
-232.893387
 21
149.208405
  0
LINE
  8
0
 10
108.106613
 20
182.808411
 11
108.106613
 21
181.708405
  0
LINE
  8
0
 10
107.706619
 20
149.208405
 11
89.106613
 21
149.208405
  0
LINE
  8
0
 10
107.706619
 20
183.208405
 11
89.106613
 21
183.208405
  0
LINE
  8
0
 10
107.706619
 20
173.708405
 11
104.306625
 21
173.708405
  0
LINE
  8
0
 10
107.706619
 20
158.708405
 11
104.306625
 21
158.708405
  0
LINE
  8
0
 10
104.306625
 20
182.808411
 11
104.306625
 21
173.708405
  0
LINE
  8
0
 10
104.306625
 20
158.708405
 11
104.306625
 21
149.608398
  0
LINE
  8
0
 10
91.606613
 20
155.108398
 11
89.106613
 21
155.108398
  0
LINE
  8
0
 10
91.606613
 20
177.308411
 11
89.106613
 21
177.308411
  0
LINE
  8
0
 10
94.106613
 20
174.808411
 11
94.106613
 21
157.608398
  0
LINE
  8
0
 10
91.506714
 20
174.508469
 11
90.728867
 21
175.286316
  0
LINE
  8
0
 10
91.506729
 20
157.908508
 11
90.728889
 21
158.686325
  0
LINE
  8
0
 10
91.506653
 20
174.508408
 11
92.284439
 21
175.286224
  0
LINE
  8
0
 10
91.506500
 20
157.908493
 11
92.284317
 21
158.686279
  0
LINE
  8
0
 10
91.506561
 20
174.508316
 11
92.284363
 21
173.730499
  0
LINE
  8
0
 10
91.506638
 20
174.508377
 11
90.728806
 21
173.730560
  0
LINE
  8
0
 10
91.506691
 20
157.908478
 11
92.284477
 21
157.130661
  0
LINE
  8
0
 10
91.506638
 20
157.908371
 11
90.728806
 21
157.130569
  0
LINE
  8
0
 10
108.306625
 20
181.708405
 11
105.241867
 21
181.708405
  0
LINE
  8
0
 10
108.306625
 20
174.708405
 11
105.241867
 21
174.708405
  0
LINE
  8
0
 10
108.306625
 20
157.708405
 11
105.241867
 21
157.708405
  0
LINE
  8
0
 10
108.306625
 20
150.708405
 11
105.241867
 21
150.708405
  0
LINE
  8
0
 10
108.006363
 20
178.208405
 11
105.241867
 21
178.208405
  0
LINE
  8
0
 10
108.006363
 20
154.208405
 11
105.241867
 21
154.208405
  0
LINE
  8
0
 10
105.241867
 20
182.708405
 11
104.308395
 21
182.708405
  0
LINE
  8
0
 10
105.241867
 20
149.708405
 11
104.299484
 21
149.708405
  0
LINE
  8
0
 10
105.241867
 20
182.708405
 11
105.241867
 21
173.708405
  0
LINE
  8
0
 10
105.241867
 20
158.708405
 11
105.241867
 21
149.708405
  0
LINE
  8
0
 10
108.306625
 20
181.708405
 11
108.306625
 21
174.708405
  0
LINE
  8
0
 10
108.106613
 20
174.708405
 11
108.106613
 21
157.708405
  0
LINE
  8
0
 10
108.306625
 20
157.708405
 11
108.306625
 21
150.708405
  0
LINE
  8
0
 10
108.106613
 20
150.708405
 11
108.106613
 21
149.608398
  0
LINE
  8
0
  6
CENTER
 62
     2
 10
116.606613
 20
166.208405
 11
-258.393372
 21
166.208405
  0
LINE
  8
0
 10
33.106613
 20
146.208405
 11
33.106613
 21
142.708405
  0
LINE
  8
0
 10
39.106613
 20
146.208405
 11
39.106613
 21
142.708405
  0
LINE
  8
0
 10
17.106613
 20
146.208405
 11
17.106613
 21
142.708405
  0
LINE
  8
0
 10
15.106613
 20
146.208405
 11
15.106613
 21
143.858353
  0
LINE
  8
0
 10
17.106613
 20
142.708405
 11
39.106613
 21
142.708405
  0
LINE
  8
0
 10
23.106613
 20
146.208405
 11
23.106613
 21
142.708405
  0
LINE
  8
0
 10
15.106613
 20
143.858353
 11
17.106613
 21
143.858353
  0
LINE
  8
0
 10
5.106613
 20
144.658356
 11
15.106613
 21
144.658356
  0
LINE
  8
0
 10
33.106613
 20
142.708405
 11
33.106613
 21
139.708405
  0
LINE
  8
0
 10
18.106613
 20
142.708405
 11
18.106613
 21
139.708405
  0
LINE
  8
0
 10
18.106613
 20
139.708405
 11
33.106613
 21
139.708405
  0
LINE
  8
0
 10
280.606628
 20
46.450928
 11
280.606628
 21
43.508453
  0
LINE
  8
0
 10
271.106628
 20
43.208454
 11
280.306641
 21
43.208454
  0
LINE
  8
0
 10
278.458710
 20
46.429722
 11
280.254517
 21
46.746372
  0
LINE
  8
0
 10
278.106628
 20
47.877083
 11
278.106628
 21
46.725163
  0
LINE
  8
0
 10
278.506622
 20
50.208454
 11
279.406616
 21
50.208454
  0
LINE
  8
0
 10
279.239777
 20
65.508453
 11
280.406616
 21
65.508453
  0
LINE
  8
0
 10
280.606628
 20
65.308456
 11
280.606628
 21
64.708458
  0
LINE
  8
0
 10
278.106628
 20
64.508453
 11
280.406616
 21
64.508453
  0
LINE
  8
0
 10
278.106628
 20
66.581032
 11
278.856750
 21
65.687057
  0
LINE
  8
0
 10
279.606628
 20
53.508453
 11
279.606628
 21
50.408455
  0
LINE
  8
0
 10
241.606628
 20
46.450928
 11
241.606628
 21
43.508453
  0
LINE
  8
0
 10
243.754547
 20
46.429722
 11
241.958725
 21
46.746372
  0
LINE
  8
0
 10
244.106628
 20
47.877083
 11
244.106628
 21
46.725163
  0
LINE
  8
0
 10
243.706635
 20
50.208454
 11
242.806625
 21
50.208454
  0
LINE
  8
0
 10
242.606628
 20
53.808495
 11
242.606628
 21
50.408455
  0
LINE
  8
0
 10
244.106644
 20
66.581032
 11
243.877930
 21
66.308456
  0
LINE
  8
0
 10
251.106628
 20
43.208454
 11
241.906631
 21
43.208454
  0
LINE
  8
0
 10
238.106628
 20
95.208450
 11
284.106628
 21
95.208450
  0
LINE
  8
0
 10
284.106659
 20
95.208466
 11
284.606659
 21
94.708466
  0
LINE
  8
0
 10
237.606628
 20
94.708466
 11
238.106628
 21
95.208466
  0
LINE
  8
0
  6
CENTER
 62
     2
 10
261.106628
 20
100.208450
 11
261.106628
 21
40.208454
  0
LINE
  8
0
 10
238.106628
 20
65.208458
 11
238.606628
 21
65.208458
  0
LINE
  8
0
 10
289.106628
 20
93.708450
 11
289.106628
 21
69.403954
  0
LINE
  8
0
 10
233.106628
 20
93.708450
 11
233.106628
 21
69.403954
  0
LINE
  8
0
 10
234.106628
 20
94.708450
 11
288.106628
 21
94.708450
  0
LINE
  8
0
 10
233.106613
 20
69.403954
 11
238.106628
 21
65.208450
  0
LINE
  8
0
 10
243.142273
 20
66.308449
 11
244.106628
 21
67.457726
  0
LINE
  8
0
 10
289.106628
 20
69.403961
 11
284.106628
 21
65.208466
  0
LINE
  8
0
 10
279.406616
 20
65.908455
 11
278.106628
 21
67.457733
  0
LINE
  8
0
 10
281.406616
 20
65.908455
 11
279.406616
 21
65.908455
  0
LINE
  8
0
 10
284.106628
 20
65.208458
 11
281.406616
 21
65.208458
  0
LINE
  8
0
 10
281.406616
 20
65.908455
 11
281.406616
 21
65.208458
  0
LINE
  8
0
 10
249.106628
 20
79.208458
 11
273.106628
 21
79.208458
  0
LINE
  8
0
 10
244.106628
 20
74.208458
 11
244.106628
 21
50.208454
  0
LINE
  8
0
 10
249.106628
 20
45.208454
 11
273.106628
 21
45.208454
  0
LINE
  8
0
 10
278.106628
 20
74.208458
 11
278.106628
 21
50.208454
  0
LINE
  8
0
 10
252.606628
 20
76.229179
 11
252.606628
 21
72.187737
  0
LINE
  8
0
 10
245.606628
 20
76.229195
 11
245.606628
 21
72.187737
  0
LINE
  8
0
 10
252.606674
 20
76.229218
 11
249.106674
 21
78.249939
  0
LINE
  8
0
 10
249.106613
 20
70.167015
 11
245.606628
 21
72.187737
  0
LINE
  8
0
 10
245.606628
 20
76.229164
 11
249.106644
 21
78.249893
  0
LINE
  8
0
 10
249.106583
 20
70.166985
 11
252.606598
 21
72.187721
  0
LINE
  8
0
 10
276.606628
 20
76.229179
 11
276.606628
 21
72.187737
  0
LINE
  8
0
 10
269.606628
 20
76.229195
 11
269.606628
 21
72.187737
  0
LINE
  8
0
 10
276.606689
 20
76.229210
 11
273.106689
 21
78.249931
  0
LINE
  8
0
 10
273.106689
 20
70.167030
 11
269.606689
 21
72.187752
  0
LINE
  8
0
 10
269.606628
 20
76.229164
 11
273.106628
 21
78.249886
  0
LINE
  8
0
 10
273.106598
 20
70.166962
 11
276.606628
 21
72.187698
  0
LINE
  8
0
 10
276.606628
 20
52.229183
 11
276.606628
 21
48.187740
  0
LINE
  8
0
 10
269.606628
 20
52.229191
 11
269.606628
 21
48.187733
  0
LINE
  8
0
 10
276.606659
 20
52.229183
 11
273.106659
 21
54.249905
  0
LINE
  8
0
 10
273.106659
 20
46.166992
 11
269.606659
 21
48.187714
  0
LINE
  8
0
 10
269.606659
 20
52.229095
 11
273.106659
 21
54.249817
  0
LINE
  8
0
 10
273.106659
 20
46.166939
 11
276.606659
 21
48.187660
  0
LINE
  8
0
 10
252.606628
 20
52.229183
 11
252.606628
 21
48.187740
  0
LINE
  8
0
 10
245.606628
 20
52.229191
 11
245.606628
 21
48.187733
  0
LINE
  8
0
 10
252.606659
 20
52.229183
 11
249.106674
 21
54.249905
  0
LINE
  8
0
 10
249.106628
 20
46.166996
 11
245.606628
 21
48.187717
  0
LINE
  8
0
 10
245.606659
 20
52.229134
 11
249.106659
 21
54.249855
  0
LINE
  8
0
 10
249.106598
 20
46.166985
 11
252.606598
 21
48.187714
  0
LINE
  8
0
 10
244.506622
 20
69.708450
 11
245.944366
 21
69.708450
  0
LINE
  8
0
 10
244.506622
 20
54.708454
 11
245.944366
 21
54.708454
  0
LINE
  8
0
 10
253.606628
 20
78.808456
 11
253.606628
 21
77.370735
  0
LINE
  8
0
 10
268.606628
 20
78.808456
 11
268.606628
 21
77.370735
  0
LINE
  8
0
 10
253.606628
 20
47.046177
 11
253.606628
 21
45.608452
  0
LINE
  8
0
 10
276.268890
 20
54.708454
 11
277.706635
 21
54.708454
  0
LINE
  8
0
 10
268.606628
 20
47.046177
 11
268.606628
 21
45.608452
  0
LINE
  8
0
 10
276.268890
 20
69.708450
 11
277.706635
 21
69.708450
  0
LINE
  8
0
  6
CENTER
 62
     2
 10
241.027222
 20
62.208454
 11
280.657013
 21
62.208454
  0
LINE
  8
0
  6
CENTER
 62
     2
 10
270.606628
 20
68.196159
 11
270.606628
 21
56.620449
  0
LINE
  8
0
  6
CENTER
 62
     2
 10
255.606628
 20
67.923790
 11
255.606628
 21
56.211895
  0
LINE
  8
0
  6
CENTER
 62
     2
 10
249.106628
 20
81.208458
 11
249.106628
 21
67.787605
  0
LINE
  8
0
  6
CENTER
 62
     2
 10
273.106628
 20
81.208458
 11
273.106628
 21
67.923790
  0
LINE
  8
0
  6
CENTER
 62
     2
 10
273.106628
 20
56.756634
 11
273.106628
 21
44.091442
  0
LINE
  8
0
  6
CENTER
 62
     2
 10
249.106628
 20
56.620449
 11
249.106628
 21
44.363815
  0
LINE
  8
0
  6
CENTER
 62
     2
 10
243.342377
 20
74.208458
 11
255.599014
 21
74.208458
  0
LINE
  8
0
  6
CENTER
 62
     2
 10
266.629974
 20
74.208458
 11
278.614258
 21
74.208458
  0
LINE
  8
0
  6
CENTER
 62
     2
 10
242.933823
 20
50.208454
 11
255.599014
 21
50.208454
  0
LINE
  8
0
  6
CENTER
 62
     2
 10
266.106628
 20
50.208454
 11
278.750427
 21
50.208454
  0
LINE
  8
0
 10
257.356628
 20
45.208454
 11
264.856628
 21
45.208454
  0
LINE
  8
0
 10
238.606644
 20
59.008453
 11
244.106628
 21
59.008453
  0
LINE
  8
0
 10
238.606628
 20
66.308456
 11
238.606628
 21
59.008453
  0
LINE
  8
0
 10
244.206635
 20
54.708462
 11
244.206635
 21
54.708462
  0
LINE
  8
0
 10
237.314178
 20
50.308456
 11
240.106628
 21
50.308456
  0
LINE
  8
0
 10
237.606628
 20
64.008461
 11
237.973969
 21
64.008461
  0
LINE
  8
0
 10
238.306641
 20
58.708450
 11
240.306641
 21
58.708450
  0
LINE
  8
0
 10
238.306641
 20
60.708450
 11
238.306641
 21
58.708450
  0
LINE
  8
0
 10
240.606628
 20
59.008465
 11
240.306625
 21
58.708469
  0
LINE
  8
0
 10
241.106628
 20
54.604317
 11
241.106628
 21
51.308456
  0
LINE
  8
0
 10
243.006607
 20
55.701309
 11
241.106598
 21
54.604336
  0
LINE
  8
0
 10
241.106628
 20
54.308456
 11
242.106628
 21
54.308456
  0
LINE
  8
0
 10
241.106628
 20
51.308456
 11
242.106628
 21
51.308456
  0
LINE
  8
0
 10
241.106628
 20
51.578957
 11
242.377136
 21
51.578957
  0
LINE
  8
0
 10
241.106628
 20
54.037956
 11
242.377136
 21
54.037956
  0
LINE
  8
0
 10
242.606628
 20
53.808487
 11
242.106628
 21
54.308479
  0
LINE
  8
0
 10
242.606674
 20
51.808441
 11
242.106674
 21
51.308445
  0
LINE
  8
0
 10
242.106628
 20
54.308456
 11
242.106628
 21
51.308456
  0
LINE
  8
0
 10
279.606628
 20
53.508457
 11
279.606628
 21
51.508450
  0
LINE
  8
0
 10
238.606644
 20
66.308456
 11
244.106628
 21
66.308456
  0
LINE
  8
0
 62
     4
 10
-288.947571
 20
-193.018433
 11
-288.947571
 21
-182.318451
  0
LINE
  8
0
 62
     4
 10
-288.947571
 20
-193.018433
 11
-286.947571
 21
-193.018433
  0
LINE
  8
0
 62
     4
 10
-288.947571
 20
-182.318451
 11
-286.947571
 21
-182.318451
  0
LINE
  8
0
 62
     2
 10
-343.988556
 20
-182.209442
 11
-343.447571
 21
-182.209442
  0
LINE
  8
0
 62
     4
 10
-355.947571
 20
-186.168442
 11
-343.947571
 21
-186.168442
  0
LINE
  8
0
 62
     4
 10
-355.947571
 20
-189.168442
 11
-343.947571
 21
-189.168442
  0
LINE
  8
0
 62
     4
 10
-355.947571
 20
-186.168442
 11
-355.947571
 21
-189.168442
  0
LINE
  8
0
 62
     4
 10
-343.447571
 20
-193.668472
 11
-343.947571
 21
-193.168472
  0
LINE
  8
0
 62
     4
 10
-343.447601
 20
-181.668411
 11
-343.947601
 21
-182.168411
  0
LINE
  8
0
 62
     4
 10
-343.947571
 20
-182.168442
 11
-343.947571
 21
-193.168427
  0
LINE
  8
0
 62
     4
 10
-326.947571
 20
-193.668442
 11
-289.597595
 21
-193.668442
  0
LINE
  8
0
 62
     1
 10
-326.947571
 20
-193.127441
 11
-289.056580
 21
-193.127441
  0
LINE
  8
0
 62
     1
 10
-326.947571
 20
-182.209442
 11
-289.056580
 21
-182.209442
  0
LINE
  8
0
 62
     4
 10
-326.947571
 20
-181.668442
 11
-289.597595
 21
-181.668442
  0
LINE
  8
0
 62
     4
 10
-288.947601
 20
-193.018417
 11
-289.597595
 21
-193.668427
  0
LINE
  8
0
 62
     4
 10
-288.947601
 20
-182.318481
 11
-289.597626
 21
-181.668488
  0
LINE
  8
0
 62
     4
 10
-343.447571
 20
-199.668442
 11
-326.947571
 21
-199.668442
  0
LINE
  8
0
 62
     4
 10
-343.447571
 20
-188.668442
 11
-326.947571
 21
-188.668442
  0
LINE
  8
0
 62
     4
 10
-343.447571
 20
-184.168442
 11
-326.947571
 21
-184.168442
  0
LINE
  8
0
 62
     4
 10
-343.447571
 20
-179.668442
 11
-326.947571
 21
-179.668442
  0
LINE
  8
0
 62
     4
 10
-343.447571
 20
-181.980347
 11
-326.947571
 21
-181.980347
  0
LINE
  8
0
 62
     4
 10
-343.447571
 20
-206.068451
 11
-343.447571
 21
-179.668442
  0
LINE
  8
0
 62
     4
 10
-326.947571
 20
-206.068451
 11
-326.947571
 21
-179.668442
  0
LINE
  8
0
 62
     4
 10
-343.447571
 20
-206.068451
 11
-326.947571
 21
-206.068451
  0
LINE
  8
0
 62
     4
 10
-333.947571
 20
-188.668442
 11
-333.947571
 21
-185.068451
  0
LINE
  8
0
 62
     4
 10
-333.547577
 20
-184.668442
 11
-327.347595
 21
-184.668442
  0
LINE
  8
0
 62
     4
 10
-333.947571
 20
-185.068451
 11
-326.947571
 21
-185.068451
  0
LINE
  8
0
 62
     4
 10
-333.947601
 20
-185.068497
 11
-333.547577
 21
-184.668488
  0
LINE
  8
0
 62
     4
 10
-326.947540
 20
-185.068420
 11
-327.347534
 21
-184.668411
  0
LINE
  8
0
 62
     4
 10
-343.447601
 20
-185.068481
 11
-343.047577
 21
-184.668472
  0
LINE
  8
0
 62
     4
 10
-343.047577
 20
-184.668442
 11
-336.847595
 21
-184.668442
  0
LINE
  8
0
 62
     4
 10
-343.447571
 20
-185.068451
 11
-336.447571
 21
-185.068451
  0
LINE
  8
0
 62
     2
 10
-343.988556
 20
-193.127441
 11
-343.447571
 21
-193.127441
  0
LINE
  8
0
 62
     4
 10
-336.447540
 20
-185.068420
 11
-336.847534
 21
-184.668411
  0
LINE
  8
0
 62
     4
 10
-336.447571
 20
-188.668442
 11
-336.447571
 21
-185.068451
  0
LINE
  8
0
 62
     4
 10
-286.947571
 20
-193.018433
 11
-286.947571
 21
-182.318451
  0
LINE
  8
0
  6
CENTER
 62
     1
 10
-339.947571
 20
-190.952240
 11
-339.947571
 21
-181.668442
  0
LINE
  8
0
  6
CENTER
 62
     1
 10
-330.447571
 20
-191.223312
 11
-330.447571
 21
-181.668442
  0
LINE
  8
0
  6
CENTER
 62
     1
 10
-358.947571
 20
-187.668442
 11
-281.947632
 21
-187.668442
  0
LINE
  8
0
 62
     4
 10
-289.597595
 20
-181.668442
 11
-289.597595
 21
-193.668442
  0
LINE
  8
0
  6
CENTER
 62
     1
 10
-335.197571
 20
-220.687790
 11
-335.197571
 21
-176.048279
  0
LINE
  8
0
 62
     4
 10
-326.947571
 20
-108.668419
 11
-326.947571
 21
-53.668419
  0
LINE
  8
0
 62
     4
 10
-331.947571
 20
-102.802391
 11
-331.947571
 21
-104.534447
  0
LINE
  8
0
 62
     4
 10
-330.447540
 20
-101.936348
 11
-331.947540
 21
-102.802376
  0
LINE
  8
0
 62
     4
 10
-326.947571
 20
-75.168419
 11
-289.597595
 21
-75.168419
  0
LINE
  8
0
 62
     4
 10
-288.947601
 20
-86.518387
 11
-289.597595
 21
-87.168373
  0
LINE
  8
0
 62
     4
 10
-288.947601
 20
-75.818451
 11
-289.597626
 21
-75.168442
  0
LINE
  8
0
 62
     4
 10
-343.988556
 20
-86.627403
 11
-343.447571
 21
-86.627403
  0
LINE
  8
0
 62
     4
 10
-343.988556
 20
-75.709404
 11
-343.447571
 21
-75.709404
  0
LINE
  8
0
 62
     4
 10
-288.947571
 20
-75.818413
 11
-286.947571
 21
-75.818413
  0
LINE
  8
0
 62
     4
 10
-288.947571
 20
-86.518410
 11
-286.947571
 21
-86.518410
  0
LINE
  8
0
 62
     4
 10
-288.947571
 20
-86.518410
 11
-288.947571
 21
-75.818413
  0
LINE
  8
0
 62
     4
 10
-286.947571
 20
-86.518410
 11
-286.947571
 21
-75.818413
  0
LINE
  8
0
 62
     1
 10
-326.947571
 20
-75.709404
 11
-289.056580
 21
-75.709404
  0
LINE
  8
0
 62
     4
 10
-343.947571
 20
-75.668419
 11
-343.947571
 21
-86.668404
  0
LINE
  8
0
 62
     4
 10
-343.447571
 20
-53.668419
 11
-343.447571
 21
-108.668419
  0
LINE
  8
0
 62
     4
 10
-343.447571
 20
-53.668419
 11
-326.947571
 21
-53.668419
  0
LINE
  8
0
 62
     4
 10
-343.447571
 20
-108.668419
 11
-326.947571
 21
-108.668419
  0
LINE
  8
0
 62
     4
 10
-343.447571
 20
-91.668419
 11
-326.947571
 21
-91.668419
  0
LINE
  8
0
 62
     4
 10
-343.447571
 20
-70.668419
 11
-326.947571
 21
-70.668419
  0
LINE
  8
0
 62
     4
 10
-343.447571
 20
-62.668419
 11
-326.947571
 21
-62.668419
  0
LINE
  8
0
 62
     4
 10
-331.947571
 20
-104.534439
 11
-330.447540
 21
-105.400467
  0
LINE
  8
0
 62
     4
 10
-326.947571
 20
-87.168419
 11
-289.597595
 21
-87.168419
  0
LINE
  8
0
 62
     4
 10
-343.447571
 20
-75.168396
 11
-343.947571
 21
-75.668404
  0
LINE
  8
0
 62
     4
 10
-336.697571
 20
-65.802376
 11
-335.197571
 21
-64.936340
  0
LINE
  8
0
 62
     4
 10
-335.197510
 20
-64.936218
 11
-333.697510
 21
-65.802246
  0
LINE
  8
0
 62
     4
 10
-333.697571
 20
-65.802391
 11
-333.697571
 21
-67.534447
  0
LINE
  8
0
 62
     4
 10
-333.697540
 20
-67.534431
 11
-335.197540
 21
-68.400459
  0
LINE
  8
0
 62
     4
 10
-335.197571
 20
-68.400459
 11
-336.697571
 21
-67.534431
  0
LINE
  8
0
 62
     4
 10
-336.697571
 20
-67.534447
 11
-336.697571
 21
-65.802391
  0
LINE
  8
0
 62
     4
 10
-339.947540
 20
-101.936340
 11
-341.447540
 21
-102.802368
  0
LINE
  8
0
 62
     4
 10
-341.447571
 20
-102.802391
 11
-341.447571
 21
-104.534447
  0
LINE
  8
0
 62
     4
 10
-341.447571
 20
-104.534431
 11
-339.947571
 21
-105.400459
  0
LINE
  8
0
 62
     4
 10
-339.947571
 20
-105.400459
 11
-338.447601
 21
-104.534447
  0
LINE
  8
0
 62
     4
 10
-338.447540
 20
-102.802361
 11
-339.947540
 21
-101.936333
  0
LINE
  8
0
 62
     4
 10
-338.447571
 20
-104.534447
 11
-338.447571
 21
-102.802391
  0
LINE
  8
0
 62
     4
 10
-343.447601
 20
-87.168457
 11
-343.947601
 21
-86.668457
  0
LINE
  8
0
 62
     1
 10
-326.947571
 20
-86.627403
 11
-289.056580
 21
-86.627403
  0
LINE
  8
0
 62
     4
 10
-355.947571
 20
-79.668419
 11
-355.947571
 21
-82.668419
  0
LINE
  8
0
 62
     4
 10
-331.947540
 20
-57.802399
 11
-330.447540
 21
-56.936371
  0
LINE
  8
0
 62
     4
 10
-330.447601
 20
-56.936417
 11
-328.947571
 21
-57.802452
  0
LINE
  8
0
 62
     4
 10
-328.947571
 20
-57.802391
 11
-328.947571
 21
-59.534447
  0
LINE
  8
0
 62
     4
 10
-328.947510
 20
-59.534447
 11
-330.447510
 21
-60.400475
  0
LINE
  8
0
 62
     4
 10
-330.447601
 20
-60.400562
 11
-331.947601
 21
-59.534534
  0
LINE
  8
0
 62
     4
 10
-331.947571
 20
-59.534447
 11
-331.947571
 21
-57.802391
  0
LINE
  8
0
 62
     4
 10
-339.947571
 20
-60.400497
 11
-341.447571
 21
-59.534470
  0
LINE
  8
0
 62
     4
 10
-341.447571
 20
-59.534447
 11
-341.447571
 21
-57.802391
  0
LINE
  8
0
 62
     4
 10
-341.447540
 20
-57.802387
 11
-339.947540
 21
-56.936359
  0
LINE
  8
0
 62
     4
 10
-339.947571
 20
-56.936352
 11
-338.447571
 21
-57.802380
  0
LINE
  8
0
 62
     4
 10
-338.447540
 20
-59.534435
 11
-339.947540
 21
-60.400463
  0
LINE
  8
0
 62
     4
 10
-338.447571
 20
-57.802391
 11
-338.447571
 21
-59.534447
  0
LINE
  8
0
 62
     4
 10
-355.947571
 20
-82.668419
 11
-343.947571
 21
-82.668419
  0
LINE
  8
0
 62
     4
 10
-355.947571
 20
-79.668419
 11
-343.947571
 21
-79.668419
  0
LINE
  8
0
 62
     4
 10
-328.947540
 20
-102.802361
 11
-330.447540
 21
-101.936333
  0
LINE
  8
0
 62
     4
 10
-328.947571
 20
-104.534447
 11
-328.947571
 21
-102.802391
  0
LINE
  8
0
 62
     4
 10
-330.447571
 20
-105.400475
 11
-328.947571
 21
-104.534447
  0
LINE
  8
0
 62
     4
 10
-343.447571
 20
-99.668419
 11
-326.947571
 21
-99.668419
  0
LINE
  8
0
  6
CENTER
 62
     1
 10
-339.947571
 20
-98.168419
 11
-339.947571
 21
-109.168419
  0
LINE
  8
0
  6
CENTER
 62
     1
 10
-330.447571
 20
-98.168419
 11
-330.447571
 21
-109.168419
  0
LINE
  8
0
  6
CENTER
 62
     1
 10
-345.447571
 20
-103.668419
 11
-324.947571
 21
-103.668419
  0
LINE
  8
0
  6
CENTER
 62
     1
 10
-335.197571
 20
-113.574753
 11
-335.197571
 21
-48.627762
  0
LINE
  8
0
  6
CENTER
 62
     1
 10
-340.697571
 20
-66.668419
 11
-329.697571
 21
-66.668419
  0
LINE
  8
0
  6
CENTER
 62
     1
 10
-339.947571
 20
-64.168419
 11
-339.947571
 21
-53.168419
  0
LINE
  8
0
  6
CENTER
 62
     1
 10
-330.447571
 20
-64.168419
 11
-330.447571
 21
-53.168419
  0
LINE
  8
0
  6
CENTER
 62
     1
 10
-345.447571
 20
-58.668419
 11
-324.947571
 21
-58.668419
  0
LINE
  8
0
 62
     4
 10
-289.597595
 20
-75.168419
 11
-289.597595
 21
-87.168419
  0
LINE
  8
0
  6
CENTER
 62
     1
 10
-359.801514
 20
-81.168419
 11
-280.885895
 21
-81.168419
  0
LINE
  8
0
 62
     4
 10
-249.447342
 20
-196.668350
 11
-246.518051
 21
-196.668350
  0
LINE
  8
0
 62
     4
 10
-211.447342
 20
-197.168350
 11
-211.447342
 21
-199.668350
  0
LINE
  8
0
 62
     4
 10
-211.447342
 20
-199.668411
 11
-213.947342
 21
-201.111786
  0
LINE
  8
0
 62
     4
 10
-215.376633
 20
-196.668350
 11
-212.447342
 21
-196.668350
  0
LINE
  8
0
 62
     4
 10
-218.447342
 20
-188.168350
 11
-218.447342
 21
-187.168350
  0
LINE
  8
0
 62
     4
 10
-214.447342
 20
-188.168350
 11
-214.447342
 21
-187.168350
  0
LINE
  8
0
 62
     1
 10
-214.826340
 20
-188.168350
 11
-214.826340
 21
-187.168350
  0
LINE
  8
0
 62
     1
 10
-218.068344
 20
-188.168350
 11
-218.068344
 21
-187.168350
  0
LINE
  8
0
 62
     4
 10
-256.947327
 20
-188.668350
 11
-256.947327
 21
-185.068359
  0
LINE
  8
0
 62
     4
 10
-256.947327
 20
-185.068405
 11
-256.547302
 21
-184.668396
  0
LINE
  8
0
 62
     4
 10
-256.547333
 20
-184.668350
 11
-250.347336
 21
-184.668350
  0
LINE
  8
0
 62
     4
 10
-256.947327
 20
-185.068359
 11
-249.947342
 21
-185.068359
  0
LINE
  8
0
 62
     4
 10
-249.947342
 20
-188.668350
 11
-249.947342
 21
-185.068359
  0
LINE
  8
0
 62
     4
 10
-249.947296
 20
-185.068298
 11
-250.347290
 21
-184.668289
  0
LINE
  8
0
 62
     4
 10
-241.447342
 20
-184.168350
 11
-241.447342
 21
-182.628601
  0
LINE
  8
0
 62
     4
 10
-220.447342
 20
-184.168350
 11
-220.447342
 21
-182.628601
  0
LINE
  8
0
 62
     4
 10
-248.447342
 20
-184.168350
 11
-241.447342
 21
-184.168350
  0
LINE
  8
0
 62
     4
 10
-220.447342
 20
-184.168350
 11
-212.947342
 21
-184.168350
  0
LINE
  8
0
 62
     4
 10
-258.447327
 20
-199.668350
 11
-256.447327
 21
-199.668350
  0
LINE
  8
0
 62
     4
 10
-258.447327
 20
-204.068359
 11
-258.447327
 21
-189.668350
  0
LINE
  8
0
 62
     4
 10
-203.447342
 20
-204.068359
 11
-203.447342
 21
-189.668350
  0
LINE
  8
0
 62
     4
 10
-205.447342
 20
-199.668350
 11
-203.447342
 21
-199.668350
  0
LINE
  8
0
 62
     4
 10
-205.447342
 20
-199.668350
 11
-205.447342
 21
-196.368347
  0
LINE
  8
0
 62
     4
 10
-256.447327
 20
-199.668350
 11
-256.447327
 21
-196.368347
  0
LINE
  8
0
 62
     4
 10
-256.447327
 20
-196.368347
 11
-249.447342
 21
-196.368347
  0
LINE
  8
0
 62
     4
 10
-212.447342
 20
-196.368347
 11
-205.447342
 21
-196.368347
  0
LINE
  8
0
 62
     4
 10
-212.447342
 20
-196.668350
 11
-212.447342
 21
-196.368347
  0
LINE
  8
0
 62
     4
 10
-249.447342
 20
-196.668350
 11
-249.447342
 21
-196.368347
  0
LINE
  8
0
 62
     4
 10
-212.447342
 20
-188.668350
 11
-204.447342
 21
-188.668350
  0
LINE
  8
0
 62
     4
 10
-257.447327
 20
-188.668350
 11
-249.447342
 21
-188.668350
  0
LINE
  8
0
 62
     4
 10
-212.447342
 20
-188.668350
 11
-212.447342
 21
-188.168350
  0
LINE
  8
0
 62
     4
 10
-249.447342
 20
-188.668350
 11
-249.447342
 21
-185.168350
  0
LINE
  8
0
 62
     4
 10
-224.968216
 20
-187.168350
 11
-212.447342
 21
-187.168350
  0
LINE
  8
0
 62
     4
 10
-224.968216
 20
-188.168350
 11
-212.447342
 21
-188.168350
  0
LINE
  8
0
 62
     4
 10
-212.447342
 20
-187.168350
 11
-212.447342
 21
-185.168350
  0
LINE
  8
0
 62
     4
 10
-204.947296
 20
-185.068298
 11
-205.347305
 21
-184.668304
  0
LINE
  8
0
 62
     4
 10
-211.447342
 20
-197.168350
 11
-205.447342
 21
-197.168350
  0
LINE
  8
0
 62
     4
 10
-211.447342
 20
-206.068359
 11
-205.447342
 21
-206.068359
  0
LINE
  8
0
 62
     4
 10
-250.447342
 20
-206.068359
 11
-256.447327
 21
-206.068359
  0
LINE
  8
0
 62
     4
 10
-250.447342
 20
-197.168350
 11
-256.447327
 21
-197.168350
  0
LINE
  8
0
 62
     4
 10
-250.447342
 20
-197.168350
 11
-250.447342
 21
-199.668350
  0
LINE
  8
0
 62
     4
 10
-250.447372
 20
-199.668365
 11
-247.947342
 21
-201.111755
  0
LINE
  8
0
 62
     4
 10
-251.447342
 20
-197.168350
 11
-251.447342
 21
-196.368347
  0
LINE
  8
0
 62
     4
 10
-255.447342
 20
-197.168350
 11
-255.447342
 21
-196.368347
  0
LINE
  8
0
 62
     1
 10
-251.826340
 20
-197.168350
 11
-251.826340
 21
-196.368347
  0
LINE
  8
0
 62
     1
 10
-255.068344
 20
-197.168350
 11
-255.068344
 21
-196.368347
  0
LINE
  8
0
 62
     4
 10
-212.947342
 20
-184.168350
 11
-212.947342
 21
-180.568359
  0
LINE
  8
0
 62
     4
 10
-212.947327
 20
-180.568359
 11
-213.347351
 21
-180.168350
  0
LINE
  8
0
 62
     4
 10
-213.347366
 20
-180.168350
 11
-219.547348
 21
-180.168350
  0
LINE
  8
0
 62
     4
 10
-212.947342
 20
-180.568359
 11
-219.947342
 21
-180.568359
  0
LINE
  8
0
 62
     4
 10
-204.947342
 20
-188.668350
 11
-204.947342
 21
-185.068359
  0
LINE
  8
0
 62
     4
 10
-219.947342
 20
-184.168350
 11
-219.947342
 21
-180.568359
  0
LINE
  8
0
 62
     4
 10
-219.947449
 20
-180.568329
 11
-219.547409
 21
-180.168289
  0
LINE
  8
0
 62
     4
 10
-206.447342
 20
-197.168350
 11
-206.447342
 21
-196.368347
  0
LINE
  8
0
 62
     1
 10
-206.826340
 20
-197.168350
 11
-206.826340
 21
-196.368347
  0
LINE
  8
0
 62
     1
 10
-210.068344
 20
-197.168350
 11
-210.068344
 21
-196.368347
  0
LINE
  8
0
 62
     4
 10
-210.447342
 20
-197.168350
 11
-210.447342
 21
-196.368347
  0
LINE
  8
0
 62
     4
 10
-211.947342
 20
-188.668350
 11
-211.947342
 21
-185.068359
  0
LINE
  8
0
 62
     4
 10
-204.947342
 20
-185.068359
 11
-211.947342
 21
-185.068359
  0
LINE
  8
0
 62
     4
 10
-211.947388
 20
-185.068329
 11
-211.547394
 21
-184.668335
  0
LINE
  8
0
 62
     4
 10
-205.347366
 20
-184.668350
 11
-211.547348
 21
-184.668350
  0
LINE
  8
0
  6
CENTER
 62
     1
 10
-253.447342
 20
-204.668350
 11
-253.447342
 21
-181.668350
  0
LINE
  8
0
  6
CENTER
 62
     1
 10
-239.947342
 20
-187.668350
 11
-211.447342
 21
-187.668350
  0
LINE
  8
0
  6
CENTER
 62
     1
 10
-216.447342
 20
-194.168350
 11
-216.447342
 21
-177.168350
  0
LINE
  8
0
  6
CENTER
 62
     1
 10
-208.447342
 20
-204.668350
 11
-208.447342
 21
-181.668350
  0
LINE
  8
0
 62
     4
 10
-247.947342
 20
-201.111740
 11
-247.947342
 21
-205.339127
  0
LINE
  8
0
  6
CENTER
 62
     1
 10
-230.947342
 20
-175.556168
 11
-230.947342
 21
-206.130280
  0
LINE
  8
0
 62
     4
 10
-213.947327
 20
-201.111771
 11
-213.947327
 21
-205.339142
  0
LINE
  8
0
 62
     4
 10
-98.947502
 20
-183.168503
 11
-98.447533
 21
-183.168503
  0
LINE
  8
0
 62
     4
 10
-98.947517
 20
-192.168503
 11
-98.447548
 21
-192.168503
  0
LINE
  8
0
 62
     4
 10
-81.947548
 20
-193.668503
 11
-75.947548
 21
-193.668503
  0
LINE
  8
0
 62
     4
 10
-98.447540
 20
-185.068497
 11
-98.047523
 21
-184.668488
  0
LINE
  8
0
 62
     4
 10
-81.947548
 20
-185.068542
 11
-82.347542
 21
-184.668533
  0
LINE
  8
0
 62
     1
 10
-81.947548
 20
-193.127502
 11
-75.635201
 21
-193.127502
  0
LINE
  8
0
 62
     4
 10
-75.947609
 20
-193.668488
 11
-74.947609
 21
-191.936432
  0
LINE
  8
0
 62
     4
 10
-74.947578
 20
-191.936478
 11
-74.947578
 21
-183.400589
  0
LINE
  8
0
 62
     4
 10
-75.947548
 20
-181.668549
 11
-74.947556
 21
-183.400604
  0
LINE
  8
0
 62
     4
 10
-75.947578
 20
-193.668533
 11
-75.947578
 21
-181.668533
  0
LINE
  8
0
 62
     4
 10
-81.947525
 20
-181.668503
 11
-75.947525
 21
-181.668503
  0
LINE
  8
0
 62
     1
 10
-81.947525
 20
-182.209503
 11
-75.635178
 21
-182.209503
  0
LINE
  8
0
 62
     4
 10
-98.047523
 20
-184.668503
 11
-91.847527
 21
-184.668503
  0
LINE
  8
0
 62
     4
 10
-98.447533
 20
-185.068512
 11
-91.447533
 21
-185.068512
  0
LINE
  8
0
 62
     4
 10
-98.947548
 20
-183.168488
 11
-98.947548
 21
-192.168488
  0
LINE
  8
0
 62
     4
 10
-91.447578
 20
-188.668503
 11
-91.447578
 21
-185.068497
  0
LINE
  8
0
 62
     4
 10
-91.447548
 20
-185.068527
 11
-91.847542
 21
-184.668533
  0
LINE
  8
0
 62
     4
 10
-98.447556
 20
-199.668503
 11
-81.947556
 21
-199.668503
  0
LINE
  8
0
 62
     4
 10
-98.447540
 20
-188.668503
 11
-81.947540
 21
-188.668503
  0
LINE
  8
0
 62
     4
 10
-98.447533
 20
-184.168503
 11
-81.947533
 21
-184.168503
  0
LINE
  8
0
 62
     4
 10
-98.447525
 20
-179.668503
 11
-81.947525
 21
-179.668503
  0
LINE
  8
0
 62
     4
 10
-98.447525
 20
-181.980408
 11
-81.947525
 21
-181.980408
  0
LINE
  8
0
 62
     4
 10
-98.447578
 20
-206.068497
 11
-98.447578
 21
-179.668488
  0
LINE
  8
0
 62
     4
 10
-81.947578
 20
-206.068512
 11
-81.947578
 21
-179.668518
  0
LINE
  8
0
 62
     4
 10
-98.447571
 20
-206.068512
 11
-81.947571
 21
-206.068512
  0
LINE
  8
0
 62
     4
 10
-88.947578
 20
-188.668503
 11
-88.947578
 21
-185.068512
  0
LINE
  8
0
 62
     4
 10
-88.547523
 20
-184.668503
 11
-82.347527
 21
-184.668503
  0
LINE
  8
0
 62
     4
 10
-88.947533
 20
-185.068512
 11
-81.947533
 21
-185.068512
  0
LINE
  8
0
 62
     4
 10
-88.947533
 20
-185.068512
 11
-88.547523
 21
-184.668518
  0
LINE
  8
0
  6
CENTER
 62
     1
 10
-94.947578
 20
-195.257309
 11
-94.947578
 21
-181.668488
  0
LINE
  8
0
  6
CENTER
 62
     1
 10
-85.447578
 20
-194.910858
 11
-85.447578
 21
-181.668518
  0
LINE
  8
0
  6
CENTER
 62
     1
 10
-101.947510
 20
-187.668503
 11
-69.947540
 21
-187.668503
  0
LINE
  8
0
  6
CENTER
 62
     1
 10
-90.197578
 20
-211.628326
 11
-90.197578
 21
-176.287750
  0
LINE
  8
0
 62
     4
 10
-83.947548
 20
-104.534439
 11
-83.947548
 21
-102.802383
  0
LINE
  8
0
 62
     4
 10
-83.947525
 20
-102.802399
 11
-85.447525
 21
-101.936371
  0
LINE
  8
0
 62
     4
 10
-81.947578
 20
-108.668404
 11
-81.947578
 21
-53.668404
  0
LINE
  8
0
 62
     4
 10
-98.947510
 20
-85.668449
 11
-98.447540
 21
-85.668449
  0
LINE
  8
0
 62
     4
 10
-98.947525
 20
-76.668449
 11
-98.447556
 21
-76.668449
  0
LINE
  8
0
 62
     4
 10
-75.947556
 20
-87.168396
 11
-74.947556
 21
-85.436348
  0
LINE
  8
0
 62
     4
 10
-75.947609
 20
-75.168465
 11
-74.947609
 21
-76.900513
  0
LINE
  8
0
 62
     4
 10
-75.947548
 20
-87.168427
 11
-75.947548
 21
-75.168427
  0
LINE
  8
0
 62
     4
 10
-74.947548
 20
-85.436371
 11
-74.947548
 21
-76.900482
  0
LINE
  8
0
 62
     4
 10
-98.947548
 20
-76.668465
 11
-98.947548
 21
-85.668465
  0
LINE
  8
0
 62
     4
 10
-85.447540
 20
-105.400452
 11
-83.947533
 21
-104.534424
  0
LINE
  8
0
 62
     4
 10
-98.447548
 20
-53.668434
 11
-98.447548
 21
-108.668434
  0
LINE
  8
0
 62
     4
 10
-98.447594
 20
-53.668419
 11
-81.947624
 21
-53.668419
  0
LINE
  8
0
 62
     4
 10
-98.447502
 20
-108.668419
 11
-81.947533
 21
-108.668419
  0
LINE
  8
0
 62
     4
 10
-98.447533
 20
-91.668419
 11
-81.947563
 21
-91.668419
  0
LINE
  8
0
 62
     4
 10
-98.447563
 20
-70.668419
 11
-81.947594
 21
-70.668419
  0
LINE
  8
0
 62
     4
 10
-98.447578
 20
-62.668419
 11
-81.947609
 21
-62.668419
  0
LINE
  8
0
 62
     4
 10
-98.447517
 20
-99.668419
 11
-81.947548
 21
-99.668419
  0
LINE
  8
0
 62
     4
 10
-86.947533
 20
-104.534447
 11
-85.447525
 21
-105.400475
  0
LINE
  8
0
 62
     4
 10
-81.947540
 20
-87.168449
 11
-75.947540
 21
-87.168449
  0
LINE
  8
0
 62
     4
 10
-91.697586
 20
-65.802399
 11
-90.197586
 21
-64.936371
  0
LINE
  8
0
 62
     4
 10
-90.197540
 20
-64.936256
 11
-88.697533
 21
-65.802284
  0
LINE
  8
0
 62
     4
 10
-88.697563
 20
-65.802391
 11
-88.697563
 21
-67.534447
  0
LINE
  8
0
 62
     4
 10
-88.697563
 20
-67.534439
 11
-90.197571
 21
-68.400467
  0
LINE
  8
0
 62
     4
 10
-90.197571
 20
-68.400421
 11
-91.697578
 21
-67.534393
  0
LINE
  8
0
 62
     4
 10
-91.697563
 20
-67.534447
 11
-91.697563
 21
-65.802391
  0
LINE
  8
0
 62
     4
 10
-94.947517
 20
-101.936340
 11
-96.447525
 21
-102.802368
  0
LINE
  8
0
 62
     4
 10
-96.447548
 20
-102.802399
 11
-96.447548
 21
-104.534454
  0
LINE
  8
0
 62
     4
 10
-96.447510
 20
-104.534439
 11
-94.947510
 21
-105.400467
  0
LINE
  8
0
 62
     4
 10
-94.947517
 20
-105.400452
 11
-93.447517
 21
-104.534424
  0
LINE
  8
0
 62
     4
 10
-93.447517
 20
-102.802399
 11
-94.947525
 21
-101.936371
  0
LINE
  8
0
 62
     4
 10
-93.447548
 20
-104.534454
 11
-93.447548
 21
-102.802399
  0
LINE
  8
0
 62
     1
 10
-81.947540
 20
-86.627449
 11
-75.635193
 21
-86.627449
  0
LINE
  8
0
 62
     1
 10
-81.947556
 20
-75.709450
 11
-75.635208
 21
-75.709450
  0
LINE
  8
0
 62
     4
 10
-81.947556
 20
-75.168449
 11
-75.947556
 21
-75.168449
  0
LINE
  8
0
 62
     4
 10
-86.947563
 20
-57.802414
 11
-85.447556
 21
-56.936386
  0
LINE
  8
0
 62
     4
 10
-85.447609
 20
-56.936401
 11
-83.947601
 21
-57.802433
  0
LINE
  8
0
 62
     4
 10
-83.947548
 20
-57.802380
 11
-83.947548
 21
-59.534435
  0
LINE
  8
0
 62
     4
 10
-83.947548
 20
-59.534466
 11
-85.447556
 21
-60.400490
  0
LINE
  8
0
 62
     4
 10
-85.447594
 20
-60.400486
 11
-86.947601
 21
-59.534458
  0
LINE
  8
0
 62
     4
 10
-86.947548
 20
-59.534443
 11
-86.947548
 21
-57.802387
  0
LINE
  8
0
 62
     4
 10
-94.947571
 20
-60.400459
 11
-96.447578
 21
-59.534431
  0
LINE
  8
0
 62
     4
 10
-96.447548
 20
-59.534458
 11
-96.447548
 21
-57.802402
  0
LINE
  8
0
 62
     4
 10
-96.447578
 20
-57.802414
 11
-94.947578
 21
-56.936386
  0
LINE
  8
0
 62
     4
 10
-94.947594
 20
-56.936340
 11
-93.447586
 21
-57.802368
  0
LINE
  8
0
 62
     4
 10
-93.447578
 20
-59.534462
 11
-94.947578
 21
-60.400490
  0
LINE
  8
0
 62
     4
 10
-93.447548
 20
-57.802395
 11
-93.447548
 21
-59.534451
  0
LINE
  8
0
 62
     4
 10
-86.947548
 20
-102.802383
 11
-86.947548
 21
-104.534439
  0
LINE
  8
0
 62
     4
 10
-85.447510
 20
-101.936333
 11
-86.947517
 21
-102.802361
  0
LINE
  8
0
  6
CENTER
 62
     1
 10
-94.947548
 20
-98.168427
 11
-94.947548
 21
-109.168427
  0
LINE
  8
0
  6
CENTER
 62
     1
 10
-85.447548
 20
-98.168411
 11
-85.447548
 21
-109.168411
  0
LINE
  8
0
  6
CENTER
 62
     1
 10
-100.447510
 20
-103.668419
 11
-79.947510
 21
-103.668419
  0
LINE
  8
0
  6
CENTER
 62
     1
 10
-94.947548
 20
-64.168427
 11
-94.947548
 21
-53.168427
  0
LINE
  8
0
  6
CENTER
 62
     1
 10
-85.447548
 20
-64.168411
 11
-85.447548
 21
-53.168411
  0
LINE
  8
0
  6
CENTER
 62
     1
 10
-100.447586
 20
-58.668419
 11
-79.947586
 21
-58.668419
  0
LINE
  8
0
  6
CENTER
 62
     1
 10
-90.197563
 20
-113.336357
 11
-90.197563
 21
-50.138008
  0
LINE
  8
0
  6
CENTER
 62
     1
 10
-95.697586
 20
-66.668419
 11
-84.697586
 21
-66.668419
  0
LINE
  8
0
  6
CENTER
 62
     1
 10
-105.848305
 20
-81.168419
 11
-64.490562
 21
-81.168419
  0
LINE
  8
0
 62
     4
 10
33.052345
 20
-188.668457
 11
33.052345
 21
-185.068451
  0
LINE
  8
0
 62
     4
 10
33.052345
 20
-185.068451
 11
32.652351
 21
-184.668457
  0
LINE
  8
0
 62
     4
 10
-11.447653
 20
-196.668457
 11
-8.518362
 21
-196.668457
  0
LINE
  8
0
 62
     4
 10
26.552347
 20
-197.168457
 11
26.552347
 21
-199.668457
  0
LINE
  8
0
 62
     4
 10
19.552347
 20
-188.168457
 11
19.552347
 21
-187.168457
  0
LINE
  8
0
 62
     4
 10
26.552355
 20
-199.668488
 11
24.052357
 21
-201.111862
  0
LINE
  8
0
 62
     4
 10
23.552347
 20
-188.168457
 11
23.552347
 21
-187.168457
  0
LINE
  8
0
 62
     4
 10
22.623056
 20
-196.668457
 11
25.552347
 21
-196.668457
  0
LINE
  8
0
 62
     1
 10
23.173349
 20
-188.168457
 11
23.173349
 21
-187.168457
  0
LINE
  8
0
 62
     1
 10
19.931345
 20
-188.168457
 11
19.931345
 21
-187.168457
  0
LINE
  8
0
 62
     4
 10
-18.947653
 20
-188.668457
 11
-18.947653
 21
-185.068451
  0
LINE
  8
0
 62
     4
 10
-18.947607
 20
-185.068497
 11
-18.547588
 21
-184.668488
  0
LINE
  8
0
 62
     4
 10
-18.547644
 20
-184.668457
 11
-12.347647
 21
-184.668457
  0
LINE
  8
0
 62
     4
 10
-18.947653
 20
-185.068451
 11
-11.947653
 21
-185.068451
  0
LINE
  8
0
 62
     4
 10
7.052347
 20
-191.132568
 11
10.052329
 21
-189.400528
  0
LINE
  8
0
 62
     4
 10
-11.947620
 20
-185.068436
 11
-12.347619
 21
-184.668427
  0
LINE
  8
0
 62
     4
 10
-11.947653
 20
-188.668457
 11
-11.947653
 21
-185.068451
  0
LINE
  8
0
 62
     4
 10
4.052347
 20
-189.400482
 11
7.052355
 21
-191.132538
  0
LINE
  8
0
 62
     4
 10
4.052347
 20
-185.936401
 11
4.052347
 21
-189.400513
  0
LINE
  8
0
 62
     4
 10
7.052377
 20
-184.204391
 11
4.052368
 21
-185.936447
  0
LINE
  8
0
 62
     4
 10
-3.447653
 20
-184.168457
 11
-3.447653
 21
-182.628708
  0
LINE
  8
0
 62
     4
 10
17.552347
 20
-184.168457
 11
17.552347
 21
-182.628708
  0
LINE
  8
0
 62
     4
 10
-10.447653
 20
-184.168457
 11
-3.447653
 21
-184.168457
  0
LINE
  8
0
 62
     4
 10
17.552347
 20
-184.168457
 11
25.052347
 21
-184.168457
  0
LINE
  8
0
 62
     4
 10
-20.447653
 20
-199.668457
 11
-18.447653
 21
-199.668457
  0
LINE
  8
0
 62
     4
 10
-20.447653
 20
-204.068451
 11
-20.447653
 21
-189.668457
  0
LINE
  8
0
 62
     4
 10
34.552345
 20
-204.068451
 11
34.552345
 21
-189.668457
  0
LINE
  8
0
 62
     4
 10
32.552345
 20
-199.668457
 11
34.552345
 21
-199.668457
  0
LINE
  8
0
 62
     4
 10
32.552345
 20
-199.668457
 11
32.552345
 21
-196.368439
  0
LINE
  8
0
 62
     4
 10
-18.447653
 20
-199.668457
 11
-18.447653
 21
-196.368439
  0
LINE
  8
0
 62
     4
 10
-18.447653
 20
-196.368439
 11
-11.447653
 21
-196.368439
  0
LINE
  8
0
 62
     4
 10
25.552347
 20
-196.368439
 11
32.552345
 21
-196.368439
  0
LINE
  8
0
 62
     4
 10
25.552347
 20
-196.668457
 11
25.552347
 21
-196.368439
  0
LINE
  8
0
 62
     4
 10
-11.447653
 20
-196.668457
 11
-11.447653
 21
-196.368439
  0
LINE
  8
0
 62
     4
 10
25.552347
 20
-188.668457
 11
33.552345
 21
-188.668457
  0
LINE
  8
0
 62
     4
 10
-19.447653
 20
-188.668457
 11
-11.447653
 21
-188.668457
  0
LINE
  8
0
 62
     4
 10
25.552347
 20
-188.668457
 11
25.552347
 21
-188.168457
  0
LINE
  8
0
 62
     4
 10
-11.447653
 20
-188.668457
 11
-11.447653
 21
-185.168457
  0
LINE
  8
0
 62
     4
 10
13.031473
 20
-187.168457
 11
25.552347
 21
-187.168457
  0
LINE
  8
0
 62
     4
 10
13.031473
 20
-188.168457
 11
25.552347
 21
-188.168457
  0
LINE
  8
0
 62
     4
 10
25.552347
 20
-187.168457
 11
25.552347
 21
-185.168457
  0
LINE
  8
0
 62
     4
 10
10.052363
 20
-185.936371
 11
7.052355
 21
-184.204315
  0
LINE
  8
0
 62
     4
 10
26.552347
 20
-197.168457
 11
32.552345
 21
-197.168457
  0
LINE
  8
0
 62
     4
 10
26.552347
 20
-206.068451
 11
32.552345
 21
-206.068451
  0
LINE
  8
0
 62
     4
 10
-12.447653
 20
-206.068451
 11
-18.447653
 21
-206.068451
  0
LINE
  8
0
 62
     4
 10
-12.447653
 20
-197.168457
 11
-18.447653
 21
-197.168457
  0
LINE
  8
0
 62
     4
 10
-12.447653
 20
-197.168457
 11
-12.447653
 21
-199.668457
  0
LINE
  8
0
 62
     4
 10
-12.447665
 20
-199.668457
 11
-9.947639
 21
-201.111847
  0
LINE
  8
0
 62
     4
 10
-13.447653
 20
-197.168457
 11
-13.447653
 21
-196.368439
  0
LINE
  8
0
 62
     4
 10
-17.447653
 20
-197.168457
 11
-17.447653
 21
-196.368439
  0
LINE
  8
0
 62
     1
 10
-13.826651
 20
-197.168457
 11
-13.826651
 21
-196.368439
  0
LINE
  8
0
 62
     1
 10
-17.068655
 20
-197.168457
 11
-17.068655
 21
-196.368439
  0
LINE
  8
0
 62
     4
 10
25.052347
 20
-184.168457
 11
25.052347
 21
-180.568451
  0
LINE
  8
0
 62
     4
 10
25.052370
 20
-180.568436
 11
24.652363
 21
-180.168427
  0
LINE
  8
0
 62
     4
 10
24.652323
 20
-180.168457
 11
18.452341
 21
-180.168457
  0
LINE
  8
0
 62
     4
 10
25.052347
 20
-180.568451
 11
18.052347
 21
-180.568451
  0
LINE
  8
0
 62
     4
 10
10.052347
 20
-189.400497
 11
10.052347
 21
-185.936401
  0
LINE
  8
0
 62
     4
 10
18.052347
 20
-184.168457
 11
18.052347
 21
-180.568451
  0
LINE
  8
0
 62
     4
 10
18.052299
 20
-180.568436
 11
18.452314
 21
-180.168427
  0
LINE
  8
0
 62
     4
 10
31.552347
 20
-197.168457
 11
31.552347
 21
-196.368439
  0
LINE
  8
0
 62
     1
 10
31.173349
 20
-197.168457
 11
31.173349
 21
-196.368439
  0
LINE
  8
0
 62
     1
 10
27.931345
 20
-197.168457
 11
27.931345
 21
-196.368439
  0
LINE
  8
0
 62
     4
 10
27.552347
 20
-197.168457
 11
27.552347
 21
-196.368439
  0
LINE
  8
0
 62
     4
 10
26.052347
 20
-188.668457
 11
26.052347
 21
-185.068451
  0
LINE
  8
0
 62
     4
 10
33.052345
 20
-185.068451
 11
26.052347
 21
-185.068451
  0
LINE
  8
0
 62
     4
 10
26.052330
 20
-185.068451
 11
26.452343
 21
-184.668442
  0
LINE
  8
0
 62
     4
 10
32.652321
 20
-184.668457
 11
26.452341
 21
-184.668457
  0
LINE
  8
0
  6
CENTER
 62
     1
 10
-15.447653
 20
-204.668457
 11
-15.447653
 21
-181.668457
  0
LINE
  8
0
  6
CENTER
 62
     1
 10
-1.947653
 20
-187.668457
 11
26.552347
 21
-187.668457
  0
LINE
  8
0
  6
CENTER
 62
     1
 10
21.552347
 20
-194.168457
 11
21.552347
 21
-177.168457
  0
LINE
  8
0
  6
CENTER
 62
     1
 10
29.552347
 20
-204.668457
 11
29.552347
 21
-181.668457
  0
LINE
  8
0
 62
     4
 10
-9.947641
 20
-201.111832
 11
-9.947641
 21
-205.339218
  0
LINE
  8
0
  6
CENTER
 62
     1
 10
7.052347
 20
-174.751007
 11
7.052347
 21
-210.385925
  0
LINE
  8
0
 62
     4
 10
24.052357
 20
-201.111862
 11
24.052357
 21
-205.339233
  0
LINE
  8
0
 62
     4
 10
213.209091
 20
-78.301651
 11
215.209091
 21
-78.301651
  0
LINE
  8
0
 62
     4
 10
216.209091
 20
-91.301651
 11
231.209091
 21
-91.301651
  0
LINE
  8
0
 62
     4
 10
215.209091
 20
-88.301651
 11
215.209091
 21
-78.301651
  0
LINE
  8
0
 62
     4
 10
215.209091
 20
-87.801620
 11
218.809082
 21
-87.801620
  0
LINE
  8
0
 62
     4
 10
231.209091
 20
-91.301651
 11
231.209091
 21
-89.301651
  0
LINE
  8
0
 62
     4
 10
216.209091
 20
-89.301651
 11
231.209091
 21
-89.301651
  0
LINE
  8
0
 62
     4
 10
213.209091
 20
-88.301651
 11
213.209091
 21
-78.301651
  0
LINE
  8
0
 62
     4
 10
218.809082
 20
-87.801620
 11
219.209091
 21
-87.401619
  0
LINE
  8
0
 62
     4
 10
218.809082
 20
-80.801620
 11
219.209091
 21
-81.201622
  0
LINE
  8
0
 62
     4
 10
218.809082
 20
-87.801620
 11
218.809082
 21
-80.801620
  0
LINE
  8
0
 62
     4
 10
215.209091
 20
-80.801620
 11
218.809082
 21
-80.801620
  0
LINE
  8
0
 62
     4
 10
219.209091
 20
-87.401627
 11
219.209091
 21
-81.201622
  0
LINE
  8
0
  6
CENTER
 62
     1
 10
210.209091
 20
-84.301620
 11
222.209091
 21
-84.301620
  0
LINE
  8
0
  6
DASHED
 62
     1
 10
223.909088
 20
-91.301651
 11
223.909088
 21
-89.301651
  0
LINE
  8
0
  6
CENTER
 62
     1
 10
226.209091
 20
-94.301651
 11
226.209091
 21
-86.301651
  0
LINE
  8
0
  6
DASHED
 62
     1
 10
228.509094
 20
-91.301651
 11
228.509094
 21
-89.301651
  0
LINE
  8
0
 62
     4
 10
297.709106
 20
-85.167633
 11
297.709106
 21
-83.435585
  0
LINE
  8
0
 62
     4
 10
297.709106
 20
-83.435562
 11
296.209106
 21
-82.569550
  0
LINE
  8
0
 62
     4
 10
296.209106
 20
-82.569603
 11
294.709137
 21
-83.435623
  0
LINE
  8
0
 62
     4
 10
294.709106
 20
-83.435593
 11
294.709106
 21
-85.167633
  0
LINE
  8
0
 62
     4
 10
321.709076
 20
-85.167633
 11
320.209076
 21
-86.033646
  0
LINE
  8
0
 62
     4
 10
318.709076
 20
-83.435585
 11
320.209076
 21
-82.569565
  0
LINE
  8
0
 62
     4
 10
291.709106
 20
-89.301613
 11
324.709106
 21
-89.301613
  0
LINE
  8
0
 62
     4
 10
320.209076
 20
-82.569580
 11
321.709076
 21
-83.435600
  0
LINE
  8
0
 62
     4
 10
296.209106
 20
-86.033676
 11
297.709106
 21
-85.167648
  0
LINE
  8
0
 62
     4
 10
321.709106
 20
-83.435593
 11
321.709106
 21
-85.167633
  0
LINE
  8
0
 62
     4
 10
291.709106
 20
-91.301613
 11
291.709106
 21
-80.301613
  0
LINE
  8
0
 62
     4
 10
324.709106
 20
-91.301613
 11
324.709106
 21
-80.301613
  0
LINE
  8
0
 62
     4
 10
291.709106
 20
-91.301613
 11
324.709106
 21
-91.301613
  0
LINE
  8
0
 62
     4
 10
293.709106
 20
-78.301613
 11
301.884552
 21
-78.301613
  0
LINE
  8
0
 62
     4
 10
318.709106
 20
-85.167633
 11
318.709106
 21
-83.435585
  0
LINE
  8
0
 62
     4
 10
320.209106
 20
-86.033630
 11
318.709106
 21
-85.167603
  0
LINE
  8
0
 62
     4
 10
294.709106
 20
-85.167641
 11
296.209076
 21
-86.033653
  0
LINE
  8
0
 62
     4
 10
314.533661
 20
-78.301613
 11
322.709106
 21
-78.301613
  0
LINE
  8
0
  6
CENTER
 62
     1
 10
320.209106
 20
-79.301613
 11
320.209106
 21
-94.301613
  0
LINE
  8
0
  6
CENTER
 62
     1
 10
325.209106
 20
-84.301613
 11
315.209106
 21
-84.301613
  0
LINE
  8
0
  6
DASHED
 62
     1
 10
317.909119
 20
-89.301613
 11
317.909119
 21
-91.301613
  0
LINE
  8
0
  6
DASHED
 62
     1
 10
322.509094
 20
-89.301613
 11
322.509094
 21
-91.301613
  0
LINE
  8
0
  6
DASHED
 62
     1
 10
298.509094
 20
-89.301613
 11
298.509094
 21
-91.301613
  0
LINE
  8
0
  6
DASHED
 62
     1
 10
293.909119
 20
-89.301613
 11
293.909119
 21
-91.301613
  0
LINE
  8
0
  6
CENTER
 62
     1
 10
291.209106
 20
-84.301613
 11
301.209106
 21
-84.301613
  0
LINE
  8
0
  6
CENTER
 62
     1
 10
296.209106
 20
-79.301613
 11
296.209106
 21
-94.301613
  0
LINE
  8
0
 62
     4
 10
168.209030
 20
-214.742416
 11
218.209030
 21
-214.742416
  0
LINE
  8
0
 62
     4
 10
168.209030
 20
-221.042419
 11
218.209030
 21
-221.042419
  0
LINE
  8
0
 62
     4
 10
218.209030
 20
-221.042419
 11
218.209030
 21
-214.742416
  0
LINE
  8
0
 62
     4
 10
168.209030
 20
-221.042419
 11
168.209030
 21
-214.742416
  0
LINE
  8
0
  6
CENTER
 62
     1
 10
175.709030
 20
-224.042419
 11
175.709030
 21
-211.742416
  0
LINE
  8
0
  6
DASHED
 62
     1
 10
173.459030
 20
-221.042419
 11
173.459030
 21
-214.742416
  0
LINE
  8
0
  6
DASHED
 62
     1
 10
177.959030
 20
-221.042419
 11
177.959030
 21
-214.742416
  0
LINE
  8
0
  6
DASHED
 62
     1
 10
208.459030
 20
-221.042419
 11
208.459030
 21
-214.742416
  0
LINE
  8
0
  6
CENTER
 62
     1
 10
210.709030
 20
-224.042419
 11
210.709030
 21
-211.742416
  0
LINE
  8
0
  6
DASHED
 62
     1
 10
212.959030
 20
-221.042419
 11
212.959030
 21
-214.742416
  0
LINE
  8
0
 62
     4
 10
343.708923
 20
-214.742401
 11
343.708923
 21
-221.042404
  0
LINE
  8
0
 62
     4
 10
334.708923
 20
-221.042404
 11
343.708923
 21
-221.042404
  0
LINE
  8
0
 62
     4
 10
286.708923
 20
-214.742401
 11
286.708923
 21
-221.042404
  0
LINE
  8
0
 62
     4
 10
295.708923
 20
-221.042404
 11
286.708923
 21
-221.042404
  0
LINE
  8
0
 62
     4
 10
297.208923
 20
-214.742401
 11
286.708923
 21
-214.742401
  0
LINE
  8
0
 62
     4
 10
334.708923
 20
-217.701599
 11
334.708923
 21
-221.042404
  0
LINE
  8
0
 62
     4
 10
298.208923
 20
-215.742401
 11
298.208923
 21
-218.142395
  0
LINE
  8
0
 62
     4
 10
295.708954
 20
-217.701569
 11
298.208923
 21
-218.142380
  0
LINE
  8
0
 62
     4
 10
332.208923
 20
-215.742401
 11
332.208923
 21
-218.142395
  0
LINE
  8
0
 62
     4
 10
295.708923
 20
-217.701599
 11
295.708923
 21
-221.042404
  0
LINE
  8
0
 62
     4
 10
334.708923
 20
-217.701553
 11
332.208954
 21
-218.142365
  0
LINE
  8
0
  6
CENTER
 62
     1
 10
339.208923
 20
-211.742401
 11
339.208923
 21
-224.042404
  0
LINE
  8
0
  6
DASHED
 62
     1
 10
288.958923
 20
-214.742401
 11
288.958923
 21
-221.042404
  0
LINE
  8
0
  6
CENTER
 62
     1
 10
291.208923
 20
-211.742401
 11
291.208923
 21
-224.042404
  0
LINE
  8
0
  6
DASHED
 62
     1
 10
293.458923
 20
-214.742401
 11
293.458923
 21
-221.042404
  0
LINE
  8
0
  6
DASHED
 62
     1
 10
341.458923
 20
-214.742401
 11
341.458923
 21
-221.042404
  0
LINE
  8
0
  6
DASHED
 62
     1
 10
336.958923
 20
-214.742401
 11
336.958923
 21
-221.042404
  0
LINE
  8
0
 62
     4
 10
333.208923
 20
-214.742401
 11
343.708923
 21
-214.742401
  0
ARC
  8
0
 10
-251.493301
 20
45.608452
 40
0.399994
 50
180.000000
 51
270.000000
  0
ARC
  8
0
 10
-251.493301
 20
78.808449
 40
0.400002
 50
90.000000
 51
180.000000
  0
CIRCLE
  8
0
 10
-244.393295
 20
62.208450
 40
7.000000
  0
CIRCLE
  8
0
 10
-244.393295
 20
62.208450
 40
4.864000
  0
CIRCLE
  8
0
 62
     2
 10
-244.393295
 20
62.208450
 40
4.250000
  0
ARC
  8
0
 10
-235.893295
 20
68.708450
 40
3.000000
 50
90.000000
 51
270.000000
  0
ARC
  8
0
 10
-235.893295
 20
68.708450
 40
3.000000
 50
90.000000
 51
270.000000
  0
CIRCLE
  8
0
 10
-235.893295
 20
68.708450
 40
2.000000
  0
ARC
  8
0
 10
-247.693298
 20
78.808449
 40
0.400002
 50
90.000000
 51
180.000000
  0
ARC
  8
0
 10
-247.693298
 20
45.608452
 40
0.399994
 50
180.000000
 51
270.000000
  0
ARC
  8
0
 10
-251.493301
 20
55.108452
 40
0.399994
 50
180.000000
 51
270.000000
  0
ARC
  8
0
 10
-251.493301
 20
69.308449
 40
0.400002
 50
90.000000
 51
180.000000
  0
ARC
  8
0
 10
-246.093292
 20
74.208450
 40
6.000005
 50
160.318787
 51
199.681290
  0
ARC
  8
0
 10
-250.461853
 20
77.239532
 40
1.631444
 50
141.734634
 51
218.265366
  0
ARC
  8
0
 10
-250.461853
 20
71.177368
 40
1.631444
 50
141.734634
 51
218.265366
  0
ARC
  8
0
 10
-250.461853
 20
47.177368
 40
1.631444
 50
141.734634
 51
218.265366
  0
ARC
  8
0
 10
-250.461853
 20
53.239532
 40
1.631444
 50
141.734634
 51
218.265366
  0
ARC
  8
0
 10
-246.093292
 20
50.208450
 40
5.999994
 50
160.318634
 51
199.681152
  0
ARC
  8
0
 10
102.306686
 20
50.208450
 40
6.000002
 50
340.318848
 51
19.681313
  0
ARC
  8
0
 10
107.706711
 20
45.608452
 40
0.400002
 50
270.000000
 51
0.000000
  0
ARC
  8
0
 10
107.706711
 20
78.808449
 40
0.400002
 50
0.000000
 51
90.000000
  0
CIRCLE
  8
0
 10
100.606705
 20
62.208450
 40
7.000000
  0
CIRCLE
  8
0
 10
100.606705
 20
62.208450
 40
4.864000
  0
CIRCLE
  8
0
 62
     2
 10
100.606705
 20
62.208450
 40
4.250000
  0
ARC
  8
0
 10
92.106705
 20
68.708450
 40
3.000000
 50
270.000000
 51
90.000000
  0
ARC
  8
0
 10
92.106705
 20
68.708450
 40
3.000000
 50
270.000000
 51
90.000000
  0
CIRCLE
  8
0
 10
92.106705
 20
68.708450
 40
2.000000
  0
ARC
  8
0
 10
103.906693
 20
78.808449
 40
0.400002
 50
0.000000
 51
90.000000
  0
ARC
  8
0
 10
103.906693
 20
45.608452
 40
0.400002
 50
270.000000
 51
0.000000
  0
ARC
  8
0
 10
107.706711
 20
55.108452
 40
0.400002
 50
270.000000
 51
0.000000
  0
ARC
  8
0
 10
107.706711
 20
69.308449
 40
0.400002
 50
0.000000
 51
90.000000
  0
ARC
  8
0
 10
102.306686
 20
74.208450
 40
6.000000
 50
340.318695
 51
19.681150
  0
ARC
  8
0
 10
106.675247
 20
77.239532
 40
1.631450
 50
321.734802
 51
38.265205
  0
ARC
  8
0
 10
106.675247
 20
71.177368
 40
1.631450
 50
321.734802
 51
38.265205
  0
ARC
  8
0
 10
106.675247
 20
47.177368
 40
1.631450
 50
321.734802
 51
38.265205
  0
ARC
  8
0
 10
106.675247
 20
53.239532
 40
1.631450
 50
321.734802
 51
38.265205
  0
CIRCLE
  8
0
 10
-174.393295
 20
53.308441
 40
1.500000
  0
CIRCLE
  8
0
 10
-163.893295
 20
63.008404
 40
2.000000
  0
ARC
  8
0
 10
-196.703674
 20
62.158405
 40
2.000006
 50
334.849457
 51
25.150532
  0
ARC
  8
0
 10
-193.082916
 20
63.858402
 40
2.000008
 50
161.032944
 51
206.320190
  0
CIRCLE
  8
0
 10
25.606705
 20
53.308441
 40
1.500000
  0
CIRCLE
  8
0
 10
36.106705
 20
63.008404
 40
2.000000
  0
ARC
  8
0
 10
3.296310
 20
62.158405
 40
2.000000
 50
334.849396
 51
25.150618
  0
ARC
  8
0
 10
6.917099
 20
63.858402
 40
1.999999
 50
161.033096
 51
205.150620
  0
CIRCLE
  8
0
 62
     2
 10
-144.393387
 20
151.208405
 40
2.000000
  0
CIRCLE
  8
0
 10
-144.393387
 20
151.208405
 40
1.500000
  0
CIRCLE
  8
0
 62
     2
 10
-199.393387
 20
181.208405
 40
2.000000
  0
CIRCLE
  8
0
 10
-199.393387
 20
181.208405
 40
1.500000
  0
CIRCLE
  8
0
 62
     2
 10
-199.393387
 20
166.208405
 40
2.000000
  0
CIRCLE
  8
0
 10
-199.393387
 20
166.208405
 40
1.500000
  0
CIRCLE
  8
0
 62
     2
 10
-199.393387
 20
151.208405
 40
2.000000
  0
CIRCLE
  8
0
 10
-199.393387
 20
151.208405
 40
1.500000
  0
CIRCLE
  8
0
 62
     2
 10
-144.393387
 20
181.208405
 40
2.000000
  0
CIRCLE
  8
0
 10
-144.393387
 20
181.208405
 40
1.500000
  0
CIRCLE
  8
0
 62
     2
 10
-144.393387
 20
166.208405
 40
2.000000
  0
CIRCLE
  8
0
 10
-144.393387
 20
166.208405
 40
1.500000
  0
ARC
  8
0
 10
-235.393387
 20
174.808411
 40
2.500000
 50
90.000000
 51
180.000000
  0
ARC
  8
0
 10
-235.393387
 20
157.608398
 40
2.500000
 50
180.000000
 51
270.000000
  0
CIRCLE
  8
0
 10
-246.893387
 20
166.208405
 40
1.500000
  0
CIRCLE
  8
0
 10
-241.893387
 20
166.208405
 40
1.500000
  0
CIRCLE
  8
0
 10
-246.893387
 20
166.208405
 40
1.250000
  0
CIRCLE
  8
0
 10
-241.893387
 20
166.208405
 40
1.250000
  0
CIRCLE
  8
0
 10
-235.293381
 20
174.508408
 40
2.000000
  0
CIRCLE
  8
0
 10
-235.293381
 20
157.908401
 40
2.000000
  0
ARC
  8
0
 10
-251.493393
 20
182.808411
 40
0.399994
 50
90.000000
 51
180.000000
  0
ARC
  8
0
 10
-251.493393
 20
149.608398
 40
0.399994
 50
180.000000
 51
270.000000
  0
ARC
  8
0
 10
-247.693390
 20
182.808411
 40
0.399994
 50
90.000000
 51
180.000000
  0
ARC
  8
0
 10
-251.493393
 20
173.308411
 40
0.399994
 50
90.000000
 51
180.000000
  0
ARC
  8
0
 10
-251.493393
 20
159.108398
 40
0.399994
 50
180.000000
 51
270.000000
  0
ARC
  8
0
 10
-247.693390
 20
149.608398
 40
0.399994
 50
180.000000
 51
270.000000
  0
ARC
  8
0
 10
-246.843384
 20
179.958405
 40
5.250005
 50
160.528793
 51
199.471207
  0
ARC
  8
0
 10
-246.843384
 20
176.458405
 40
5.250005
 50
160.528793
 51
199.471039
  0
ARC
  8
0
 10
-246.843384
 20
155.958405
 40
5.250005
 50
160.528793
 51
199.471207
  0
ARC
  8
0
 10
-246.843384
 20
152.458405
 40
5.250005
 50
160.528793
 51
199.471039
  0
ARC
  8
0
 10
91.606613
 20
174.808411
 40
2.500000
 50
0.000000
 51
90.000000
  0
ARC
  8
0
 10
91.606613
 20
157.608398
 40
2.500000
 50
270.000000
 51
0.000000
  0
CIRCLE
  8
0
 10
103.106613
 20
166.208405
 40
1.500000
  0
CIRCLE
  8
0
 10
98.106613
 20
166.208405
 40
1.500000
  0
CIRCLE
  8
0
 10
103.106613
 20
166.208405
 40
1.250000
  0
CIRCLE
  8
0
 10
98.106613
 20
166.208405
 40
1.250000
  0
CIRCLE
  8
0
 10
91.506607
 20
174.508408
 40
2.000000
  0
CIRCLE
  8
0
 10
91.506607
 20
157.908401
 40
2.000000
  0
ARC
  8
0
 10
107.706619
 20
182.808411
 40
0.400002
 50
0.000000
 51
90.000000
  0
ARC
  8
0
 10
107.706619
 20
149.608398
 40
0.399994
 50
270.000000
 51
0.000000
  0
ARC
  8
0
 10
103.906601
 20
182.808411
 40
0.400002
 50
0.000000
 51
90.000000
  0
ARC
  8
0
 10
107.706619
 20
173.308411
 40
0.400002
 50
0.000000
 51
90.000000
  0
ARC
  8
0
 10
107.706619
 20
159.108398
 40
0.399994
 50
270.000000
 51
0.000000
  0
ARC
  8
0
 10
103.906601
 20
149.608398
 40
0.399994
 50
270.000000
 51
0.000000
  0
ARC
  8
0
 10
103.056625
 20
179.958405
 40
5.249998
 50
340.528778
 51
19.471201
  0
ARC
  8
0
 10
103.056625
 20
176.458405
 40
5.250005
 50
340.528809
 51
19.471230
  0
ARC
  8
0
 10
103.056625
 20
155.958405
 40
5.249998
 50
340.528778
 51
19.471201
  0
ARC
  8
0
 10
103.056625
 20
152.458405
 40
5.250005
 50
340.528809
 51
19.471230
  0
ARC
  8
0
 10
36.106613
 20
143.775070
 40
2.266666
 50
208.072464
 51
331.927521
  0
ARC
  8
0
 62
     2
 10
3.296219
 20
145.508362
 40
2.000003
 50
334.849182
 51
20.488634
  0
ARC
  8
0
 10
253.106628
 20
43.208454
 40
2.000000
 50
90.000000
 51
180.000000
  0
ARC
  8
0
 10
269.106628
 20
43.208454
 40
2.000000
 50
0.000000
 51
90.000000
  0
ARC
  8
0
 10
280.306641
 20
43.508453
 40
0.299999
 50
270.000000
 51
0.000000
  0
ARC
  8
0
 10
278.406616
 20
46.725163
 40
0.299988
 50
180.000000
 51
279.999878
  0
ARC
  8
0
 10
280.306641
 20
46.450928
 40
0.299988
 50
0.000000
 51
99.999878
  0
ARC
  8
0
 10
278.506622
 20
49.008453
 40
1.200001
 50
90.000000
 51
109.495605
  0
ARC
  8
0
 10
279.406616
 20
50.408455
 40
0.200001
 50
270.000000
 51
0.000000
  0
ARC
  8
0
 10
280.406616
 20
65.308456
 40
0.200012
 50
0.000000
 51
90.000000
  0
ARC
  8
0
 10
280.406616
 20
64.708458
 40
0.199997
 50
270.000000
 51
0.000000
  0
ARC
  8
0
 10
278.806641
 20
53.508453
 40
0.799988
 50
0.000000
 51
151.045624
  0
ARC
  8
0
 10
279.239777
 20
66.008453
 40
0.500004
 50
219.999893
 51
270.000000
  0
ARC
  8
0
 10
241.906631
 20
43.508453
 40
0.300003
 50
180.000000
 51
270.000000
  0
ARC
  8
0
 10
241.906631
 20
46.450928
 40
0.299998
 50
80.000122
 51
180.000000
  0
ARC
  8
0
 10
243.806625
 20
46.725163
 40
0.299998
 50
260.000122
 51
0.000000
  0
ARC
  8
0
 10
243.706635
 20
49.008453
 40
1.200003
 50
289.471649
 51
314.553223
  0
ARC
  8
0
 10
242.806625
 20
50.408455
 40
0.199997
 50
180.000000
 51
270.000000
  0
ARC
  8
0
 10
243.406631
 20
53.508453
 40
0.799997
 50
28.955145
 51
180.000000
  0
ARC
  8
0
 10
277.706635
 20
55.108452
 40
0.400002
 50
270.000000
 51
0.000000
  0
ARC
  8
0
 10
244.506622
 20
55.108452
 40
0.399994
 50
180.000000
 51
270.000000
  0
ARC
  8
0
 10
244.506622
 20
69.308456
 40
0.400002
 50
90.000000
 51
180.000000
  0
ARC
  8
0
 10
249.106628
 20
74.208458
 40
5.000000
 50
90.000000
 51
180.000000
  0
ARC
  8
0
 10
273.106628
 20
74.208458
 40
5.000000
 50
0.000000
 51
90.000000
  0
ARC
  8
0
 10
249.106628
 20
50.208454
 40
5.000000
 50
180.000000
 51
270.000000
  0
ARC
  8
0
 10
273.106628
 20
50.208454
 40
5.000000
 50
270.000000
 51
0.000000
  0
CIRCLE
  8
0
 10
249.106628
 20
74.208458
 40
1.650000
  0
CIRCLE
  8
0
 10
249.106628
 20
74.208458
 40
4.500000
  0
CIRCLE
  8
0
 62
     2
 10
249.106628
 20
74.208458
 40
2.000000
  0
CIRCLE
  8
0
 10
273.106628
 20
74.208458
 40
1.650000
  0
CIRCLE
  8
0
 10
273.106628
 20
74.208458
 40
4.500000
  0
CIRCLE
  8
0
 62
     2
 10
273.106628
 20
74.208458
 40
2.000000
  0
CIRCLE
  8
0
 10
273.106628
 20
50.208454
 40
1.650000
  0
CIRCLE
  8
0
 10
273.106628
 20
50.208454
 40
4.500000
  0
CIRCLE
  8
0
 62
     2
 10
273.106628
 20
50.208454
 40
2.000000
  0
CIRCLE
  8
0
 10
249.106628
 20
50.208454
 40
1.650000
  0
CIRCLE
  8
0
 10
249.106628
 20
50.208454
 40
4.500000
  0
CIRCLE
  8
0
 62
     2
 10
249.106628
 20
50.208454
 40
2.000000
  0
CIRCLE
  8
0
 62
     2
 10
270.606628
 20
62.208454
 40
4.864000
  0
CIRCLE
  8
0
 62
     2
 10
255.606628
 20
62.208454
 40
4.864000
  0
CIRCLE
  8
0
 10
270.606628
 20
62.208454
 40
4.150000
  0
CIRCLE
  8
0
 10
255.606628
 20
62.208454
 40
4.150000
  0
ARC
  8
0
 10
249.106628
 20
74.208458
 40
5.500000
 50
0.000000
 51
35.096798
  0
ARC
  8
0
 10
273.106628
 20
74.208458
 40
5.500000
 50
144.903198
 51
305.096680
  0
ARC
  8
0
 10
249.106628
 20
50.208454
 40
5.500000
 50
0.000000
 51
125.096794
  0
ARC
  8
0
 10
273.106628
 20
50.208454
 40
5.500009
 50
54.903072
 51
215.096771
  0
ARC
  8
0
 10
249.106628
 20
74.208458
 40
5.500000
 50
0.000000
 51
35.096798
  0
ARC
  8
0
 10
249.106628
 20
74.208458
 40
5.500000
 50
234.903198
 51
0.000000
  0
ARC
  8
0
 10
249.106628
 20
50.208454
 40
5.500000
 50
324.903198
 51
0.000000
  0
ARC
  8
0
 10
273.106628
 20
74.208458
 40
5.500000
 50
144.903198
 51
305.096680
  0
ARC
  8
0
 10
254.006622
 20
78.808456
 40
0.400002
 50
90.000000
 51
180.000000
  0
ARC
  8
0
 10
268.206635
 20
78.808456
 40
0.399994
 50
0.000000
 51
90.000000
  0
ARC
  8
0
 10
277.706635
 20
69.308456
 40
0.399994
 50
0.000000
 51
90.000000
  0
ARC
  8
0
 10
268.206635
 20
45.608452
 40
0.400002
 50
270.000000
 51
0.000000
  0
ARC
  8
0
 10
254.006622
 20
45.608452
 40
0.399994
 50
180.000000
 51
270.000000
  0
CIRCLE
  8
0
 10
249.106628
 20
50.208454
 40
3.500000
  0
CIRCLE
  8
0
 10
249.106628
 20
74.208458
 40
3.500000
  0
CIRCLE
  8
0
 10
273.106628
 20
74.208458
 40
3.500000
  0
CIRCLE
  8
0
 10
273.106628
 20
50.208454
 40
3.500000
  0
ARC
  8
0
 10
243.706635
 20
49.008453
 40
1.199997
 50
70.505081
 51
90.000000
  0
ARC
  8
0
 10
278.506622
 20
49.008453
 40
1.200004
 50
225.446777
 51
250.529053
  0
ARC
  8
0
 10
234.106628
 20
93.708450
 40
1.000000
 50
90.000000
 51
180.000000
  0
ARC
  8
0
 10
288.106628
 20
93.708450
 40
1.000000
 50
0.000000
 51
90.000000
  0
ARC
  8
0
 10
243.406631
 20
55.008461
 40
0.799999
 50
28.955385
 51
120.000664
  0
ARC
  8
0
 10
241.756638
 20
54.958450
 40
4.050001
 50
54.532261
 51
90.000000
  0
ARC
  8
0
 10
240.106628
 20
51.308456
 40
1.000000
 50
270.000000
 51
0.000000
  0
ARC
  8
0
 10
237.314178
 20
51.308456
 40
1.000000
 50
187.229233
 51
270.000000
  0
ARC
  8
0
 10
325.606628
 20
62.508461
 40
90.000000
 50
180.325516
 51
187.229416
  0
ARC
  8
0
 10
237.606628
 20
62.008461
 40
2.000000
 50
90.000000
 51
182.508423
  0
ARC
  8
0
 10
239.673309
 20
62.508453
 40
2.266666
 50
118.072464
 51
241.927536
  0
CIRCLE
  8
0
 62
     4
 10
-330.447571
 20
-103.668419
 40
3.500000
  0
CIRCLE
  8
0
 62
     4
 10
-339.947571
 20
-58.668419
 40
3.500000
  0
CIRCLE
  8
0
 62
     4
 10
-330.447571
 20
-58.668419
 40
3.500000
  0
CIRCLE
  8
0
 62
     4
 10
-339.947571
 20
-103.668419
 40
3.500000
  0
CIRCLE
  8
0
 62
     4
 10
-335.197571
 20
-66.668419
 40
3.500000
  0
ARC
  8
0
 62
     4
 10
-256.447327
 20
-204.068359
 40
2.000000
 50
180.000000
 51
270.000000
  0
ARC
  8
0
 62
     4
 10
-250.447342
 20
-201.418350
 40
4.649994
 50
270.000000
 51
302.522766
  0
ARC
  8
0
 62
     4
 10
-205.447342
 20
-204.068359
 40
2.000000
 50
270.000000
 51
0.000000
  0
ARC
  8
0
 62
     4
 10
-211.447342
 20
-201.418350
 40
4.649999
 50
237.477249
 51
270.000000
  0
ARC
  8
0
 62
     4
 10
-221.447342
 20
-182.628601
 40
1.000000
 50
0.000000
 51
66.682251
  0
ARC
  8
0
 62
     4
 10
-240.447342
 20
-182.628601
 40
0.999996
 50
113.317749
 51
180.000000
  0
ARC
  8
0
 62
     4
 10
-213.447342
 20
-185.168350
 40
1.000000
 50
0.000000
 51
90.000000
  0
ARC
  8
0
 62
     4
 10
-248.447342
 20
-185.168350
 40
1.000000
 50
90.000000
 51
180.000000
  0
ARC
  8
0
 62
     4
 10
-204.447342
 20
-189.668350
 40
1.000000
 50
0.000000
 51
90.000000
  0
ARC
  8
0
 62
     4
 10
-257.447327
 20
-189.668350
 40
1.000000
 50
90.000000
 51
180.000000
  0
ARC
  8
0
 62
     4
 10
-230.947342
 20
-204.668350
 40
24.999992
 50
66.682045
 51
113.317955
  0
CIRCLE
  8
0
 62
     4
 10
-230.947342
 20
-187.668350
 40
5.459000
  0
CIRCLE
  8
0
 62
     1
 10
-230.947342
 20
-187.668350
 40
6.000000
  0
CIRCLE
  8
0
 62
     4
 10
-85.447510
 20
-103.668411
 40
3.500000
  0
CIRCLE
  8
0
 62
     4
 10
-94.947586
 20
-58.668427
 40
3.500000
  0
CIRCLE
  8
0
 62
     4
 10
-85.447586
 20
-58.668411
 40
3.500000
  0
CIRCLE
  8
0
 62
     4
 10
-94.947510
 20
-103.668427
 40
3.500000
  0
CIRCLE
  8
0
 62
     4
 10
-90.197586
 20
-66.668419
 40
3.500000
  0
ARC
  8
0
 62
     4
 10
-18.447653
 20
-204.068451
 40
2.000000
 50
180.000000
 51
270.000000
  0
ARC
  8
0
 62
     4
 10
-12.447653
 20
-201.418457
 40
4.649994
 50
270.000031
 51
302.522797
  0
ARC
  8
0
 62
     4
 10
32.552345
 20
-204.068451
 40
2.000000
 50
270.000000
 51
0.000000
  0
ARC
  8
0
 62
     4
 10
26.552347
 20
-201.418457
 40
4.650000
 50
237.477219
 51
270.000031
  0
ARC
  8
0
 62
     4
 10
16.552347
 20
-182.628708
 40
1.000000
 50
0.000000
 51
66.682152
  0
ARC
  8
0
 62
     4
 10
-2.447653
 20
-182.628708
 40
0.999996
 50
113.317863
 51
180.000000
  0
ARC
  8
0
 62
     4
 10
24.552347
 20
-185.168457
 40
1.000000
 50
0.000000
 51
90.000000
  0
ARC
  8
0
 62
     4
 10
-10.447653
 20
-185.168457
 40
1.000000
 50
90.000000
 51
180.000000
  0
ARC
  8
0
 62
     4
 10
33.552345
 20
-189.668457
 40
1.000000
 50
0.000000
 51
90.000000
  0
ARC
  8
0
 62
     4
 10
-19.447653
 20
-189.668457
 40
1.000000
 50
90.000000
 51
180.000000
  0
ARC
  8
0
 62
     4
 10
7.052347
 20
-204.668457
 40
24.999992
 50
66.682045
 51
113.317963
  0
CIRCLE
  8
0
 62
     4
 10
7.052347
 20
-187.668457
 40
5.459000
  0
CIRCLE
  8
0
 62
     1
 10
7.052347
 20
-187.668457
 40
6.000000
  0
ARC
  8
0
 62
     4
 10
216.209091
 20
-88.301651
 40
1.000000
 50
180.000000
 51
270.000000
  0
ARC
  8
0
 62
     4
 10
216.209091
 20
-88.301651
 40
3.000000
 50
180.000000
 51
270.000000
  0
ARC
  8
0
 62
     4
 10
308.209106
 20
-76.801613
 40
6.499999
 50
193.342361
 51
346.657623
  0
CIRCLE
  8
0
 62
     4
 10
320.209106
 20
-84.301613
 40
3.500000
  0
CIRCLE
  8
0
 62
     4
 10
296.209106
 20
-84.301613
 40
3.500000
  0
ARC
  8
0
 62
     4
 10
293.709106
 20
-80.301613
 40
2.000000
 50
90.000000
 51
180.000000
  0
ARC
  8
0
 62
     4
 10
322.709106
 20
-80.301613
 40
2.000000
 50
0.000000
 51
90.000000
  0
ARC
  8
0
 62
     4
 10
297.208923
 20
-215.742401
 40
1.000000
 50
0.000000
 51
90.000000
  0
ARC
  8
0
 62
     4
 10
333.208923
 20
-215.742401
 40
1.000000
 50
90.000000
 51
180.000000
  0
TEXT
  8
0
 10
-319.975891
 20
-7.150000
 40
6.000000
  1
S-ABSORBER(-K)
 50
0.000000
 41
1.052632
 51
0.000000
  7
STANDARD
  0
TEXT
  8
0
 10
-69.213394
 20
-7.150001
 40
6.000000
  1
A-BOLT(-S)
 50
0.000000
 41
1.052632
 51
0.000000
  7
STANDARD
  0
TEXT
  8
0
 10
199.430344
 20
-7.150001
 40
6.000000
  1
L-SUPPORT(-L)
 50
0.000000
 41
1.052632
 51
0.000000
  7
STANDARD
  0
TEXT
  8
0
 10
199.430344
 20
-139.149994
 40
6.000000
  1
F-SUPPORT(-F)
 50
0.000000
 41
1.052632
 51
0.000000
  7
STANDARD
  0
TEXT
  8
0
 10
-365.285309
 20
256.649994
 40
9.000000
  1
ORK SERIES
 50
0.000000
 41
1.052632
 51
0.000000
  7
STANDARD
  0
TEXT
  8
0
 10
242.014816
 20
-274.500000
 40
12.500000
  1
KOGANEI CORP.
 50
0.000000
 41
1.052632
 51
0.000000
  7
STANDARD
  0
TEXT
  8
0
 10
251.264664
 20
256.649994
 40
9.000000
  1
DATE: Apr ,1994
 50
0.000000
 41
1.052632
 51
0.000000
  7
STANDARD
  0
TEXT
  8
0
 10
-384.785309
 20
224.149994
 40
9.000000
  1
MODEL:ORK 20X200
 50
0.000000
 41
1.052632
 51
0.000000
  7
STANDARD
  0
ENDSEC
  0
EOF
