  0
SECTION
  2
HEADER
  0
ENDSEC
  0
SECTION
  2
TABLES
  0
TABLE
  2
LTYPE
 70
     4
  0
LTYPE
  2
CONTINUOUS
 70
    64
  3
Solid line
 72
    65
 73
     0
 40
0.000000
  0
LTYPE
  2
DASHED
 70
    64
  3
__ __ __ __ __ __ __ __ __ __ __ __ __ __ __
 72
    65
 73
     2
 40
3.500000
 49
2.000000
 49
-1.500000
  0
LTYPE
  2
CENTER
 70
    64
  3
____ _ ____ _ ____ _ ____ _ ____ _ ____ _ ____
 72
    65
 73
     4
 40
17.500000
 49
13.000000
 49
-1.500000
 49
1.500000
 49
-1.500000
  0
LTYPE
  2
PHANTOM
 70
    64
  3
_____ _ _ _____ _ _ _____ _ _ _____ _ _ ____  
 72
    65
 73
     6
 40
15.500000
 49
8.000000
 49
-1.500000
 49
1.500000
 49
-1.500000
 49
1.500000
 49
-1.500000
  0
LTYPE
  2
DASHED1
 70
    64
  3
__ __ __ __ __ __ __ __ __ __ __ __ __ __ __
 72
    65
 73
     2
 40
1.500000
 49
1.000000
 49
-0.500000
  0
LTYPE
  2
DASHED2
 70
    64
  3
__ __ __ __ __ __ __ __ __ __ __ __ __ __ __
 72
    65
 73
     2
 40
3.500000
 49
2.500000
 49
-1.000000
  0
LTYPE
  2
DASHED3
 70
    64
  3
__ __ __ __ __ __ __ __ __ __ __ __ __ __ __
 72
    65
 73
     2
 40
6.000000
 49
4.000000
 49
-2.000000
  0
LTYPE
  2
DASHED4
 70
    64
  3
__ __ __ __ __ __ __ __ __ __ __ __ __ __ __
 72
    65
 73
     2
 40
12.000000
 49
10.000000
 49
-2.000000
  0
LTYPE
  2
DASHED5
 70
    64
  3
__ __ __ __ __ __ __ __ __ __ __ __ __ __ __
 72
    65
 73
     2
 40
17.000000
 49
15.000000
 49
-2.000000
  0
LTYPE
  2
DASHED6
 70
    64
  3
__ __ __ __ __ __ __ __ __ __ __ __ __ __ __
 72
    65
 73
     2
 40
29.000000
 49
27.000000
 49
-2.000000
  0
LTYPE
  2
PHANTOM1
 70
    64
  3
_____ _ _ _____ _ _ _____ _ _ _____ _ _ ____  
 72
    65
 73
     6
 40
31.000000
 49
25.000000
 49
-1.500000
 49
1.000000
 49
-1.000000
 49
1.000000
 49
-1.500000
  0
LTYPE
  2
PHANTOM2
 70
    64
  3
_____ _ _ _____ _ _ _____ _ _ _____ _ _ ____  
 72
    65
 73
     6
 40
36.000000
 49
27.000000
 49
-1.500000
 49
2.500000
 49
-1.000000
 49
2.500000
 49
-1.500000
  0
LTYPE
  2
PHANTOM3
 70
    64
  3
_____ _ _ _____ _ _ _____ _ _ _____ _ _ ____  
 72
    65
 73
     6
 40
78.000000
 49
64.000000
 49
-2.000000
 49
4.000000
 49
-2.000000
 49
4.000000
 49
-2.000000
  0
LTYPE
  2
CENTER1
 70
    64
  3
____ _ ____ _ ____ _ ____ _ ____ _ ____ _ ____
 72
    65
 73
     4
 40
19.000000
 49
14.000000
 49
-1.000000
 49
3.000000
 49
-1.000000
  0
LTYPE
  2
CENTER2
 70
    64
  3
____ _ ____ _ ____ _ ____ _ ____ _ ____ _ ____
 72
    65
 73
     4
 40
28.500000
 49
25.000000
 49
-1.000000
 49
1.500000
 49
-1.000000
  0
LTYPE
  2
CENTER3
 70
    64
  3
____ _ ____ _ ____ _ ____ _ ____ _ ____ _ ____
 72
    65
 73
     4
 40
31.500000
 49
27.000000
 49
-1.000000
 49
2.500000
 49
-1.000000
  0
LTYPE
  2
CENTER4
 70
    64
  3
____ _ ____ _ ____ _ ____ _ ____ _ ____ _ ____
 72
    65
 73
     4
 40
50.000000
 49
45.000000
 49
-1.000000
 49
3.000000
 49
-1.000000
  0
LTYPE
  2
CENTER5
 70
    64
  3
____ _ ____ _ ____ _ ____ _ ____ _ ____ _ ____
 72
    65
 73
     4
 40
100.000000
 49
92.000000
 49
-2.000000
 49
4.000000
 49
-2.000000
  0
LTYPE
  2
SBK1
 70
    64
  3
______ _ _ _ ______ _ _ _ ______ _ _ _ _____  
 72
    65
 73
     8
 40
60.500000
 49
45.000000
 49
-2.000000
 49
2.500000
 49
-2.000000
 49
2.500000
 49
-2.000000
 49
2.500000
 49
-2.000000
  0
LTYPE
  2
SBK2
 70
    64
  3
______ _ _ _ ______ _ _ _ ______ _ _ _ _____  
 72
    65
 73
     8
 40
84.000000
 49
64.000000
 49
-2.000000
 49
4.000000
 49
-2.000000
 49
4.000000
 49
-2.000000
 49
4.000000
 49
-2.000000
  0
LTYPE
  2
STCH
 70
    64
  3
__ __ __ __ __ __ __ __ __ __ __ __ __ __ __
 72
    65
 73
     2
 40
3.000000
 49
1.000000
 49
-2.000000
  0
LTYPE
  2
MTCH
 70
    64
  3
_____ _ _ _____ _ _ _____ _ _ _____ _ _ ____  
 72
    65
 73
     6
 40
80.000000
 49
66.000000
 49
-2.000000
 49
4.000000
 49
-2.000000
 49
4.000000
 49
-2.000000
  0
ENDTAB
  0
TABLE
  2
LAYER
 70
     1
  0
LAYER
  2
0
 70
     0
 62
     7
  6
CONTINUOUS
  0
ENDTAB
  0
TABLE
  2
STYLE
 70
     1
  0
STYLE
  2
STANDARD
 70
     0
 40
0.000000
 41
1.000000
 50
0.000000
 71
     0
 42
0.200000
  3
txt
  4
BIGFONT
  0
ENDTAB
  0
TABLE
  2
VIEW
 70
     0
  0
ENDTAB
  0
ENDSEC
  0
SECTION
  2
BLOCKS
  0
ENDSEC
  0
SECTION
  2
ENTITIES
  0
LINE
  8
0
 10
399.799988
 20
276.250000
 11
399.799988
 21
-276.750000
  0
LINE
  8
0
 10
-399.250000
 20
276.250000
 11
-399.250000
 21
-276.750000
  0
LINE
  8
0
 10
-399.250000
 20
276.250000
 11
399.799988
 21
276.250000
  0
LINE
  8
0
 10
-399.250000
 20
-276.750000
 11
399.799988
 21
-276.750000
  0
LINE
  8
0
 10
239.799988
 20
-251.750000
 11
399.799988
 21
-251.750000
  0
LINE
  8
0
 10
239.799988
 20
251.250000
 11
399.799988
 21
251.250000
  0
LINE
  8
0
 10
-399.250000
 20
251.250000
 11
-239.250000
 21
251.250000
  0
LINE
  8
0
 10
239.799988
 20
-251.750000
 11
239.799988
 21
-276.750000
  0
LINE
  8
0
 10
239.799988
 20
251.250000
 11
239.799988
 21
276.250000
  0
LINE
  8
0
 10
-239.250000
 20
276.250000
 11
-239.250000
 21
251.250000
  0
LINE
  8
0
 10
-399.250000
 20
-20.250000
 11
399.799988
 21
-20.250000
  0
LINE
  8
0
 10
95.274994
 20
-20.250000
 11
95.274994
 21
-276.750000
  0
LINE
  8
0
 10
-154.487503
 20
-20.250000
 11
-154.487503
 21
-276.750000
  0
LINE
  8
0
  6
CENTER
 62
     2
 10
-385.333344
 20
-219.000107
 11
-284.333344
 21
-219.000107
  0
LINE
  8
0
  6
CENTER
 62
     2
 10
-214.333160
 20
-166.000198
 11
-214.333160
 21
-254.000168
  0
LINE
  8
0
  6
CENTER
 62
     2
 10
-144.187836
 20
-219.000137
 11
-39.333130
 21
-219.000137
  0
LINE
  8
0
  6
CENTER
 62
     2
 10
-245.333191
 20
-219.000198
 11
-183.333191
 21
-219.000198
  0
LINE
  8
0
  6
CENTER
 62
     2
 10
35.666718
 20
-204.813232
 11
35.666718
 21
-254.000107
  0
LINE
  8
0
 10
95.274994
 20
-138.500000
 11
399.799988
 21
-138.500000
  0
LINE
  8
0
  6
PHANTOM
 62
     2
 10
197.616745
 20
-57.166618
 11
197.616745
 21
-93.166672
  0
LINE
  8
0
  6
CENTER
 62
     2
 10
127.770432
 20
-83.166695
 11
206.147751
 21
-83.166695
  0
LINE
  8
0
  6
CENTER
 62
     2
 10
278.616821
 20
-83.166756
 11
340.616821
 21
-83.166756
  0
LINE
  8
0
  6
CENTER
 62
     2
 10
309.616821
 20
-52.166756
 11
309.616821
 21
-118.166756
  0
LINE
  8
0
  6
CENTER
 62
     2
 10
157.583374
 20
-168.133224
 11
157.583374
 21
-239.799881
  0
LINE
  8
0
  6
CENTER
 62
     2
 10
114.333466
 20
-201.466614
 11
222.666779
 21
-201.466614
  0
LINE
  8
0
  6
CENTER
 62
     2
 10
312.583405
 20
-169.466705
 11
312.583405
 21
-233.466705
  0
LINE
  8
0
  6
CENTER
 62
     2
 10
279.583405
 20
-201.466614
 11
345.583405
 21
-201.466614
  0
LINE
  8
0
 10
-399.250000
 20
-35.250000
 11
399.799988
 21
-35.250000
  0
LINE
  8
0
 10
95.274994
 20
-153.500000
 11
399.799988
 21
-153.500000
  0
LINE
  8
0
  6
CENTER
 62
     2
 10
4.666809
 20
-219.000198
 11
66.666809
 21
-219.000198
  0
LINE
  8
0
 10
73.500000
 20
43.000046
 11
73.500000
 21
36.000046
  0
LINE
  8
0
 10
67.500000
 20
36.000046
 11
73.500000
 21
36.000046
  0
LINE
  8
0
 10
39.500000
 20
37.800003
 11
49.500000
 21
37.800003
  0
LINE
  8
0
 10
49.500000
 20
42.000000
 11
49.500000
 21
37.000000
  0
LINE
  8
0
 10
52.500000
 20
24.800049
 11
67.500000
 21
24.800049
  0
LINE
  8
0
 10
52.500000
 20
41.000061
 11
52.500000
 21
24.800049
  0
LINE
  8
0
 10
49.500000
 20
37.000000
 11
51.500000
 21
37.000000
  0
LINE
  8
0
 10
59.250019
 20
26.867071
 11
60.000023
 21
26.434057
  0
LINE
  8
0
 10
60.000019
 20
26.433962
 11
60.750023
 21
26.866976
  0
LINE
  8
0
 10
60.750000
 20
26.867035
 11
60.750000
 21
27.733063
  0
LINE
  8
0
 10
60.750008
 20
27.733070
 11
60.000031
 21
28.166069
  0
LINE
  8
0
 10
60.000084
 20
28.165991
 11
59.250080
 21
27.732977
  0
LINE
  8
0
 10
59.250000
 20
27.733063
 11
59.250000
 21
26.867035
  0
LINE
  8
0
 10
51.500000
 20
36.000046
 11
52.500000
 21
36.000046
  0
LINE
  8
0
 10
39.500000
 20
41.200012
 11
49.500000
 21
41.200012
  0
LINE
  8
0
 10
67.500000
 20
43.000046
 11
67.500000
 21
24.800049
  0
LINE
  8
0
 10
51.500000
 20
43.000046
 11
51.500000
 21
36.000046
  0
LINE
  8
0
 10
-126.500000
 20
41.000000
 11
-126.500000
 21
36.000046
  0
LINE
  8
0
 10
-132.500000
 20
36.000046
 11
-126.500000
 21
36.000046
  0
LINE
  8
0
 10
-160.500000
 20
37.800003
 11
-150.500000
 21
37.800003
  0
LINE
  8
0
 10
-150.500000
 20
41.000000
 11
-150.500000
 21
37.000000
  0
LINE
  8
0
 10
-147.500000
 20
24.800049
 11
-132.500000
 21
24.800049
  0
LINE
  8
0
 10
-147.500000
 20
41.000061
 11
-147.500000
 21
24.800049
  0
LINE
  8
0
 10
-150.500000
 20
37.000000
 11
-148.500000
 21
37.000000
  0
LINE
  8
0
 10
-140.749985
 20
26.867041
 11
-139.999985
 21
26.434027
  0
LINE
  8
0
 10
-140.000015
 20
26.433987
 11
-139.250000
 21
26.867001
  0
LINE
  8
0
 10
-139.250000
 20
26.867035
 11
-139.250000
 21
27.733063
  0
LINE
  8
0
 10
-139.249969
 20
27.733061
 11
-139.999969
 21
28.166067
  0
LINE
  8
0
 10
-139.999954
 20
28.166008
 11
-140.749954
 21
27.732994
  0
LINE
  8
0
 10
-140.749985
 20
27.733063
 11
-140.749985
 21
26.867035
  0
LINE
  8
0
 10
-148.500000
 20
36.000046
 11
-147.500000
 21
36.000046
  0
LINE
  8
0
 10
-132.500000
 20
41.000000
 11
-132.500000
 21
24.800049
  0
LINE
  8
0
 10
-148.500000
 20
41.000000
 11
-148.500000
 21
36.000046
  0
LINE
  8
0
 10
51.500000
 20
43.000046
 11
73.500000
 21
43.000046
  0
LINE
  8
0
 10
49.500000
 20
42.000000
 11
51.500000
 21
42.000000
  0
LINE
  8
0
 10
52.500000
 20
41.000000
 11
67.500000
 21
41.000000
  0
LINE
  8
0
 10
-235.500000
 20
8.000000
 11
160.500000
 21
8.000000
  0
LINE
  8
0
 10
-235.500000
 20
12.500000
 11
160.500000
 21
12.500000
  0
LINE
  8
0
 10
-235.500000
 20
13.800003
 11
160.500000
 21
13.800003
  0
LINE
  8
0
 10
-235.500000
 20
16.800003
 11
160.500000
 21
16.800003
  0
LINE
  8
0
 10
-235.500000
 20
28.300003
 11
-147.500000
 21
28.300003
  0
LINE
  8
0
 10
-235.500000
 20
32.300003
 11
-147.500000
 21
32.300003
  0
LINE
  8
0
 10
-235.500000
 20
41.000000
 11
39.418976
 21
41.000000
  0
LINE
  8
0
 10
-235.500000
 20
41.800003
 11
-210.000000
 21
41.800003
  0
LINE
  8
0
 10
-235.500000
 20
50.668564
 11
-210.000000
 21
50.668564
  0
LINE
  8
0
 10
-235.500000
 20
55.515411
 11
-210.000000
 21
55.515411
  0
LINE
  8
0
 10
-235.500000
 20
62.000000
 11
-210.000000
 21
62.000000
  0
LINE
  8
0
  6
CENTER
 62
     2
 10
-137.500000
 20
91.000000
 11
-137.500000
 21
3.000000
  0
LINE
  8
0
 10
-201.500000
 20
86.000000
 11
-73.500000
 21
86.000000
  0
LINE
  8
0
 10
-210.000000
 20
85.499992
 11
-65.000000
 21
85.499992
  0
LINE
  8
0
 10
-210.000000
 20
46.454147
 11
-65.000000
 21
46.454147
  0
LINE
  8
0
 10
-210.000000
 20
41.000000
 11
-65.000000
 21
41.000000
  0
LINE
  8
0
 10
-201.500000
 20
86.000000
 11
-201.500000
 21
41.000000
  0
LINE
  8
0
 10
-73.500000
 20
86.000000
 11
-73.500000
 21
41.000000
  0
LINE
  8
0
 10
-65.000000
 20
85.499992
 11
-65.000000
 21
41.000000
  0
LINE
  8
0
 10
-210.000000
 20
85.499992
 11
-210.000000
 21
41.000000
  0
LINE
  8
0
 10
-65.000000
 20
62.000000
 11
160.500000
 21
62.000000
  0
LINE
  8
0
 10
-65.000000
 20
55.515411
 11
160.500000
 21
55.515411
  0
LINE
  8
0
 10
-65.000000
 20
50.668564
 11
160.500000
 21
50.668564
  0
LINE
  8
0
 10
-65.000000
 20
41.800003
 11
49.500000
 21
41.800003
  0
LINE
  8
0
 10
-201.500000
 20
73.000000
 11
-73.500000
 21
73.000000
  0
LINE
  8
0
 10
160.500000
 20
64.000000
 11
160.500000
 21
8.000000
  0
LINE
  8
0
  6
CENTER
 62
     2
 10
62.500000
 20
67.000000
 11
62.500000
 21
3.000000
  0
LINE
  8
0
 10
-235.500000
 20
64.000000
 11
-235.500000
 21
8.000000
  0
LINE
  8
0
  6
CENTER
 62
     2
 10
-267.500000
 20
38.000000
 11
195.066650
 21
38.000000
  0
LINE
  8
0
 10
-262.500000
 20
62.500000
 11
-262.500000
 21
61.327194
  0
LINE
  8
0
 10
-261.000000
 20
64.000000
 11
-235.500000
 21
64.000000
  0
LINE
  8
0
 10
-261.000000
 20
12.000000
 11
-235.500000
 21
12.000000
  0
LINE
  8
0
 10
-256.700012
 20
63.000000
 11
-256.700012
 21
49.000000
  0
LINE
  8
0
 10
-261.500000
 20
28.000000
 11
-257.700012
 21
28.000000
  0
LINE
  8
0
 10
-261.500000
 20
48.000000
 11
-257.700012
 21
48.000000
  0
LINE
  8
0
 10
-256.700012
 20
27.000000
 11
-256.700012
 21
13.000000
  0
LINE
  8
0
 10
-242.291489
 20
43.463181
 11
-239.015808
 21
49.136810
  0
LINE
  8
0
 10
-242.984283
 20
43.863186
 11
-239.708618
 21
49.536804
  0
LINE
  8
0
 10
-252.000015
 20
34.535923
 11
-249.000015
 21
36.267979
  0
LINE
  8
0
 10
-255.000015
 20
39.732075
 11
-252.000015
 21
41.464130
  0
LINE
  8
0
 10
-249.000015
 20
39.732040
 11
-252.000000
 21
41.464081
  0
LINE
  8
0
 10
-252.000015
 20
34.535866
 11
-254.999985
 21
36.267906
  0
LINE
  8
0
 10
-249.000000
 20
39.732056
 11
-249.000000
 21
36.267944
  0
LINE
  8
0
 10
-255.000000
 20
39.732056
 11
-255.000000
 21
36.267944
  0
LINE
  8
0
 10
-262.700012
 20
24.980789
 11
-262.700012
 21
15.019211
  0
LINE
  8
0
 10
-257.991882
 20
13.000000
 11
-256.700012
 21
13.000000
  0
LINE
  8
0
 10
-257.991882
 20
27.000000
 11
-256.700012
 21
27.000000
  0
LINE
  8
0
 10
-262.242310
 20
25.773499
 11
-258.700012
 21
25.773499
  0
LINE
  8
0
 10
-262.224487
 20
22.886749
 11
-258.700012
 21
22.886749
  0
LINE
  8
0
 10
-262.224487
 20
17.113251
 11
-258.700012
 21
17.113251
  0
LINE
  8
0
 10
-262.242310
 20
14.226501
 11
-258.700012
 21
14.226501
  0
LINE
  8
0
 10
-258.700012
 20
25.773499
 11
-258.700012
 21
14.226501
  0
LINE
  8
0
 10
-258.700073
 20
25.773525
 11
-257.991974
 21
27.000017
  0
LINE
  8
0
 10
-257.991943
 20
12.999985
 11
-258.700073
 21
14.226501
  0
LINE
  8
0
 10
-262.500000
 20
50.672806
 11
-262.500000
 21
25.327194
  0
LINE
  8
0
 10
-258.700012
 20
61.773499
 11
-258.700012
 21
50.226501
  0
LINE
  8
0
 10
-258.700073
 20
61.773537
 11
-257.991943
 21
63.000027
  0
LINE
  8
0
 10
-257.991882
 20
48.999969
 11
-258.699982
 21
50.226460
  0
LINE
  8
0
 10
-262.700012
 20
60.980789
 11
-262.700012
 21
51.019211
  0
LINE
  8
0
 10
-257.991882
 20
49.000000
 11
-256.700012
 21
49.000000
  0
LINE
  8
0
 10
-257.991882
 20
63.000000
 11
-256.700012
 21
63.000000
  0
LINE
  8
0
 10
-262.242310
 20
61.773499
 11
-258.700012
 21
61.773499
  0
LINE
  8
0
 10
-262.224487
 20
58.886749
 11
-258.700012
 21
58.886749
  0
LINE
  8
0
 10
-262.224487
 20
53.113251
 11
-258.700012
 21
53.113251
  0
LINE
  8
0
 10
-262.242310
 20
50.226501
 11
-258.700012
 21
50.226501
  0
LINE
  8
0
 10
-262.500000
 20
14.672806
 11
-262.500000
 21
13.500000
  0
LINE
  8
0
 10
-257.991882
 20
63.000000
 11
-257.991882
 21
49.000000
  0
LINE
  8
0
 10
-257.991943
 20
27.000000
 11
-257.991943
 21
13.000000
  0
LINE
  8
0
 10
-262.700012
 20
60.980797
 11
-262.242340
 21
61.773506
  0
LINE
  8
0
 10
-262.700012
 20
15.019218
 11
-262.242340
 21
14.226506
  0
LINE
  8
0
 10
-262.700043
 20
51.019218
 11
-262.242371
 21
50.226505
  0
LINE
  8
0
 10
-262.700012
 20
24.980783
 11
-262.242340
 21
25.773495
  0
LINE
  8
0
 10
187.500000
 20
62.500000
 11
187.500000
 21
61.327194
  0
LINE
  8
0
 10
186.000000
 20
64.000000
 11
160.500000
 21
64.000000
  0
LINE
  8
0
 10
186.000000
 20
12.000000
 11
160.500000
 21
12.000000
  0
LINE
  8
0
 10
181.700012
 20
63.000000
 11
181.700012
 21
49.000000
  0
LINE
  8
0
 10
186.500000
 20
28.000000
 11
182.700012
 21
28.000000
  0
LINE
  8
0
 10
186.500000
 20
48.000000
 11
182.700012
 21
48.000000
  0
LINE
  8
0
 10
181.700012
 20
27.000000
 11
181.700012
 21
13.000000
  0
LINE
  8
0
 10
164.015564
 20
43.863255
 11
167.291260
 21
49.536858
  0
LINE
  8
0
 10
164.708710
 20
43.463112
 11
167.984390
 21
49.136719
  0
LINE
  8
0
 10
177.000092
 20
34.536003
 11
174.000092
 21
36.268063
  0
LINE
  8
0
 10
180.000076
 20
39.732140
 11
177.000061
 21
41.464199
  0
LINE
  8
0
 10
174.000031
 20
39.732040
 11
177.000015
 21
41.464073
  0
LINE
  8
0
 10
177.000015
 20
34.535873
 11
179.999969
 21
36.267902
  0
LINE
  8
0
 10
174.000000
 20
39.732056
 11
174.000000
 21
36.267944
  0
LINE
  8
0
 10
180.000000
 20
39.732056
 11
180.000000
 21
36.267944
  0
LINE
  8
0
 10
187.700012
 20
24.980789
 11
187.700012
 21
15.019211
  0
LINE
  8
0
 10
182.991882
 20
13.000000
 11
181.700012
 21
13.000000
  0
LINE
  8
0
 10
182.991882
 20
27.000000
 11
181.700012
 21
27.000000
  0
LINE
  8
0
 10
187.242310
 20
25.773499
 11
183.700012
 21
25.773499
  0
LINE
  8
0
 10
187.224487
 20
22.886749
 11
183.700012
 21
22.886749
  0
LINE
  8
0
 10
187.224487
 20
17.113251
 11
183.700012
 21
17.113251
  0
LINE
  8
0
 10
187.242310
 20
14.226501
 11
183.700012
 21
14.226501
  0
LINE
  8
0
 10
183.700012
 20
25.773499
 11
183.700012
 21
14.226501
  0
LINE
  8
0
 10
183.700180
 20
25.773605
 11
182.992050
 21
27.000090
  0
LINE
  8
0
 10
182.992096
 20
12.999901
 11
183.700241
 21
14.226444
  0
LINE
  8
0
 10
187.500000
 20
50.672806
 11
187.500000
 21
25.327194
  0
LINE
  8
0
 10
183.700012
 20
61.773499
 11
183.700012
 21
50.226501
  0
LINE
  8
0
 10
183.700119
 20
61.773575
 11
182.992004
 21
63.000099
  0
LINE
  8
0
 10
182.992142
 20
48.999886
 11
183.700226
 21
50.226357
  0
LINE
  8
0
 10
187.700012
 20
60.980789
 11
187.700012
 21
51.019211
  0
LINE
  8
0
 10
182.991882
 20
49.000000
 11
181.700012
 21
49.000000
  0
LINE
  8
0
 10
182.991882
 20
63.000000
 11
181.700012
 21
63.000000
  0
LINE
  8
0
 10
187.242310
 20
61.773499
 11
183.700012
 21
61.773499
  0
LINE
  8
0
 10
187.224487
 20
58.886749
 11
183.700012
 21
58.886749
  0
LINE
  8
0
 10
187.224487
 20
53.113251
 11
183.700012
 21
53.113251
  0
LINE
  8
0
 10
187.242310
 20
50.226501
 11
183.700012
 21
50.226501
  0
LINE
  8
0
 10
187.500000
 20
14.672806
 11
187.500000
 21
13.500000
  0
LINE
  8
0
 10
182.991882
 20
63.000000
 11
182.991882
 21
49.000000
  0
LINE
  8
0
 10
182.991943
 20
27.000000
 11
182.991943
 21
13.000000
  0
LINE
  8
0
 10
187.700043
 20
60.980850
 11
187.242371
 21
61.773563
  0
LINE
  8
0
 10
187.700180
 20
15.019090
 11
187.242462
 21
14.226365
  0
LINE
  8
0
 10
187.699997
 20
51.019180
 11
187.242325
 21
50.226467
  0
LINE
  8
0
 10
187.700043
 20
24.980808
 11
187.242340
 21
25.773508
  0
LINE
  8
0
 10
-132.500000
 20
32.300003
 11
52.500000
 21
32.300003
  0
LINE
  8
0
 10
-132.500000
 20
28.300003
 11
52.500000
 21
28.300003
  0
LINE
  8
0
 10
73.500000
 20
41.800003
 11
160.500000
 21
41.800003
  0
LINE
  8
0
 10
73.500000
 20
41.000000
 11
160.500000
 21
41.000000
  0
LINE
  8
0
 10
67.500000
 20
32.300003
 11
160.500000
 21
32.300003
  0
LINE
  8
0
 10
67.500000
 20
28.300003
 11
160.500000
 21
28.300003
  0
LINE
  8
0
 10
67.500000
 20
140.000015
 11
67.500000
 21
136.000000
  0
LINE
  8
0
 10
73.500000
 20
140.000015
 11
73.500000
 21
136.000000
  0
LINE
  8
0
 10
51.500000
 20
140.000015
 11
51.500000
 21
136.000000
  0
LINE
  8
0
 10
49.500000
 20
140.000015
 11
49.500000
 21
137.149963
  0
LINE
  8
0
 10
51.500000
 20
136.000000
 11
73.500000
 21
136.000000
  0
LINE
  8
0
 10
57.500000
 20
140.000015
 11
57.500000
 21
136.000000
  0
LINE
  8
0
 10
49.500000
 20
137.149963
 11
51.500000
 21
137.149963
  0
LINE
  8
0
 10
39.500000
 20
137.949951
 11
49.500000
 21
137.949951
  0
LINE
  8
0
 10
52.500000
 20
133.000000
 11
67.500000
 21
133.000000
  0
LINE
  8
0
 10
52.500000
 20
136.000000
 11
52.500000
 21
133.000000
  0
LINE
  8
0
 10
67.500000
 20
136.000000
 11
67.500000
 21
133.000000
  0
LINE
  8
0
 10
-137.499985
 20
188.732010
 11
-138.999985
 21
187.865982
  0
LINE
  8
0
 10
-135.999954
 20
187.866104
 11
-137.499939
 21
188.732117
  0
LINE
  8
0
 10
-135.999985
 20
187.866028
 11
-135.999985
 21
186.133972
  0
LINE
  8
0
 10
-135.999969
 20
186.133942
 11
-137.499969
 21
185.267914
  0
LINE
  8
0
 10
-137.499878
 20
185.268036
 11
-138.999893
 21
186.134064
  0
LINE
  8
0
 10
-138.999985
 20
187.866013
 11
-138.999985
 21
186.133987
  0
LINE
  8
0
 10
-235.500000
 20
196.000015
 11
-235.500000
 21
140.000015
  0
LINE
  8
0
 10
160.500000
 20
140.000015
 11
-64.999985
 21
140.000015
  0
LINE
  8
0
 10
160.500000
 20
141.900009
 11
-64.999985
 21
141.900009
  0
LINE
  8
0
 10
160.500000
 20
149.100021
 11
-64.999985
 21
149.100021
  0
LINE
  8
0
 10
160.500000
 20
186.899994
 11
-64.999985
 21
186.899994
  0
LINE
  8
0
 10
160.500000
 20
194.100006
 11
-64.999985
 21
194.100006
  0
LINE
  8
0
 10
160.500000
 20
196.000000
 11
-64.999985
 21
196.000000
  0
LINE
  8
0
 10
160.500000
 20
176.500000
 11
-64.999985
 21
176.500000
  0
LINE
  8
0
 10
160.500000
 20
159.500000
 11
-64.999985
 21
159.500000
  0
LINE
  8
0
  6
CENTER
 62
     2
 10
-137.499985
 20
213.000000
 11
-137.499985
 21
123.000000
  0
LINE
  8
0
 10
-73.499985
 20
208.000000
 11
-73.499985
 21
128.000000
  0
LINE
  8
0
 10
-201.499985
 20
208.000000
 11
-201.499985
 21
128.000000
  0
LINE
  8
0
 10
-209.999985
 20
208.000000
 11
-209.999985
 21
128.000000
  0
LINE
  8
0
 10
-64.999985
 20
208.000000
 11
-64.999985
 21
128.000000
  0
LINE
  8
0
 10
-64.999985
 20
208.000000
 11
-209.999985
 21
208.000000
  0
LINE
  8
0
 10
-64.999985
 20
128.000000
 11
-209.999985
 21
128.000000
  0
LINE
  8
0
 10
-209.999985
 20
196.000000
 11
-235.499985
 21
196.000000
  0
LINE
  8
0
 10
-209.999985
 20
194.100006
 11
-235.499985
 21
194.100006
  0
LINE
  8
0
 10
-209.999985
 20
186.899994
 11
-235.499985
 21
186.899994
  0
LINE
  8
0
 10
-209.999985
 20
176.500000
 11
-235.499985
 21
176.500000
  0
LINE
  8
0
 10
-209.999985
 20
159.500000
 11
-235.499985
 21
159.500000
  0
LINE
  8
0
 10
-209.999985
 20
149.100021
 11
-235.499985
 21
149.100021
  0
LINE
  8
0
 10
-209.999985
 20
141.900009
 11
-235.499985
 21
141.900009
  0
LINE
  8
0
 10
-209.999985
 20
140.000015
 11
-235.499985
 21
140.000015
  0
LINE
  8
0
 10
-73.499985
 20
138.000000
 11
-201.499985
 21
138.000000
  0
LINE
  8
0
 10
-73.499985
 20
198.000000
 11
-201.499985
 21
198.000000
  0
LINE
  8
0
  6
CENTER
 62
     2
 10
-182.499985
 20
173.600006
 11
-182.499985
 21
161.466660
  0
LINE
  8
0
  6
CENTER
 62
     2
 10
-144.299988
 20
187.000000
 11
-130.766647
 21
187.000000
  0
LINE
  8
0
  6
CENTER
 62
     2
 10
-188.633331
 20
187.000000
 11
-177.433319
 21
187.000000
  0
LINE
  8
0
  6
CENTER
 62
     2
 10
-182.499985
 20
193.199997
 11
-182.499985
 21
180.600006
  0
LINE
  8
0
  6
CENTER
 62
     2
 10
-98.566650
 20
187.000000
 11
-85.966644
 21
187.000000
  0
LINE
  8
0
  6
CENTER
 62
     2
 10
-92.499985
 20
193.666656
 11
-92.499985
 21
181.066666
  0
LINE
  8
0
  6
CENTER
 62
     2
 10
-92.499985
 20
174.533340
 11
-92.499985
 21
161.000000
  0
LINE
  8
0
  6
CENTER
 62
     2
 10
-99.033325
 20
149.000000
 11
-86.899994
 21
149.000000
  0
LINE
  8
0
  6
CENTER
 62
     2
 10
-92.499985
 20
154.933334
 11
-92.499985
 21
143.733337
  0
LINE
  8
0
  6
CENTER
 62
     2
 10
-188.633331
 20
149.000000
 11
-176.500000
 21
149.000000
  0
LINE
  8
0
  6
CENTER
 62
     2
 10
-182.499985
 20
157.000000
 11
-182.499985
 21
142.800003
  0
LINE
  8
0
 10
160.500000
 20
196.000015
 11
160.500000
 21
140.000015
  0
LINE
  8
0
  6
CENTER
 62
     2
 10
62.500000
 20
201.000000
 11
62.500000
 21
135.000015
  0
LINE
  8
0
 10
-262.500000
 20
192.500000
 11
-262.500000
 21
191.000000
  0
LINE
  8
0
 10
-261.000000
 20
194.000000
 11
-235.500000
 21
194.000000
  0
LINE
  8
0
 10
-261.000000
 20
142.000000
 11
-235.500000
 21
142.000000
  0
LINE
  8
0
 10
-256.700012
 20
193.000000
 11
-256.700012
 21
179.000000
  0
LINE
  8
0
 10
-261.000000
 20
158.000000
 11
-257.700012
 21
158.000000
  0
LINE
  8
0
 10
-261.000000
 20
178.000000
 11
-257.700012
 21
178.000000
  0
LINE
  8
0
 10
-256.700012
 20
157.000000
 11
-256.700012
 21
143.000000
  0
LINE
  8
0
 10
-262.382446
 20
150.000000
 11
-258.700012
 21
150.000000
  0
LINE
  8
0
 10
-262.271057
 20
150.000000
 11
-258.700012
 21
150.000000
  0
LINE
  8
0
 10
-262.700012
 20
155.000000
 11
-258.700012
 21
155.000000
  0
LINE
  8
0
 10
-262.700012
 20
145.000000
 11
-258.700012
 21
145.000000
  0
LINE
  8
0
 10
-258.700012
 20
155.750000
 11
-258.700012
 21
144.250000
  0
LINE
  8
0
 10
-262.700012
 20
155.000000
 11
-262.700012
 21
145.000000
  0
LINE
  8
0
 10
-257.978333
 20
157.000000
 11
-256.700012
 21
157.000000
  0
LINE
  8
0
 10
-257.978333
 20
143.000000
 11
-256.700012
 21
143.000000
  0
LINE
  8
0
 10
-258.700012
 20
155.750031
 11
-257.978333
 21
157.000015
  0
LINE
  8
0
 10
-257.978333
 20
143.000015
 11
-258.700012
 21
144.250000
  0
LINE
  8
0
 10
-262.500000
 20
181.000000
 11
-262.500000
 21
155.000000
  0
LINE
  8
0
 10
-257.978302
 20
179.000031
 11
-258.699982
 21
180.250015
  0
LINE
  8
0
 10
-258.700012
 20
191.750031
 11
-257.978333
 21
193.000031
  0
LINE
  8
0
 10
-257.978333
 20
193.000000
 11
-256.700012
 21
193.000000
  0
LINE
  8
0
 10
-262.271057
 20
186.000000
 11
-258.700012
 21
186.000000
  0
LINE
  8
0
 10
-262.700012
 20
191.000000
 11
-258.700012
 21
191.000000
  0
LINE
  8
0
 10
-262.700012
 20
181.000000
 11
-258.700012
 21
181.000000
  0
LINE
  8
0
 10
-258.700012
 20
191.750000
 11
-258.700012
 21
180.250000
  0
LINE
  8
0
 10
-262.700012
 20
191.000000
 11
-262.700012
 21
181.000000
  0
LINE
  8
0
 10
-257.978333
 20
179.000000
 11
-256.700012
 21
179.000000
  0
LINE
  8
0
 10
-262.500000
 20
145.000000
 11
-262.500000
 21
143.500000
  0
LINE
  8
0
 10
-248.500031
 20
167.133987
 11
-247.750015
 21
167.567001
  0
LINE
  8
0
 10
-249.250015
 20
168.433029
 11
-248.500015
 21
168.866043
  0
LINE
  8
0
 10
-247.750000
 20
168.433014
 11
-247.750000
 21
167.566986
  0
LINE
  8
0
 10
-249.250000
 20
168.433014
 11
-249.250000
 21
167.566986
  0
LINE
  8
0
 10
-247.750031
 20
168.433014
 11
-248.500015
 21
168.866013
  0
LINE
  8
0
 10
-248.500031
 20
167.133972
 11
-249.250000
 21
167.566971
  0
LINE
  8
0
 10
-254.500031
 20
167.133987
 11
-253.750015
 21
167.567001
  0
LINE
  8
0
 10
-255.250015
 20
168.432999
 11
-254.500015
 21
168.866013
  0
LINE
  8
0
 10
-253.750000
 20
168.433014
 11
-253.750000
 21
167.566986
  0
LINE
  8
0
 10
-255.250000
 20
168.433014
 11
-255.250000
 21
167.566986
  0
LINE
  8
0
 10
-253.750015
 20
168.433014
 11
-254.500015
 21
168.866028
  0
LINE
  8
0
 10
-254.500046
 20
167.133957
 11
-255.250061
 21
167.566971
  0
LINE
  8
0
 10
-243.500000
 20
181.500000
 11
-243.500000
 21
154.500000
  0
LINE
  8
0
 10
-242.000000
 20
183.000000
 11
-235.500000
 21
183.000000
  0
LINE
  8
0
 10
-242.000000
 20
153.000000
 11
-235.500000
 21
153.000000
  0
LINE
  8
0
 10
-241.000015
 20
156.000015
 11
-238.000015
 21
159.000031
  0
LINE
  8
0
 10
-237.999985
 20
156.000000
 11
-240.999985
 21
159.000000
  0
LINE
  8
0
 10
-241.000000
 20
177.000031
 11
-238.000000
 21
180.000031
  0
LINE
  8
0
 10
-237.999985
 20
177.000000
 11
-241.000000
 21
180.000000
  0
LINE
  8
0
 10
-257.978271
 20
193.000000
 11
-257.978271
 21
179.000000
  0
LINE
  8
0
 10
-257.978333
 20
157.000000
 11
-257.978333
 21
143.000000
  0
LINE
  8
0
 10
187.500000
 20
192.500000
 11
187.500000
 21
191.000000
  0
LINE
  8
0
 10
186.000000
 20
194.000000
 11
160.500000
 21
194.000000
  0
LINE
  8
0
 10
186.000000
 20
142.000000
 11
160.500000
 21
142.000000
  0
LINE
  8
0
 10
181.700012
 20
193.000000
 11
181.700012
 21
179.000000
  0
LINE
  8
0
 10
186.000000
 20
158.000000
 11
182.700012
 21
158.000000
  0
LINE
  8
0
 10
186.000000
 20
178.000000
 11
182.700012
 21
178.000000
  0
LINE
  8
0
 10
181.700012
 20
157.000000
 11
181.700012
 21
143.000000
  0
LINE
  8
0
 10
187.382507
 20
150.000000
 11
183.700012
 21
150.000000
  0
LINE
  8
0
 10
187.271118
 20
150.000000
 11
183.700012
 21
150.000000
  0
LINE
  8
0
 10
187.700012
 20
155.000000
 11
183.700012
 21
155.000000
  0
LINE
  8
0
 10
187.700012
 20
145.000000
 11
183.700012
 21
145.000000
  0
LINE
  8
0
 10
183.700012
 20
155.750000
 11
183.700012
 21
144.250000
  0
LINE
  8
0
 10
187.700012
 20
155.000000
 11
187.700012
 21
145.000000
  0
LINE
  8
0
 10
182.978333
 20
157.000000
 11
181.700012
 21
157.000000
  0
LINE
  8
0
 10
182.978333
 20
143.000000
 11
181.700012
 21
143.000000
  0
LINE
  8
0
 10
183.700089
 20
155.750092
 11
182.978424
 21
157.000061
  0
LINE
  8
0
 10
182.978333
 20
143.000031
 11
183.700027
 21
144.250046
  0
LINE
  8
0
 10
187.500000
 20
181.000000
 11
187.500000
 21
155.000000
  0
LINE
  8
0
 10
182.978210
 20
179.000107
 11
183.699921
 21
180.250107
  0
LINE
  8
0
 10
183.700058
 20
191.750061
 11
182.978378
 21
193.000046
  0
LINE
  8
0
 10
182.978333
 20
193.000000
 11
181.700012
 21
193.000000
  0
LINE
  8
0
 10
187.271118
 20
186.000000
 11
183.700012
 21
186.000000
  0
LINE
  8
0
 10
187.700012
 20
191.000000
 11
183.700012
 21
191.000000
  0
LINE
  8
0
 10
187.700012
 20
181.000000
 11
183.700012
 21
181.000000
  0
LINE
  8
0
 10
183.700012
 20
191.750000
 11
183.700012
 21
180.250000
  0
LINE
  8
0
 10
187.700012
 20
191.000000
 11
187.700012
 21
181.000000
  0
LINE
  8
0
 10
182.978333
 20
179.000000
 11
181.700012
 21
179.000000
  0
LINE
  8
0
 10
187.500000
 20
145.000000
 11
187.500000
 21
143.500000
  0
LINE
  8
0
 10
173.500122
 20
167.134094
 11
172.750122
 21
167.567108
  0
LINE
  8
0
 10
174.250153
 20
168.433075
 11
173.500153
 21
168.866089
  0
LINE
  8
0
 10
172.750000
 20
168.433014
 11
172.750000
 21
167.566986
  0
LINE
  8
0
 10
174.250000
 20
168.433014
 11
174.250000
 21
167.566986
  0
LINE
  8
0
 10
172.750046
 20
168.433029
 11
173.499985
 21
168.866013
  0
LINE
  8
0
 10
173.500061
 20
167.133987
 11
174.250061
 21
167.567001
  0
LINE
  8
0
 10
179.500198
 20
167.134140
 11
178.750198
 21
167.567154
  0
LINE
  8
0
 10
180.250107
 20
168.433121
 11
179.500107
 21
168.866150
  0
LINE
  8
0
 10
178.750000
 20
168.433014
 11
178.750000
 21
167.566986
  0
LINE
  8
0
 10
180.250000
 20
168.433014
 11
180.250000
 21
167.566986
  0
LINE
  8
0
 10
178.750122
 20
168.432938
 11
179.500122
 21
168.865952
  0
LINE
  8
0
 10
179.500168
 20
167.133881
 11
180.250122
 21
167.566864
  0
LINE
  8
0
 10
168.500000
 20
181.500000
 11
168.500000
 21
154.500000
  0
LINE
  8
0
 10
167.000000
 20
183.000000
 11
160.500000
 21
183.000000
  0
LINE
  8
0
 10
167.000000
 20
153.000000
 11
160.500000
 21
153.000000
  0
LINE
  8
0
 10
166.000229
 20
156.000153
 11
163.000198
 21
159.000183
  0
LINE
  8
0
 10
163.000183
 20
155.999832
 11
166.000214
 21
158.999863
  0
LINE
  8
0
 10
166.000214
 20
177.000183
 11
163.000183
 21
180.000198
  0
LINE
  8
0
 10
162.999969
 20
177.000031
 11
166.000000
 21
180.000046
  0
LINE
  8
0
 10
182.978271
 20
193.000000
 11
182.978271
 21
179.000000
  0
LINE
  8
0
 10
182.978394
 20
157.000000
 11
182.978394
 21
143.000000
  0
LINE
  8
0
  6
CENTER
 62
     2
 10
193.666687
 20
168.000000
 11
-267.733337
 21
168.000000
  0
LINE
  8
0
 10
312.500000
 20
8.000000
 11
325.200012
 21
8.000000
  0
LINE
  8
0
 10
325.500000
 20
12.142471
 11
325.500000
 21
8.299999
  0
LINE
  8
0
 10
311.056641
 20
10.500005
 11
312.500000
 21
8.000007
  0
LINE
  8
0
 10
322.852081
 20
12.033102
 11
325.147919
 21
12.437918
  0
LINE
  8
0
 10
322.500000
 20
13.799999
 11
322.500000
 21
12.328545
  0
LINE
  8
0
 10
322.200012
 20
15.628502
 11
322.200012
 21
14.514141
  0
LINE
  8
0
 10
325.500000
 20
27.500000
 11
325.500000
 21
17.599998
  0
LINE
  8
0
 10
323.899994
 20
27.500000
 11
323.899994
 21
26.900002
  0
LINE
  8
0
 10
323.500000
 20
25.407194
 11
323.899994
 21
26.900005
  0
LINE
  8
0
 10
283.943359
 20
10.499993
 11
282.500000
 21
7.999996
  0
LINE
  8
0
 10
282.500000
 20
8.000000
 11
269.799988
 21
8.000000
  0
LINE
  8
0
 10
269.500000
 20
12.142471
 11
269.500000
 21
8.299999
  0
LINE
  8
0
 10
272.147919
 20
12.033099
 11
269.852112
 21
12.437914
  0
LINE
  8
0
 10
272.500000
 20
13.799999
 11
272.500000
 21
12.328545
  0
LINE
  8
0
 10
272.799988
 20
15.628502
 11
272.799988
 21
14.514141
  0
LINE
  8
0
 10
269.500000
 20
27.500000
 11
269.500000
 21
17.599998
  0
LINE
  8
0
 10
271.100006
 20
27.500000
 11
271.100006
 21
26.900002
  0
LINE
  8
0
 10
271.500000
 20
27.307190
 11
270.906677
 21
29.521469
  0
LINE
  8
0
 10
271.548676
 20
56.880981
 11
271.453430
 21
56.960899
  0
LINE
  8
0
 10
267.500000
 20
86.000000
 11
327.500000
 21
86.000000
  0
LINE
  8
0
 10
267.000000
 20
85.500008
 11
267.500000
 21
86.000008
  0
LINE
  8
0
 10
327.500000
 20
86.000000
 11
328.000000
 21
85.500000
  0
LINE
  8
0
  6
CENTER
 62
     2
 10
297.500000
 20
91.000000
 11
297.500000
 21
7.000000
  0
LINE
  8
0
 10
264.000000
 20
41.000000
 11
265.500000
 21
41.000000
  0
LINE
  8
0
 10
337.500000
 20
84.500000
 11
337.500000
 21
46.454155
  0
LINE
  8
0
 10
257.500000
 20
84.500000
 11
257.500000
 21
46.454147
  0
LINE
  8
0
 10
258.500000
 20
85.500000
 11
336.500000
 21
85.500000
  0
LINE
  8
0
 10
268.500000
 20
42.800003
 11
268.500000
 21
42.500000
  0
LINE
  8
0
 10
257.500000
 20
46.454144
 11
264.000000
 21
41.000000
  0
LINE
  8
0
 10
268.500000
 20
42.800003
 11
269.899994
 21
42.800003
  0
LINE
  8
0
 10
269.899994
 20
42.799992
 11
271.500000
 21
44.706802
  0
LINE
  8
0
 10
325.100006
 20
42.799999
 11
323.500000
 21
44.706810
  0
LINE
  8
0
 10
326.500000
 20
42.800003
 11
325.100006
 21
42.800003
  0
LINE
  8
0
 10
326.500000
 20
42.800003
 11
326.500000
 21
41.000000
  0
LINE
  8
0
 10
330.999969
 20
41.000000
 11
326.500000
 21
41.000000
  0
LINE
  8
0
 10
337.499969
 20
46.454151
 11
331.000000
 21
41.000011
  0
LINE
  8
0
 10
279.500000
 20
12.000000
 11
315.500000
 21
12.000000
  0
LINE
  8
0
 10
279.500000
 20
64.000000
 11
315.500000
 21
64.000000
  0
LINE
  8
0
 10
323.500000
 20
56.000000
 11
323.500000
 21
20.000000
  0
LINE
  8
0
 10
271.500000
 20
56.000000
 11
271.500000
 21
20.000000
  0
LINE
  8
0
 10
307.500000
 20
62.500000
 11
307.500000
 21
56.000000
  0
LINE
  8
0
 10
287.500000
 20
62.500000
 11
287.500000
 21
56.000000
  0
LINE
  8
0
 10
273.000000
 20
28.000000
 11
279.500000
 21
28.000000
  0
LINE
  8
0
 10
273.000000
 20
48.000000
 11
279.500000
 21
48.000000
  0
LINE
  8
0
 10
287.500000
 20
20.000000
 11
287.500000
 21
13.500000
  0
LINE
  8
0
 10
315.500000
 20
48.000000
 11
322.000000
 21
48.000000
  0
LINE
  8
0
 10
307.500000
 20
20.000000
 11
307.500000
 21
13.500000
  0
LINE
  8
0
 10
315.500000
 20
28.000000
 11
322.000000
 21
28.000000
  0
LINE
  8
0
 10
284.500000
 20
22.886755
 11
279.500000
 21
25.773504
  0
LINE
  8
0
 10
279.500000
 20
14.226488
 11
274.500000
 21
17.113237
  0
LINE
  8
0
 10
274.500000
 20
22.886749
 11
274.500000
 21
17.113251
  0
LINE
  8
0
 10
284.500000
 20
22.886749
 11
284.500000
 21
17.113243
  0
LINE
  8
0
 10
279.500000
 20
14.226498
 11
284.500000
 21
17.113247
  0
LINE
  8
0
 10
274.500000
 20
22.886753
 11
279.500000
 21
25.773502
  0
LINE
  8
0
  6
CENTER
 62
     2
 10
270.500000
 20
20.000000
 11
288.500000
 21
20.000000
  0
LINE
  8
0
  6
CENTER
 62
     2
 10
279.500000
 20
29.000000
 11
279.500000
 21
11.000000
  0
LINE
  8
0
 10
284.500000
 20
58.886753
 11
279.500000
 21
61.773502
  0
LINE
  8
0
 10
279.500000
 20
50.226498
 11
274.500000
 21
53.113247
  0
LINE
  8
0
 10
274.500000
 20
58.886749
 11
274.500000
 21
53.113251
  0
LINE
  8
0
 10
284.500000
 20
58.886749
 11
284.500000
 21
53.113251
  0
LINE
  8
0
 10
279.500000
 20
50.226517
 11
284.500000
 21
53.113266
  0
LINE
  8
0
 10
274.500000
 20
58.886776
 11
279.500000
 21
61.773525
  0
LINE
  8
0
  6
CENTER
 62
     2
 10
270.500000
 20
56.000000
 11
288.500000
 21
56.000000
  0
LINE
  8
0
  6
CENTER
 62
     2
 10
279.500000
 20
65.000000
 11
279.500000
 21
47.000000
  0
LINE
  8
0
 10
320.500031
 20
58.886757
 11
315.500000
 21
61.773514
  0
LINE
  8
0
 10
315.500000
 20
50.226513
 11
310.500000
 21
53.113262
  0
LINE
  8
0
 10
310.500000
 20
58.886749
 11
310.500000
 21
53.113251
  0
LINE
  8
0
 10
320.500000
 20
58.886749
 11
320.500000
 21
53.113251
  0
LINE
  8
0
 10
315.500000
 20
50.226498
 11
320.500000
 21
53.113247
  0
LINE
  8
0
 10
310.500000
 20
58.886765
 11
315.500000
 21
61.773514
  0
LINE
  8
0
  6
CENTER
 62
     2
 10
306.500000
 20
56.000000
 11
324.500000
 21
56.000000
  0
LINE
  8
0
  6
CENTER
 62
     2
 10
315.500000
 20
65.000000
 11
315.500000
 21
47.000000
  0
LINE
  8
0
 10
320.500031
 20
22.886747
 11
315.500000
 21
25.773512
  0
LINE
  8
0
 10
315.500031
 20
14.226494
 11
310.500000
 21
17.113258
  0
LINE
  8
0
 10
310.500000
 20
22.886749
 11
310.500000
 21
17.113251
  0
LINE
  8
0
 10
320.500000
 20
22.886749
 11
320.500000
 21
17.113243
  0
LINE
  8
0
 10
315.500000
 20
14.226487
 11
320.500000
 21
17.113237
  0
LINE
  8
0
 10
310.500000
 20
22.886742
 11
315.500000
 21
25.773491
  0
LINE
  8
0
  6
CENTER
 62
     2
 10
306.500000
 20
20.000000
 11
324.500000
 21
20.000000
  0
LINE
  8
0
  6
CENTER
 62
     2
 10
315.500000
 20
29.000000
 11
315.500000
 21
11.000000
  0
LINE
  8
0
  6
CENTER
 62
     2
 10
269.358398
 20
38.000000
 11
328.500000
 21
38.000000
  0
LINE
  8
0
  6
DASHED
 62
     2
 10
272.000000
 20
48.000000
 11
272.000000
 21
28.000000
  0
LINE
  8
0
  6
DASHED
 62
     2
 10
271.500000
 20
28.000000
 11
272.000000
 21
28.000000
  0
LINE
  8
0
  6
DASHED
 62
     2
 10
271.500000
 20
48.000000
 11
272.000000
 21
48.000000
  0
LINE
  8
0
  6
DASHED
 62
     2
 10
281.399994
 20
44.356003
 11
281.399994
 21
31.643997
  0
LINE
  8
0
  6
DASHED
 62
     2
 10
281.399994
 20
43.500000
 11
282.899872
 21
43.500000
  0
LINE
  8
0
  6
DASHED
 62
     2
 10
281.399994
 20
32.500000
 11
282.899872
 21
32.500000
  0
LINE
  8
0
  6
DASHED
 62
     2
 10
272.000000
 20
31.421495
 11
281.399994
 21
31.643995
  0
LINE
  8
0
  6
DASHED
 62
     2
 10
272.000000
 20
44.578503
 11
281.399994
 21
44.356003
  0
LINE
  8
0
  6
DASHED
 62
     2
 10
272.000000
 20
32.277504
 11
281.399994
 21
32.500004
  0
LINE
  8
0
  6
DASHED
 62
     2
 10
272.000000
 20
43.722500
 11
281.399994
 21
43.500000
  0
LINE
  8
0
  6
DASHED
 62
     2
 10
281.399994
 20
31.643997
 11
282.882629
 21
32.500000
  0
LINE
  8
0
  6
DASHED
 62
     2
 10
281.400024
 20
44.356007
 11
282.882629
 21
43.500011
  0
LINE
  8
0
  6
DASHED
 62
     2
 10
323.000000
 20
31.421499
 11
313.600006
 21
31.643999
  0
LINE
  8
0
  6
DASHED
 62
     2
 10
313.599976
 20
31.643984
 11
312.117340
 21
32.499989
  0
LINE
  8
0
  6
DASHED
 62
     2
 10
313.600006
 20
32.500000
 11
312.100128
 21
32.500000
  0
LINE
  8
0
  6
DASHED
 62
     2
 10
323.000000
 20
32.277500
 11
313.599976
 21
32.500004
  0
LINE
  8
0
  6
DASHED
 62
     2
 10
313.600006
 20
44.356003
 11
313.600006
 21
31.643997
  0
LINE
  8
0
  6
DASHED
 62
     2
 10
313.600006
 20
43.500000
 11
312.100128
 21
43.500000
  0
LINE
  8
0
  6
DASHED
 62
     2
 10
313.599976
 20
44.355980
 11
312.117371
 21
43.499992
  0
LINE
  8
0
  6
DASHED
 62
     2
 10
323.000000
 20
44.578506
 11
313.600006
 21
44.356007
  0
LINE
  8
0
  6
DASHED
 62
     2
 10
323.000000
 20
43.722496
 11
313.600006
 21
43.499996
  0
LINE
  8
0
  6
DASHED
 62
     2
 10
323.000000
 20
48.000000
 11
323.000000
 21
28.000000
  0
LINE
  8
0
  6
DASHED
 62
     2
 10
323.500000
 20
48.000000
 11
323.000000
 21
48.000000
  0
LINE
  8
0
  6
DASHED
 62
     2
 10
323.500000
 20
28.000000
 11
323.000000
 21
28.000000
  0
LINE
  8
0
  6
DASHED
 62
     2
 10
271.500000
 20
28.000000
 11
272.000000
 21
28.000000
  0
LINE
  8
0
  6
DASHED
 62
     2
 10
271.500000
 20
48.000000
 11
272.000000
 21
48.000000
  0
LINE
  8
0
  6
DASHED
 62
     2
 10
272.000000
 20
43.722507
 11
272.836212
 21
44.558712
  0
LINE
  8
0
  6
DASHED
 62
     2
 10
280.523254
 20
31.623262
 11
281.399994
 21
32.500011
  0
LINE
  8
0
  6
DASHED
 62
     2
 10
280.523254
 20
44.376759
 11
281.400024
 21
43.500008
  0
LINE
  8
0
  6
DASHED
 62
     2
 10
272.000000
 20
32.277500
 11
272.836212
 21
31.441298
  0
LINE
  8
0
  6
DASHED
 62
     2
 10
272.836212
 20
31.441292
 11
272.836212
 21
44.558708
  0
LINE
  8
0
  6
DASHED
 62
     2
 10
280.523254
 20
44.376755
 11
280.523254
 21
31.623245
  0
LINE
  8
0
  6
DASHED
 62
     2
 10
314.476746
 20
44.376766
 11
313.600006
 21
43.500015
  0
LINE
  8
0
  6
DASHED
 62
     2
 10
314.476746
 20
44.376755
 11
314.476746
 21
31.623245
  0
LINE
  8
0
  6
DASHED
 62
     2
 10
314.476776
 20
31.623247
 11
313.600006
 21
32.500000
  0
LINE
  8
0
  6
DASHED
 62
     2
 10
323.000000
 20
32.277500
 11
322.163788
 21
31.441296
  0
LINE
  8
0
  6
DASHED
 62
     2
 10
322.163788
 20
31.441292
 11
322.163788
 21
44.558708
  0
LINE
  8
0
  6
DASHED
 62
     2
 10
322.999969
 20
43.722496
 11
322.163757
 21
44.558701
  0
LINE
  8
0
  6
CENTER
 62
     2
 10
286.500000
 20
48.000000
 11
286.500000
 21
28.000000
  0
LINE
  8
0
  6
CENTER
 62
     2
 10
308.500000
 20
48.000000
 11
308.500000
 21
28.000000
  0
LINE
  8
0
 10
269.500000
 20
27.800013
 11
269.000000
 21
28.300013
  0
LINE
  8
0
 10
269.500031
 20
25.799992
 11
269.000031
 21
25.299994
  0
LINE
  8
0
 10
269.000000
 20
28.300007
 11
269.000000
 21
25.300007
  0
LINE
  8
0
 10
264.364868
 20
24.300007
 11
267.000000
 21
24.300007
  0
LINE
  8
0
 10
265.500000
 20
35.500000
 11
271.500000
 21
35.500000
  0
LINE
  8
0
 10
265.500000
 20
42.500000
 11
265.500000
 21
35.500000
  0
LINE
  8
0
 10
268.000000
 20
28.595860
 11
268.000000
 21
25.300007
  0
LINE
  8
0
 10
269.799988
 20
35.500000
 11
269.799988
 21
34.895447
  0
LINE
  8
0
 10
268.000000
 20
28.595850
 11
269.900024
 21
29.692820
  0
LINE
  8
0
 10
268.000000
 20
25.300007
 11
269.000000
 21
25.300007
  0
LINE
  8
0
 10
268.000000
 20
28.300007
 11
269.000000
 21
28.300007
  0
LINE
  8
0
 10
268.000000
 20
25.570499
 11
269.270508
 21
25.570499
  0
LINE
  8
0
 10
268.000000
 20
28.029499
 11
269.270508
 21
28.029499
  0
LINE
  8
0
 10
325.500000
 20
26.300007
 11
325.500000
 21
24.300007
  0
LINE
  8
0
 10
271.500000
 20
25.407190
 11
271.100006
 21
26.900002
  0
LINE
  8
0
 10
271.500000
 20
42.500000
 11
265.500000
 21
42.500000
  0
LINE
  8
0
 10
325.500000
 20
27.800007
 11
325.500000
 21
25.800007
  0
LINE
  8
0
 62
     4
 10
-345.833344
 20
-171.500198
 11
-345.833344
 21
-210.500198
  0
LINE
  8
0
 62
     4
 10
-276.333344
 20
-175.100174
 11
-276.333344
 21
-190.900162
  0
LINE
  8
0
 62
     4
 10
-345.833374
 20
-178.000183
 11
-321.333374
 21
-178.000183
  0
LINE
  8
0
 62
     4
 10
-335.333344
 20
-179.100189
 11
-335.333344
 21
-184.500183
  0
LINE
  8
0
 62
     4
 10
-335.333405
 20
-179.100128
 11
-335.933441
 21
-178.500107
  0
LINE
  8
0
 62
     4
 10
-345.333313
 20
-179.100357
 11
-344.733276
 21
-178.500320
  0
LINE
  8
0
 62
     4
 10
-345.333344
 20
-179.100189
 11
-345.333344
 21
-184.500183
  0
LINE
  8
0
 62
     4
 10
-345.333374
 20
-179.100189
 11
-335.333374
 21
-179.100189
  0
LINE
  8
0
 62
     4
 10
-344.733368
 20
-178.500183
 11
-335.933380
 21
-178.500183
  0
LINE
  8
0
 62
     4
 10
-268.333344
 20
-175.100174
 11
-268.333344
 21
-190.900162
  0
LINE
  8
0
 62
     4
 10
-364.833374
 20
-181.500214
 11
-364.833374
 21
-184.500214
  0
LINE
  8
0
 62
     4
 10
-345.833374
 20
-184.500183
 11
-321.333374
 21
-184.500183
  0
LINE
  8
0
 62
     4
 10
-345.833344
 20
-198.500183
 11
-321.333344
 21
-198.500183
  0
LINE
  8
0
 62
     4
 10
-331.833282
 20
-179.100281
 11
-331.233276
 21
-178.500275
  0
LINE
  8
0
 62
     4
 10
-331.833344
 20
-179.100189
 11
-331.833344
 21
-184.500183
  0
LINE
  8
0
 62
     4
 10
-321.833344
 20
-179.100189
 11
-321.833344
 21
-184.500183
  0
LINE
  8
0
 62
     4
 10
-321.833405
 20
-179.100128
 11
-322.433441
 21
-178.500092
  0
LINE
  8
0
 62
     4
 10
-331.833374
 20
-179.100189
 11
-321.833374
 21
-179.100189
  0
LINE
  8
0
 62
     4
 10
-331.233368
 20
-178.500183
 11
-322.433380
 21
-178.500183
  0
LINE
  8
0
 62
     4
 10
-363.833374
 20
-180.500214
 11
-363.833374
 21
-185.500214
  0
LINE
  8
0
 62
     4
 10
-363.833313
 20
-185.500015
 11
-364.833282
 21
-184.500031
  0
LINE
  8
0
 62
     4
 10
-364.833313
 20
-181.500381
 11
-363.833282
 21
-180.500351
  0
LINE
  8
0
 62
     4
 10
-345.833374
 20
-171.500198
 11
-321.333374
 21
-171.500198
  0
LINE
  8
0
 62
     4
 10
-345.833344
 20
-210.500198
 11
-321.333344
 21
-210.500198
  0
LINE
  8
0
 62
     4
 10
-276.333374
 20
-190.900192
 11
-268.333374
 21
-190.900192
  0
LINE
  8
0
 62
     4
 10
-271.333344
 20
-175.100174
 11
-271.333344
 21
-190.900162
  0
LINE
  8
0
 62
     4
 10
-363.833405
 20
-180.500198
 11
-346.833405
 21
-180.500198
  0
LINE
  8
0
 62
     4
 10
-363.833405
 20
-185.500198
 11
-346.833405
 21
-185.500198
  0
LINE
  8
0
 62
     4
 10
-321.333374
 20
-192.000198
 11
-277.433411
 21
-192.000198
  0
LINE
  8
0
 62
     1
 10
-321.333374
 20
-190.647202
 11
-276.333374
 21
-190.647202
  0
LINE
  8
0
 62
     4
 10
-321.333344
 20
-171.500198
 11
-321.333344
 21
-210.500198
  0
LINE
  8
0
 62
     1
 10
-321.333374
 20
-175.353195
 11
-276.333374
 21
-175.353195
  0
LINE
  8
0
 62
     4
 10
-321.333374
 20
-174.000198
 11
-277.433380
 21
-174.000198
  0
LINE
  8
0
 62
     1
 10
-346.833405
 20
-175.353195
 11
-345.833374
 21
-175.353195
  0
LINE
  8
0
 62
     1
 10
-346.833405
 20
-190.647202
 11
-345.833374
 21
-190.647202
  0
LINE
  8
0
 62
     4
 10
-276.333374
 20
-175.100204
 11
-268.333374
 21
-175.100204
  0
LINE
  8
0
 62
     4
 10
-346.833374
 20
-175.000275
 11
-346.833374
 21
-191.000198
  0
LINE
  8
0
 62
     4
 10
-345.833221
 20
-192.000198
 11
-346.833252
 21
-191.000183
  0
LINE
  8
0
 62
     4
 10
-345.833008
 20
-174.000656
 11
-346.833038
 21
-175.000702
  0
LINE
  8
0
 62
     4
 10
-277.433594
 20
-174.000168
 11
-277.433594
 21
-192.000168
  0
LINE
  8
0
 62
     4
 10
-276.333435
 20
-190.900024
 11
-277.433472
 21
-192.000015
  0
LINE
  8
0
 62
     4
 10
-276.333374
 20
-175.100037
 11
-277.433350
 21
-174.000061
  0
LINE
  8
0
  6
CENTER
 62
     1
 10
-369.833405
 20
-183.000198
 11
-263.333374
 21
-183.000198
  0
LINE
  8
0
  6
CENTER
 62
     1
 10
-326.833344
 20
-173.500183
 11
-326.833344
 21
-188.811768
  0
LINE
  8
0
  6
CENTER
 62
     1
 10
-340.333344
 20
-173.500183
 11
-340.333344
 21
-189.505524
  0
LINE
  8
0
 62
     4
 10
-345.833374
 20
-175.119507
 11
-321.333374
 21
-175.119507
  0
LINE
  8
0
  6
CENTER
 62
     1
 10
-333.583344
 20
-160.474106
 11
-333.583344
 21
-221.589462
  0
LINE
  8
0
 62
     4
 10
-321.333374
 20
-59.499992
 11
-321.333374
 21
-138.499985
  0
LINE
  8
0
 62
     4
 10
-340.333282
 20
-128.113251
 11
-337.833313
 21
-129.556610
  0
LINE
  8
0
 62
     4
 10
-342.833191
 20
-129.556717
 11
-340.333191
 21
-128.113342
  0
LINE
  8
0
 62
     4
 10
-342.833282
 20
-132.443390
 11
-342.833282
 21
-129.556671
  0
LINE
  8
0
 62
     4
 10
-337.833221
 20
-68.443390
 11
-337.833221
 21
-65.556641
  0
LINE
  8
0
 62
     4
 10
-340.333344
 20
-133.886780
 11
-342.833313
 21
-132.443420
  0
LINE
  8
0
 62
     4
 10
-340.333282
 20
-69.886604
 11
-337.833313
 21
-68.443245
  0
LINE
  8
0
 62
     4
 10
-342.833313
 20
-68.443367
 11
-340.333344
 21
-69.886726
  0
LINE
  8
0
 62
     4
 10
-342.833282
 20
-65.556618
 11
-342.833282
 21
-68.443336
  0
LINE
  8
0
 62
     4
 10
-340.333374
 20
-64.112930
 11
-342.833344
 21
-65.556290
  0
LINE
  8
0
 62
     4
 10
-337.833374
 20
-65.556503
 11
-340.333344
 21
-64.113144
  0
LINE
  8
0
 62
     4
 10
-324.333405
 20
-129.556625
 11
-326.833466
 21
-128.113266
  0
LINE
  8
0
 62
     4
 10
-337.833130
 20
-132.443558
 11
-340.333130
 21
-133.886917
  0
LINE
  8
0
 62
     4
 10
-324.333466
 20
-65.556602
 11
-324.333466
 21
-68.443321
  0
LINE
  8
0
 62
     4
 10
-326.833588
 20
-64.113129
 11
-324.333618
 21
-65.556488
  0
LINE
  8
0
 62
     4
 10
-329.333466
 20
-65.556709
 11
-326.833466
 21
-64.113350
  0
LINE
  8
0
 62
     4
 10
-329.333527
 20
-68.443390
 11
-329.333527
 21
-65.556641
  0
LINE
  8
0
 62
     4
 10
-326.833649
 20
-69.886658
 11
-329.333618
 21
-68.443291
  0
LINE
  8
0
 62
     4
 10
-324.333313
 20
-68.443626
 11
-326.833313
 21
-69.886993
  0
LINE
  8
0
 62
     4
 10
-345.833374
 20
-59.500008
 11
-345.833374
 21
-138.500015
  0
LINE
  8
0
 62
     4
 10
-268.333374
 20
-91.099953
 11
-268.333374
 21
-106.899940
  0
LINE
  8
0
 62
     4
 10
-364.833405
 20
-97.500023
 11
-364.833405
 21
-100.500023
  0
LINE
  8
0
 62
     4
 10
-363.833405
 20
-101.500000
 11
-346.833405
 21
-101.500000
  0
LINE
  8
0
 62
     4
 10
-363.833405
 20
-96.500000
 11
-346.833405
 21
-96.500000
  0
LINE
  8
0
 62
     4
 10
-364.833282
 20
-97.500175
 11
-363.833282
 21
-96.500175
  0
LINE
  8
0
 62
     4
 10
-363.833344
 20
-101.500053
 11
-364.833313
 21
-100.500076
  0
LINE
  8
0
 62
     4
 10
-363.833405
 20
-96.500023
 11
-363.833405
 21
-101.500023
  0
LINE
  8
0
 62
     4
 10
-276.333374
 20
-91.099960
 11
-276.333374
 21
-106.899948
  0
LINE
  8
0
 62
     4
 10
-276.333374
 20
-91.100006
 11
-268.333374
 21
-91.100006
  0
LINE
  8
0
 62
     4
 10
-276.333374
 20
-106.899994
 11
-268.333374
 21
-106.899994
  0
LINE
  8
0
 62
     4
 10
-271.333374
 20
-91.099960
 11
-271.333374
 21
-106.899948
  0
LINE
  8
0
 62
     4
 10
-276.333435
 20
-91.099930
 11
-277.433441
 21
-89.999931
  0
LINE
  8
0
 62
     4
 10
-276.333496
 20
-106.899811
 11
-277.433533
 21
-107.999817
  0
LINE
  8
0
 62
     4
 10
-277.433624
 20
-89.999954
 11
-277.433624
 21
-107.999954
  0
LINE
  8
0
 62
     4
 10
-345.832977
 20
-90.000397
 11
-346.833008
 21
-91.000450
  0
LINE
  8
0
 62
     4
 10
-345.833344
 20
-107.999939
 11
-346.833374
 21
-106.999916
  0
LINE
  8
0
 62
     4
 10
-346.833405
 20
-91.000069
 11
-346.833405
 21
-107.000008
  0
LINE
  8
0
 62
     1
 10
-346.833405
 20
-106.647003
 11
-345.833374
 21
-106.647003
  0
LINE
  8
0
 62
     1
 10
-346.833405
 20
-91.352997
 11
-345.833374
 21
-91.352997
  0
LINE
  8
0
 62
     4
 10
-321.333374
 20
-90.000000
 11
-277.433380
 21
-90.000000
  0
LINE
  8
0
 62
     1
 10
-321.333374
 20
-91.352997
 11
-276.333374
 21
-91.352997
  0
LINE
  8
0
 62
     1
 10
-321.333374
 20
-106.647003
 11
-276.333374
 21
-106.647003
  0
LINE
  8
0
 62
     4
 10
-321.333374
 20
-108.000000
 11
-277.433411
 21
-108.000000
  0
LINE
  8
0
 62
     4
 10
-324.333466
 20
-132.443390
 11
-324.333466
 21
-129.556671
  0
LINE
  8
0
 62
     4
 10
-337.833221
 20
-129.556610
 11
-337.833221
 21
-132.443359
  0
LINE
  8
0
 62
     4
 10
-326.833466
 20
-133.886749
 11
-324.333496
 21
-132.443390
  0
LINE
  8
0
 62
     4
 10
-345.833344
 20
-138.500000
 11
-321.333344
 21
-138.500000
  0
LINE
  8
0
 62
     4
 10
-345.833405
 20
-59.500000
 11
-321.333405
 21
-59.500000
  0
LINE
  8
0
 62
     4
 10
-345.833374
 20
-114.500000
 11
-321.333374
 21
-114.500000
  0
LINE
  8
0
 62
     4
 10
-345.833374
 20
-83.500000
 11
-321.333374
 21
-83.500000
  0
LINE
  8
0
 62
     4
 10
-345.833344
 20
-125.500000
 11
-321.333344
 21
-125.500000
  0
LINE
  8
0
 62
     4
 10
-345.833405
 20
-72.500000
 11
-321.333405
 21
-72.500000
  0
LINE
  8
0
 62
     4
 10
-329.333496
 20
-132.443436
 11
-326.833496
 21
-133.886780
  0
LINE
  8
0
 62
     4
 10
-326.833496
 20
-128.113129
 11
-329.333496
 21
-129.556488
  0
LINE
  8
0
 62
     4
 10
-336.083466
 20
-79.443352
 11
-333.583496
 21
-80.886711
  0
LINE
  8
0
 62
     4
 10
-333.583466
 20
-80.886627
 11
-331.083466
 21
-79.443253
  0
LINE
  8
0
 62
     4
 10
-331.083344
 20
-79.443390
 11
-331.083344
 21
-76.556641
  0
LINE
  8
0
 62
     4
 10
-331.083466
 20
-76.556541
 11
-333.583435
 21
-75.113182
  0
LINE
  8
0
 62
     4
 10
-333.583557
 20
-75.112892
 11
-336.083527
 21
-76.556252
  0
LINE
  8
0
 62
     4
 10
-336.083405
 20
-76.556610
 11
-336.083405
 21
-79.443329
  0
LINE
  8
0
 62
     4
 10
-329.333527
 20
-129.556610
 11
-329.333527
 21
-132.443359
  0
LINE
  8
0
  6
CENTER
 62
     1
 10
-349.333282
 20
-67.000000
 11
-318.333405
 21
-67.000000
  0
LINE
  8
0
  6
CENTER
 62
     1
 10
-326.833496
 20
-57.999996
 11
-326.833496
 21
-75.999992
  0
LINE
  8
0
  6
CENTER
 62
     1
 10
-340.333252
 20
-58.000004
 11
-340.333252
 21
-76.000008
  0
LINE
  8
0
  6
CENTER
 62
     1
 10
-333.583374
 20
-54.295013
 11
-333.583374
 21
-144.832840
  0
LINE
  8
0
  6
CENTER
 62
     1
 10
-342.583405
 20
-78.000031
 11
-324.583405
 21
-78.000031
  0
LINE
  8
0
  6
CENTER
 62
     1
 10
-326.833496
 20
-140.000000
 11
-326.833496
 21
-121.999992
  0
LINE
  8
0
  6
CENTER
 62
     1
 10
-340.333252
 20
-140.000000
 11
-340.333252
 21
-122.000008
  0
LINE
  8
0
  6
CENTER
 62
     1
 10
-349.333221
 20
-131.000000
 11
-318.333344
 21
-131.000000
  0
LINE
  8
0
  6
CENTER
 62
     1
 10
-369.312134
 20
-99.000000
 11
-263.415222
 21
-99.000000
  0
LINE
  8
0
 62
     4
 10
-242.333176
 20
-194.500198
 11
-242.333176
 21
-200.500275
  0
LINE
  8
0
 62
     4
 10
-242.333176
 20
-200.500168
 11
-240.333191
 21
-201.654861
  0
LINE
  8
0
 62
     4
 10
-186.333176
 20
-194.500153
 11
-186.333176
 21
-200.500076
  0
LINE
  8
0
 62
     4
 10
-186.333176
 20
-200.500198
 11
-188.333160
 21
-201.654892
  0
LINE
  8
0
 62
     4
 10
-198.333206
 20
-172.600189
 11
-188.333206
 21
-172.600189
  0
LINE
  8
0
 62
     4
 10
-188.333176
 20
-172.600159
 11
-188.933197
 21
-172.000153
  0
LINE
  8
0
 62
     4
 10
-188.333176
 20
-172.600174
 11
-188.333176
 21
-178.000168
  0
LINE
  8
0
 62
     4
 10
-198.333176
 20
-172.600174
 11
-198.333176
 21
-178.000168
  0
LINE
  8
0
 62
     4
 10
-198.333191
 20
-172.600204
 11
-197.733170
 21
-172.000198
  0
LINE
  8
0
 62
     4
 10
-250.733215
 20
-178.500183
 11
-241.933212
 21
-178.500183
  0
LINE
  8
0
 62
     4
 10
-251.333206
 20
-179.100189
 11
-241.333206
 21
-179.100189
  0
LINE
  8
0
 62
     4
 10
-251.333176
 20
-179.100204
 11
-251.333176
 21
-184.500198
  0
LINE
  8
0
 62
     4
 10
-251.333191
 20
-179.100235
 11
-250.733170
 21
-178.500229
  0
LINE
  8
0
 62
     4
 10
-241.333191
 20
-179.100143
 11
-241.933197
 21
-178.500122
  0
LINE
  8
0
 62
     4
 10
-229.833176
 20
-176.065826
 11
-229.833176
 21
-178.000183
  0
LINE
  8
0
 62
     4
 10
-198.833176
 20
-176.065811
 11
-198.833176
 21
-178.000168
  0
LINE
  8
0
 62
     4
 10
-239.833206
 20
-178.000183
 11
-229.833206
 21
-178.000183
  0
LINE
  8
0
 62
     4
 10
-198.833206
 20
-178.000183
 11
-188.333206
 21
-178.000183
  0
LINE
  8
0
 62
     4
 10
-240.833176
 20
-179.000198
 11
-240.833176
 21
-184.500198
  0
LINE
  8
0
 62
     4
 10
-240.833191
 20
-195.000183
 11
-237.624680
 21
-195.000183
  0
LINE
  8
0
 62
     4
 10
-251.833191
 20
-184.500183
 11
-240.833191
 21
-184.500183
  0
LINE
  8
0
 62
     4
 10
-253.833176
 20
-186.500198
 11
-253.833176
 21
-207.500198
  0
LINE
  8
0
 62
     4
 10
-253.833191
 20
-198.500183
 11
-250.333191
 21
-198.500183
  0
LINE
  8
0
 62
     4
 10
-250.333176
 20
-195.500198
 11
-250.333176
 21
-198.500198
  0
LINE
  8
0
 62
     4
 10
-249.333191
 20
-194.500183
 11
-241.333191
 21
-194.500183
  0
LINE
  8
0
 62
     4
 10
-240.833145
 20
-195.000168
 11
-241.333145
 21
-194.500168
  0
LINE
  8
0
 62
     4
 10
-179.333191
 20
-194.500183
 11
-187.333191
 21
-194.500183
  0
LINE
  8
0
 62
     4
 10
-187.833099
 20
-195.000290
 11
-187.333084
 21
-194.500290
  0
LINE
  8
0
 62
     4
 10
-178.333176
 20
-195.500153
 11
-178.333176
 21
-198.500153
  0
LINE
  8
0
 62
     4
 10
-174.833191
 20
-198.500183
 11
-178.333191
 21
-198.500183
  0
LINE
  8
0
 62
     4
 10
-174.833176
 20
-186.500153
 11
-174.833176
 21
-207.500153
  0
LINE
  8
0
 62
     4
 10
-176.833191
 20
-184.500183
 11
-187.833191
 21
-184.500183
  0
LINE
  8
0
 62
     4
 10
-187.833176
 20
-179.000153
 11
-187.833176
 21
-182.000183
  0
LINE
  8
0
 62
     4
 10
-187.833191
 20
-195.000183
 11
-191.041702
 21
-195.000183
  0
LINE
  8
0
 62
     4
 10
-205.389023
 20
-184.000214
 11
-187.833191
 21
-184.000214
  0
LINE
  8
0
 62
     4
 10
-205.389023
 20
-182.000214
 11
-187.833191
 21
-182.000214
  0
LINE
  8
0
 62
     4
 10
-187.833176
 20
-184.000183
 11
-187.833176
 21
-184.500153
  0
LINE
  8
0
 62
     4
 10
-241.333176
 20
-179.100204
 11
-241.333176
 21
-184.500198
  0
LINE
  8
0
 62
     4
 10
-197.733215
 20
-172.000183
 11
-188.933212
 21
-172.000183
  0
LINE
  8
0
 62
     4
 10
-177.333191
 20
-179.100143
 11
-177.933197
 21
-178.500137
  0
LINE
  8
0
 62
     4
 10
-250.833176
 20
-210.500183
 11
-242.808533
 21
-210.500183
  0
LINE
  8
0
 62
     4
 10
-185.857712
 20
-210.500183
 11
-177.833176
 21
-210.500183
  0
LINE
  8
0
 62
     4
 10
-196.333176
 20
-182.000198
 11
-196.333176
 21
-184.000198
  0
LINE
  8
0
 62
     4
 10
-190.333176
 20
-182.000198
 11
-190.333176
 21
-184.000198
  0
LINE
  8
0
 62
     1
 10
-195.791672
 20
-182.000198
 11
-195.791672
 21
-184.000198
  0
LINE
  8
0
 62
     1
 10
-190.874680
 20
-182.000198
 11
-190.874680
 21
-184.000198
  0
LINE
  8
0
 62
     4
 10
-177.333176
 20
-179.100159
 11
-177.333176
 21
-184.500153
  0
LINE
  8
0
 62
     4
 10
-187.333176
 20
-179.100159
 11
-187.333176
 21
-184.500153
  0
LINE
  8
0
 62
     4
 10
-186.733215
 20
-178.500183
 11
-177.933212
 21
-178.500183
  0
LINE
  8
0
 62
     4
 10
-187.333206
 20
-179.100189
 11
-177.333206
 21
-179.100189
  0
LINE
  8
0
 62
     4
 10
-187.333145
 20
-179.100204
 11
-186.733139
 21
-178.500198
  0
LINE
  8
0
  6
CENTER
 62
     1
 10
-246.333176
 20
-173.500198
 11
-246.333176
 21
-215.500198
  0
LINE
  8
0
  6
CENTER
 62
     1
 10
-228.333298
 20
-183.000214
 11
-200.333298
 21
-183.000214
  0
LINE
  8
0
  6
CENTER
 62
     1
 10
-193.333176
 20
-167.000168
 11
-193.333176
 21
-200.000168
  0
LINE
  8
0
  6
CENTER
 62
     1
 10
-182.333176
 20
-173.500153
 11
-182.333176
 21
-215.500153
  0
LINE
  8
0
 62
     4
 10
-240.333176
 20
-201.654877
 11
-240.333176
 21
-209.430695
  0
LINE
  8
0
 62
     4
 10
-188.333160
 20
-201.654877
 11
-188.333160
 21
-209.430542
  0
LINE
  8
0
  6
CENTER
 62
     1
 10
-214.333282
 20
-167.486115
 11
-214.333282
 21
-200.855774
  0
LINE
  8
0
 62
     4
 10
-96.833176
 20
-190.000214
 11
-95.833145
 21
-190.000214
  0
LINE
  8
0
 62
     4
 10
-96.833160
 20
-176.000229
 11
-96.833160
 21
-190.000229
  0
LINE
  8
0
 62
     4
 10
-96.833183
 20
-176.000214
 11
-95.833153
 21
-176.000214
  0
LINE
  8
0
 62
     4
 10
-62.033184
 20
-174.000229
 11
-60.833179
 21
-176.078720
  0
LINE
  8
0
 62
     4
 10
-62.033142
 20
-174.000198
 11
-62.033142
 21
-192.000198
  0
LINE
  8
0
 62
     4
 10
-71.333153
 20
-174.000214
 11
-62.033169
 21
-174.000214
  0
LINE
  8
0
 62
     4
 10
-71.333145
 20
-192.000214
 11
-62.033157
 21
-192.000214
  0
LINE
  8
0
 62
     4
 10
-60.833130
 20
-176.078705
 11
-60.833130
 21
-189.921707
  0
LINE
  8
0
 62
     1
 10
-71.333145
 20
-191.188232
 11
-61.564377
 21
-191.188232
  0
LINE
  8
0
 62
     1
 10
-71.333153
 20
-174.812225
 11
-61.564358
 21
-174.812225
  0
LINE
  8
0
 62
     4
 10
-62.033073
 20
-192.000275
 11
-60.833057
 21
-189.921783
  0
LINE
  8
0
 62
     4
 10
-95.833153
 20
-175.119507
 11
-71.333153
 21
-175.119507
  0
LINE
  8
0
 62
     4
 10
-95.333183
 20
-179.100204
 11
-85.333183
 21
-179.100204
  0
LINE
  8
0
 62
     4
 10
-94.733177
 20
-178.500198
 11
-85.933189
 21
-178.500198
  0
LINE
  8
0
 62
     4
 10
-95.833183
 20
-184.500198
 11
-71.333183
 21
-184.500198
  0
LINE
  8
0
 62
     4
 10
-71.333130
 20
-171.500214
 11
-71.333130
 21
-210.500198
  0
LINE
  8
0
 62
     4
 10
-95.833138
 20
-210.500214
 11
-71.333138
 21
-210.500214
  0
LINE
  8
0
 62
     4
 10
-95.833191
 20
-171.500214
 11
-71.333191
 21
-171.500214
  0
LINE
  8
0
 62
     4
 10
-81.233177
 20
-178.500198
 11
-72.433189
 21
-178.500198
  0
LINE
  8
0
 62
     4
 10
-81.833183
 20
-179.100204
 11
-71.833183
 21
-179.100204
  0
LINE
  8
0
 62
     4
 10
-71.833221
 20
-179.100128
 11
-72.433250
 21
-178.500092
  0
LINE
  8
0
 62
     4
 10
-71.833130
 20
-179.100189
 11
-71.833130
 21
-184.500183
  0
LINE
  8
0
 62
     4
 10
-81.833130
 20
-179.100204
 11
-81.833130
 21
-184.500198
  0
LINE
  8
0
 62
     4
 10
-81.833054
 20
-179.100327
 11
-81.233047
 21
-178.500320
  0
LINE
  8
0
 62
     4
 10
-95.833145
 20
-198.500198
 11
-71.333145
 21
-198.500198
  0
LINE
  8
0
 62
     4
 10
-95.333130
 20
-179.100220
 11
-95.333130
 21
-184.500214
  0
LINE
  8
0
 62
     4
 10
-95.333061
 20
-179.100388
 11
-94.733032
 21
-178.500366
  0
LINE
  8
0
 62
     4
 10
-95.833130
 20
-171.500214
 11
-95.833130
 21
-210.500229
  0
LINE
  8
0
 62
     4
 10
-95.833183
 20
-178.000198
 11
-71.333183
 21
-178.000198
  0
LINE
  8
0
 62
     4
 10
-85.333130
 20
-179.100204
 11
-85.333130
 21
-184.500198
  0
LINE
  8
0
 62
     4
 10
-85.333206
 20
-179.100143
 11
-85.933235
 21
-178.500107
  0
LINE
  8
0
  6
CENTER
 62
     1
 10
-101.833183
 20
-183.000214
 11
-55.833153
 21
-183.000214
  0
LINE
  8
0
  6
CENTER
 62
     1
 10
-76.833130
 20
-173.500183
 11
-76.833130
 21
-191.267349
  0
LINE
  8
0
  6
CENTER
 62
     1
 10
-90.333130
 20
-173.500214
 11
-90.333130
 21
-191.267349
  0
LINE
  8
0
  6
CENTER
 62
     1
 10
-83.583130
 20
-164.932281
 11
-83.583130
 21
-221.566833
  0
LINE
  8
0
 62
     4
 10
-62.033260
 20
-108.000053
 11
-60.833248
 21
-105.921570
  0
LINE
  8
0
 62
     4
 10
-62.033440
 20
-90.000031
 11
-60.833439
 21
-92.078522
  0
LINE
  8
0
 62
     4
 10
-62.033386
 20
-89.999985
 11
-62.033386
 21
-107.999985
  0
LINE
  8
0
 62
     4
 10
-71.333382
 20
-90.000000
 11
-62.033394
 21
-90.000000
  0
LINE
  8
0
 62
     4
 10
-71.333366
 20
-108.000000
 11
-62.033379
 21
-108.000000
  0
LINE
  8
0
 62
     4
 10
-96.833397
 20
-106.000000
 11
-95.833366
 21
-106.000000
  0
LINE
  8
0
 62
     4
 10
-96.833412
 20
-92.000000
 11
-95.833382
 21
-92.000000
  0
LINE
  8
0
 62
     4
 10
-60.833374
 20
-92.078476
 11
-60.833374
 21
-105.921494
  0
LINE
  8
0
 62
     1
 10
-71.333366
 20
-107.188019
 11
-61.564598
 21
-107.188019
  0
LINE
  8
0
 62
     1
 10
-71.333382
 20
-90.812012
 11
-61.564583
 21
-90.812012
  0
LINE
  8
0
 62
     4
 10
-95.833427
 20
-72.500000
 11
-71.333427
 21
-72.500000
  0
LINE
  8
0
 62
     4
 10
-79.333435
 20
-132.443451
 11
-76.833458
 21
-133.886795
  0
LINE
  8
0
 62
     4
 10
-76.833481
 20
-128.113113
 11
-79.333450
 21
-129.556473
  0
LINE
  8
0
 62
     4
 10
-86.083519
 20
-79.443321
 11
-83.583542
 21
-80.886681
  0
LINE
  8
0
 62
     4
 10
-83.583481
 20
-80.886566
 11
-81.083481
 21
-79.443192
  0
LINE
  8
0
 62
     4
 10
-81.083344
 20
-79.443390
 11
-81.083344
 21
-76.556641
  0
LINE
  8
0
 62
     4
 10
-81.083519
 20
-76.556503
 11
-83.583496
 21
-75.113144
  0
LINE
  8
0
 62
     4
 10
-83.583595
 20
-75.112862
 11
-86.083565
 21
-76.556221
  0
LINE
  8
0
 62
     4
 10
-79.333527
 20
-129.556610
 11
-79.333527
 21
-132.443359
  0
LINE
  8
0
 62
     4
 10
-86.083405
 20
-76.556610
 11
-86.083405
 21
-79.443329
  0
LINE
  8
0
 62
     4
 10
-95.833321
 20
-125.500000
 11
-71.333321
 21
-125.500000
  0
LINE
  8
0
 62
     4
 10
-95.833389
 20
-83.500000
 11
-71.333389
 21
-83.500000
  0
LINE
  8
0
 62
     4
 10
-96.833405
 20
-92.000008
 11
-96.833405
 21
-106.000008
  0
LINE
  8
0
 62
     4
 10
-71.333374
 20
-59.499992
 11
-71.333374
 21
-138.499985
  0
LINE
  8
0
 62
     4
 10
-90.333275
 20
-128.113251
 11
-87.833305
 21
-129.556610
  0
LINE
  8
0
 62
     4
 10
-92.833168
 20
-129.556778
 11
-90.333160
 21
-128.113403
  0
LINE
  8
0
 62
     4
 10
-92.833282
 20
-132.443390
 11
-92.833282
 21
-129.556671
  0
LINE
  8
0
 62
     4
 10
-87.833221
 20
-68.443390
 11
-87.833221
 21
-65.556641
  0
LINE
  8
0
 62
     4
 10
-90.333328
 20
-133.886780
 11
-92.833298
 21
-132.443405
  0
LINE
  8
0
 62
     4
 10
-90.333267
 20
-69.886597
 11
-87.833298
 21
-68.443237
  0
LINE
  8
0
 62
     4
 10
-92.833344
 20
-68.443314
 11
-90.333374
 21
-69.886673
  0
LINE
  8
0
 62
     4
 10
-92.833282
 20
-65.556618
 11
-92.833282
 21
-68.443336
  0
LINE
  8
0
 62
     4
 10
-90.333389
 20
-64.112938
 11
-92.833359
 21
-65.556290
  0
LINE
  8
0
 62
     4
 10
-87.833405
 20
-65.556473
 11
-90.333374
 21
-64.113113
  0
LINE
  8
0
 62
     4
 10
-74.333405
 20
-129.556641
 11
-76.833450
 21
-128.113266
  0
LINE
  8
0
 62
     4
 10
-87.833084
 20
-132.443573
 11
-90.333092
 21
-133.886932
  0
LINE
  8
0
 62
     4
 10
-74.333466
 20
-65.556602
 11
-74.333466
 21
-68.443321
  0
LINE
  8
0
 62
     4
 10
-76.833633
 20
-64.113091
 11
-74.333664
 21
-65.556450
  0
LINE
  8
0
 62
     4
 10
-79.333488
 20
-65.556717
 11
-76.833481
 21
-64.113358
  0
LINE
  8
0
 62
     4
 10
-79.333527
 20
-68.443390
 11
-79.333527
 21
-65.556641
  0
LINE
  8
0
 62
     4
 10
-76.833687
 20
-69.886627
 11
-79.333664
 21
-68.443268
  0
LINE
  8
0
 62
     4
 10
-74.333298
 20
-68.443665
 11
-76.833305
 21
-69.887032
  0
LINE
  8
0
 62
     4
 10
-95.833374
 20
-59.500008
 11
-95.833374
 21
-138.500015
  0
LINE
  8
0
 62
     4
 10
-74.333466
 20
-132.443390
 11
-74.333466
 21
-129.556671
  0
LINE
  8
0
 62
     4
 10
-87.833221
 20
-129.556610
 11
-87.833221
 21
-132.443359
  0
LINE
  8
0
 62
     4
 10
-76.833427
 20
-133.886719
 11
-74.333458
 21
-132.443359
  0
LINE
  8
0
 62
     4
 10
-95.833313
 20
-138.500000
 11
-71.333313
 21
-138.500000
  0
LINE
  8
0
 62
     4
 10
-95.833435
 20
-59.500000
 11
-71.333435
 21
-59.500000
  0
LINE
  8
0
 62
     4
 10
-95.833359
 20
-114.500000
 11
-71.333359
 21
-114.500000
  0
LINE
  8
0
  6
CENTER
 62
     1
 10
-76.833496
 20
-140.000000
 11
-76.833496
 21
-121.999992
  0
LINE
  8
0
  6
CENTER
 62
     1
 10
-90.333252
 20
-140.000000
 11
-90.333252
 21
-122.000008
  0
LINE
  8
0
  6
CENTER
 62
     1
 10
-99.333199
 20
-131.000000
 11
-68.333321
 21
-131.000000
  0
LINE
  8
0
  6
CENTER
 62
     1
 10
-83.583374
 20
-54.316795
 11
-83.583374
 21
-145.574646
  0
LINE
  8
0
  6
CENTER
 62
     1
 10
-92.583420
 20
-78.000031
 11
-74.583420
 21
-78.000031
  0
LINE
  8
0
  6
CENTER
 62
     1
 10
-99.333305
 20
-67.000000
 11
-68.333427
 21
-67.000000
  0
LINE
  8
0
  6
CENTER
 62
     1
 10
-76.833496
 20
-57.999996
 11
-76.833496
 21
-75.999992
  0
LINE
  8
0
  6
CENTER
 62
     1
 10
-90.333252
 20
-58.000004
 11
-90.333252
 21
-76.000008
  0
LINE
  8
0
  6
CENTER
 62
     1
 10
-104.677895
 20
-99.000000
 11
-40.408585
 21
-99.000000
  0
LINE
  8
0
 62
     4
 10
39.666817
 20
-180.690704
 11
35.666828
 21
-178.381317
  0
LINE
  8
0
 62
     4
 10
35.666779
 20
-178.381256
 11
31.666788
 21
-180.690659
  0
LINE
  8
0
 62
     4
 10
31.666809
 20
-180.690720
 11
31.666809
 21
-185.309509
  0
LINE
  8
0
 62
     4
 10
31.666786
 20
-185.309525
 11
35.666790
 21
-187.618927
  0
LINE
  8
0
 62
     4
 10
35.666813
 20
-187.618942
 11
39.666809
 21
-185.309540
  0
LINE
  8
0
 62
     4
 10
39.666840
 20
-185.309525
 11
39.666840
 21
-180.690735
  0
LINE
  8
0
 62
     4
 10
62.666832
 20
-179.100128
 11
63.266838
 21
-178.500122
  0
LINE
  8
0
 62
     4
 10
7.666824
 20
-194.500137
 11
7.666824
 21
-200.500214
  0
LINE
  8
0
 62
     4
 10
7.666831
 20
-200.500092
 11
9.666820
 21
-201.654785
  0
LINE
  8
0
 62
     4
 10
63.666824
 20
-194.500061
 11
63.666824
 21
-200.499985
  0
LINE
  8
0
 62
     4
 10
63.666824
 20
-200.500137
 11
61.666836
 21
-201.654831
  0
LINE
  8
0
 62
     4
 10
51.666767
 20
-172.600113
 11
61.666767
 21
-172.600113
  0
LINE
  8
0
 62
     4
 10
61.666790
 20
-172.600067
 11
61.066784
 21
-172.000061
  0
LINE
  8
0
 62
     4
 10
61.666824
 20
-172.600082
 11
61.666824
 21
-178.000076
  0
LINE
  8
0
 62
     4
 10
51.666824
 20
-172.600082
 11
51.666824
 21
-178.000076
  0
LINE
  8
0
 62
     4
 10
51.666847
 20
-172.600159
 11
52.266853
 21
-172.000137
  0
LINE
  8
0
 62
     4
 10
-0.733239
 20
-178.500107
 11
8.066764
 21
-178.500107
  0
LINE
  8
0
 62
     4
 10
-1.333230
 20
-179.100113
 11
8.666770
 21
-179.100113
  0
LINE
  8
0
 62
     4
 10
-1.333176
 20
-179.100143
 11
-1.333176
 21
-184.500137
  0
LINE
  8
0
 62
     4
 10
-1.333200
 20
-179.100174
 11
-0.733191
 21
-178.500168
  0
LINE
  8
0
 62
     4
 10
8.666805
 20
-179.100052
 11
8.066796
 21
-178.500046
  0
LINE
  8
0
 62
     4
 10
20.166824
 20
-176.065765
 11
20.166824
 21
-178.000122
  0
LINE
  8
0
 62
     4
 10
51.166824
 20
-176.065720
 11
51.166824
 21
-178.000076
  0
LINE
  8
0
 62
     4
 10
10.166770
 20
-178.000107
 11
20.166769
 21
-178.000107
  0
LINE
  8
0
 62
     4
 10
51.166771
 20
-178.000107
 11
61.666771
 21
-178.000107
  0
LINE
  8
0
 62
     4
 10
9.166824
 20
-179.000137
 11
9.166824
 21
-184.500137
  0
LINE
  8
0
 62
     4
 10
9.166795
 20
-195.000107
 11
12.375306
 21
-195.000107
  0
LINE
  8
0
 62
     4
 10
-1.833211
 20
-184.500107
 11
9.166789
 21
-184.500107
  0
LINE
  8
0
 62
     4
 10
-3.833176
 20
-186.500153
 11
-3.833176
 21
-207.500153
  0
LINE
  8
0
 62
     4
 10
-3.833203
 20
-198.500107
 11
-0.333203
 21
-198.500107
  0
LINE
  8
0
 62
     4
 10
-0.333176
 20
-195.500137
 11
-0.333176
 21
-198.500137
  0
LINE
  8
0
 62
     4
 10
0.666795
 20
-194.500107
 11
8.666795
 21
-194.500107
  0
LINE
  8
0
 62
     4
 10
9.166871
 20
-195.000092
 11
8.666860
 21
-194.500076
  0
LINE
  8
0
 62
     4
 10
70.666794
 20
-194.500107
 11
62.666794
 21
-194.500107
  0
LINE
  8
0
 62
     4
 10
62.166943
 20
-195.000259
 11
62.666958
 21
-194.500244
  0
LINE
  8
0
 62
     4
 10
71.666824
 20
-195.500061
 11
71.666824
 21
-198.500061
  0
LINE
  8
0
 62
     4
 10
75.166794
 20
-198.500107
 11
71.666794
 21
-198.500107
  0
LINE
  8
0
 62
     4
 10
75.166824
 20
-186.500046
 11
75.166824
 21
-207.500046
  0
LINE
  8
0
 62
     4
 10
73.166786
 20
-184.500107
 11
62.166790
 21
-184.500107
  0
LINE
  8
0
 62
     4
 10
62.166824
 20
-179.000061
 11
62.166824
 21
-182.000092
  0
LINE
  8
0
 62
     4
 10
62.166794
 20
-195.000107
 11
58.958282
 21
-195.000107
  0
LINE
  8
0
 62
     4
 10
44.610958
 20
-184.000137
 11
62.166790
 21
-184.000137
  0
LINE
  8
0
 62
     4
 10
44.610954
 20
-182.000137
 11
62.166786
 21
-182.000137
  0
LINE
  8
0
 62
     4
 10
62.166824
 20
-184.000092
 11
62.166824
 21
-184.500061
  0
LINE
  8
0
 62
     4
 10
8.666824
 20
-179.100143
 11
8.666824
 21
-184.500137
  0
LINE
  8
0
 62
     4
 10
52.266758
 20
-172.000107
 11
61.066761
 21
-172.000107
  0
LINE
  8
0
 62
     4
 10
72.666779
 20
-179.100052
 11
72.066765
 21
-178.500046
  0
LINE
  8
0
 62
     4
 10
-0.833181
 20
-210.500107
 11
7.191463
 21
-210.500107
  0
LINE
  8
0
 62
     4
 10
64.142281
 20
-210.500107
 11
72.166817
 21
-210.500107
  0
LINE
  8
0
 62
     4
 10
53.666824
 20
-182.000107
 11
53.666824
 21
-184.000107
  0
LINE
  8
0
 62
     4
 10
59.666824
 20
-182.000107
 11
59.666824
 21
-184.000107
  0
LINE
  8
0
 62
     1
 10
54.208328
 20
-182.000107
 11
54.208328
 21
-184.000107
  0
LINE
  8
0
 62
     1
 10
59.125320
 20
-182.000107
 11
59.125320
 21
-184.000107
  0
LINE
  8
0
 62
     4
 10
72.666824
 20
-179.100067
 11
72.666824
 21
-184.500061
  0
LINE
  8
0
 62
     4
 10
62.666824
 20
-179.100067
 11
62.666824
 21
-184.500061
  0
LINE
  8
0
 62
     4
 10
63.266762
 20
-178.500107
 11
72.066765
 21
-178.500107
  0
LINE
  8
0
 62
     4
 10
62.666771
 20
-179.100113
 11
72.666771
 21
-179.100113
  0
LINE
  8
0
  6
CENTER
 62
     1
 10
21.666681
 20
-183.000137
 11
49.666679
 21
-183.000137
  0
LINE
  8
0
  6
CENTER
 62
     1
 10
3.666824
 20
-173.500137
 11
3.666824
 21
-215.500137
  0
LINE
  8
0
  6
CENTER
 62
     1
 10
56.666824
 20
-167.000076
 11
56.666824
 21
-200.000076
  0
LINE
  8
0
  6
CENTER
 62
     1
 10
67.666824
 20
-173.500061
 11
67.666824
 21
-215.500061
  0
LINE
  8
0
 62
     4
 10
9.666817
 20
-201.654800
 11
9.666817
 21
-209.430618
  0
LINE
  8
0
  6
CENTER
 62
     1
 10
35.666824
 20
-167.461761
 11
35.666824
 21
-197.552261
  0
LINE
  8
0
 62
     4
 10
61.666836
 20
-201.654800
 11
61.666836
 21
-209.430450
  0
LINE
  8
0
 62
     4
 10
206.216629
 20
-106.166542
 11
206.816620
 21
-105.566551
  0
LINE
  8
0
 62
     4
 10
206.216766
 20
-96.166603
 11
206.816803
 21
-96.766632
  0
LINE
  8
0
  6
DASHED
 62
     1
 10
212.316696
 20
-109.966644
 11
212.316696
 21
-113.166649
  0
LINE
  8
0
 62
     4
 10
200.816696
 20
-93.166649
 11
197.616684
 21
-93.166649
  0
LINE
  8
0
 62
     4
 10
200.816696
 20
-93.166649
 11
200.816696
 21
-106.966644
  0
LINE
  8
0
  6
CENTER
 62
     1
 10
215.616684
 20
-104.966644
 11
215.616684
 21
-118.166649
  0
LINE
  8
0
 62
     4
 10
223.616684
 20
-109.966644
 11
203.816696
 21
-109.966644
  0
LINE
  8
0
 62
     4
 10
197.616684
 20
-93.166649
 11
197.616684
 21
-106.966644
  0
LINE
  8
0
 62
     4
 10
206.216660
 20
-96.166649
 11
206.216660
 21
-106.166649
  0
LINE
  8
0
 62
     4
 10
206.816696
 20
-96.766647
 11
206.816696
 21
-105.566650
  0
LINE
  8
0
 62
     4
 10
206.216660
 20
-96.166649
 11
200.816696
 21
-96.166649
  0
LINE
  8
0
 62
     4
 10
206.216660
 20
-106.166649
 11
200.816696
 21
-106.166649
  0
LINE
  8
0
  6
CENTER
 62
     1
 10
211.816696
 20
-101.166649
 11
186.616684
 21
-101.166649
  0
LINE
  8
0
  6
DASHED
 62
     1
 10
218.916672
 20
-109.966644
 11
218.916672
 21
-113.166649
  0
LINE
  8
0
 62
     4
 10
223.616684
 20
-109.966644
 11
223.616684
 21
-113.166649
  0
LINE
  8
0
 62
     4
 10
223.616684
 20
-113.166649
 11
203.816696
 21
-113.166649
  0
LINE
  8
0
 62
     4
 10
289.116608
 20
-102.610153
 11
289.116608
 21
-99.723396
  0
LINE
  8
0
 62
     4
 10
291.616608
 20
-104.053436
 11
289.116608
 21
-102.610054
  0
LINE
  8
0
 62
     4
 10
294.616638
 20
-113.166786
 11
294.616638
 21
-113.166786
  0
LINE
  8
0
 62
     4
 10
284.616577
 20
-93.166679
 11
297.616577
 21
-93.166679
  0
LINE
  8
0
 62
     4
 10
284.616577
 20
-109.966675
 11
334.616577
 21
-109.966675
  0
LINE
  8
0
 62
     4
 10
284.616577
 20
-113.166679
 11
334.616577
 21
-113.166679
  0
LINE
  8
0
 62
     4
 10
334.616577
 20
-93.166679
 11
334.616577
 21
-113.166679
  0
LINE
  8
0
 62
     4
 10
284.616577
 20
-93.166679
 11
284.616577
 21
-113.166679
  0
LINE
  8
0
 62
     4
 10
321.616577
 20
-109.966675
 11
321.616577
 21
-113.166679
  0
LINE
  8
0
 62
     4
 10
289.116699
 20
-99.723503
 11
291.616669
 21
-98.280144
  0
LINE
  8
0
 62
     4
 10
297.616577
 20
-109.966675
 11
297.616577
 21
-113.166679
  0
LINE
  8
0
 62
     4
 10
321.616577
 20
-93.166679
 11
334.616577
 21
-93.166679
  0
LINE
  8
0
 62
     4
 10
294.116730
 20
-102.610291
 11
291.616730
 21
-104.053665
  0
LINE
  8
0
 62
     4
 10
325.116547
 20
-99.723389
 11
325.116547
 21
-102.610138
  0
LINE
  8
0
 62
     4
 10
325.116547
 20
-102.610161
 11
327.616547
 21
-104.053535
  0
LINE
  8
0
 62
     4
 10
330.116547
 20
-99.723412
 11
327.616577
 21
-98.280052
  0
LINE
  8
0
 62
     4
 10
327.616486
 20
-98.279907
 11
325.116486
 21
-99.723282
  0
LINE
  8
0
 62
     4
 10
327.616516
 20
-104.053482
 11
330.116547
 21
-102.610100
  0
LINE
  8
0
 62
     4
 10
330.116547
 20
-102.610153
 11
330.116547
 21
-99.723396
  0
LINE
  8
0
 62
     4
 10
294.116608
 20
-99.723389
 11
294.116608
 21
-102.610138
  0
LINE
  8
0
 62
     4
 10
291.616669
 20
-98.279976
 11
294.116638
 21
-99.723335
  0
LINE
  8
0
  6
CENTER
 62
     1
 10
291.616608
 20
-92.166779
 11
291.616608
 21
-118.166679
  0
LINE
  8
0
  6
DASHED
 62
     1
 10
288.316528
 20
-113.166679
 11
288.316528
 21
-109.966675
  0
LINE
  8
0
  6
DASHED
 62
     1
 10
294.916565
 20
-113.166679
 11
294.916565
 21
-109.966675
  0
LINE
  8
0
  6
CENTER
 62
     1
 10
300.616608
 20
-101.166779
 11
282.616608
 21
-101.166779
  0
LINE
  8
0
  6
CENTER
 62
     1
 10
318.616547
 20
-101.166779
 11
336.616547
 21
-101.166779
  0
LINE
  8
0
  6
DASHED
 62
     1
 10
324.316528
 20
-113.166679
 11
324.316528
 21
-109.966675
  0
LINE
  8
0
  6
CENTER
 62
     1
 10
327.616547
 20
-92.166779
 11
327.616547
 21
-118.166679
  0
LINE
  8
0
  6
DASHED
 62
     1
 10
330.916565
 20
-113.166679
 11
330.916565
 21
-109.966675
  0
LINE
  8
0
 62
     4
 10
190.083344
 20
-223.466644
 11
190.083344
 21
-231.466705
  0
LINE
  8
0
 62
     4
 10
125.083313
 20
-231.466705
 11
190.083344
 21
-231.466705
  0
LINE
  8
0
 62
     4
 10
125.083313
 20
-223.466644
 11
190.083344
 21
-223.466644
  0
LINE
  8
0
 62
     4
 10
125.083313
 20
-223.466644
 11
125.083313
 21
-231.466705
  0
LINE
  8
0
  6
CENTER
 62
     1
 10
135.083313
 20
-218.466644
 11
135.083313
 21
-236.466690
  0
LINE
  8
0
  6
DASHED
 62
     1
 10
131.783325
 20
-223.466644
 11
131.783325
 21
-231.466705
  0
LINE
  8
0
  6
DASHED
 62
     1
 10
138.383301
 20
-223.466644
 11
138.383301
 21
-231.466705
  0
LINE
  8
0
  6
DASHED
 62
     1
 10
176.783386
 20
-223.466644
 11
176.783386
 21
-231.466705
  0
LINE
  8
0
  6
CENTER
 62
     1
 10
180.083344
 20
-218.466644
 11
180.083344
 21
-236.466690
  0
LINE
  8
0
  6
DASHED
 62
     1
 10
183.383362
 20
-223.466644
 11
183.383362
 21
-231.466705
  0
LINE
  8
0
 62
     4
 10
287.583466
 20
-224.466690
 11
287.583466
 21
-227.766693
  0
LINE
  8
0
 62
     4
 10
284.583466
 20
-227.237717
 11
287.583466
 21
-227.766693
  0
LINE
  8
0
 62
     4
 10
271.583466
 20
-224.466690
 11
271.583466
 21
-231.466690
  0
LINE
  8
0
 62
     4
 10
340.583466
 20
-227.237701
 11
340.583466
 21
-231.466690
  0
LINE
  8
0
 62
     4
 10
337.583466
 20
-224.466690
 11
337.583466
 21
-227.766693
  0
LINE
  8
0
 62
     4
 10
340.583466
 20
-227.237717
 11
337.583466
 21
-227.766693
  0
LINE
  8
0
 62
     4
 10
286.583466
 20
-223.466690
 11
272.583466
 21
-223.466690
  0
LINE
  8
0
 62
     4
 10
284.583466
 20
-231.466690
 11
271.583466
 21
-231.466690
  0
LINE
  8
0
 62
     4
 10
284.583466
 20
-227.237701
 11
284.583466
 21
-231.466690
  0
LINE
  8
0
 62
     4
 10
353.583466
 20
-224.466690
 11
353.583466
 21
-231.466690
  0
LINE
  8
0
 62
     4
 10
338.583466
 20
-223.466690
 11
352.583466
 21
-223.466690
  0
LINE
  8
0
 62
     4
 10
340.583466
 20
-231.466690
 11
353.583466
 21
-231.466690
  0
LINE
  8
0
  6
CENTER
 62
     1
 10
277.583466
 20
-218.466690
 11
277.583466
 21
-236.466690
  0
LINE
  8
0
  6
DASHED
 62
     1
 10
274.283447
 20
-223.466690
 11
274.283447
 21
-231.466690
  0
LINE
  8
0
  6
DASHED
 62
     1
 10
280.883484
 20
-223.466690
 11
280.883484
 21
-231.466690
  0
LINE
  8
0
  6
DASHED
 62
     1
 10
344.283447
 20
-223.466690
 11
344.283447
 21
-231.466690
  0
LINE
  8
0
  6
CENTER
 62
     1
 10
347.583466
 20
-218.466690
 11
347.583466
 21
-236.466690
  0
LINE
  8
0
  6
DASHED
 62
     1
 10
350.883484
 20
-223.466690
 11
350.883484
 21
-231.466690
  0
ARC
  8
0
 62
     2
 10
41.310394
 20
40.350006
 40
2.000001
 50
154.849274
 51
205.150620
  0
ARC
  8
0
 62
     2
 10
37.689606
 20
38.649994
 40
1.999999
 50
334.849365
 51
25.150625
  0
CIRCLE
  8
0
 10
70.500000
 20
39.500000
 40
2.000000
  0
CIRCLE
  8
0
 10
60.000000
 20
27.300049
 40
1.500000
  0
ARC
  8
0
 10
-129.500000
 20
39.500000
 40
2.000000
 50
131.409622
 51
48.590370
  0
CIRCLE
  8
0
 10
-140.000000
 20
27.300049
 40
1.500000
  0
CIRCLE
  8
0
 62
     2
 10
-252.000000
 20
38.000000
 40
5.722500
  0
CIRCLE
  8
0
 10
-252.000000
 20
38.000000
 40
6.578500
  0
CIRCLE
  8
0
 10
-241.000000
 20
46.500000
 40
3.300000
  0
ARC
  8
0
 10
-257.700012
 20
49.000000
 40
1.000000
 50
270.000000
 51
0.000000
  0
ARC
  8
0
 10
-257.700012
 20
27.000000
 40
1.000000
 50
0.000000
 51
90.000000
  0
ARC
  8
0
 10
-261.500000
 20
47.000000
 40
1.000000
 50
90.000000
 51
180.000000
  0
ARC
  8
0
 10
-261.500000
 20
29.000000
 40
1.000000
 50
180.000000
 51
270.000000
  0
ARC
  8
0
 10
-255.699997
 20
63.000000
 40
1.000000
 50
90.000000
 51
180.000000
  0
ARC
  8
0
 10
-255.699997
 20
13.000000
 40
1.000015
 50
180.000000
 51
270.000000
  0
ARC
  8
0
 10
-261.000000
 20
62.500000
 40
1.500000
 50
90.000000
 51
180.000000
  0
ARC
  8
0
 10
-261.000000
 20
13.500000
 40
1.500000
 50
179.999969
 51
270.000000
  0
CIRCLE
  8
0
 10
-252.000000
 20
38.000000
 40
10.000000
  0
ARC
  8
0
 10
-253.699997
 20
56.000000
 40
9.000013
 50
161.291779
 51
198.708221
  0
ARC
  8
0
 10
-260.271667
 20
60.330124
 40
2.428316
 50
143.530609
 51
216.469391
  0
ARC
  8
0
 10
-260.271667
 20
51.669876
 40
2.428316
 50
143.530609
 51
216.469330
  0
ARC
  8
0
 10
-260.271667
 20
15.669876
 40
2.428316
 50
143.530609
 51
216.469330
  0
ARC
  8
0
 10
-253.699997
 20
20.000000
 40
8.999988
 50
161.291656
 51
198.708176
  0
ARC
  8
0
 10
-260.271667
 20
24.330124
 40
2.428314
 50
143.530640
 51
216.469360
  0
CIRCLE
  8
0
 62
     2
 10
177.000000
 20
38.000000
 40
5.722500
  0
CIRCLE
  8
0
 10
177.000000
 20
38.000000
 40
6.578500
  0
CIRCLE
  8
0
 10
166.000000
 20
46.500000
 40
3.300000
  0
ARC
  8
0
 10
182.700012
 20
49.000000
 40
1.000000
 50
180.000000
 51
270.000000
  0
ARC
  8
0
 10
182.700012
 20
27.000000
 40
1.000000
 50
90.000000
 51
180.000000
  0
ARC
  8
0
 10
186.500000
 20
47.000000
 40
1.000000
 50
0.000000
 51
90.000000
  0
ARC
  8
0
 10
186.500000
 20
29.000000
 40
1.000000
 50
270.000000
 51
0.000000
  0
ARC
  8
0
 10
180.700012
 20
63.000000
 40
1.000000
 50
0.000000
 51
90.000000
  0
ARC
  8
0
 10
180.700012
 20
13.000000
 40
1.000000
 50
270.000000
 51
0.000000
  0
ARC
  8
0
 10
186.000000
 20
62.500000
 40
1.500000
 50
0.000000
 51
90.000000
  0
ARC
  8
0
 10
186.000000
 20
13.500000
 40
1.500000
 50
270.000000
 51
0.000000
  0
CIRCLE
  8
0
 10
177.000000
 20
38.000000
 40
10.000000
  0
ARC
  8
0
 10
178.700012
 20
56.000000
 40
9.000000
 50
341.291718
 51
18.708237
  0
ARC
  8
0
 10
185.271667
 20
60.330124
 40
2.428316
 50
323.530609
 51
36.469112
  0
ARC
  8
0
 10
185.271667
 20
51.669876
 40
2.428326
 50
323.530884
 51
36.469398
  0
ARC
  8
0
 10
185.271667
 20
15.669876
 40
2.428327
 50
323.530853
 51
36.469398
  0
ARC
  8
0
 10
178.700012
 20
20.000000
 40
8.999997
 50
341.291748
 51
18.708282
  0
ARC
  8
0
 10
185.271667
 20
24.330124
 40
2.428316
 50
323.530609
 51
36.469147
  0
ARC
  8
0
 62
     2
 10
37.689606
 20
138.799957
 40
2.000003
 50
334.849182
 51
36.872040
  0
ARC
  8
0
 10
70.500000
 20
137.066666
 40
2.266666
 50
208.072464
 51
331.927521
  0
CIRCLE
  8
0
 10
-137.499985
 20
187.000000
 40
3.000000
  0
CIRCLE
  8
0
 62
     2
 10
-137.499985
 20
187.000000
 40
2.500000
  0
CIRCLE
  8
0
 62
     2
 10
-182.499985
 20
168.000000
 40
3.000000
  0
CIRCLE
  8
0
 10
-182.499985
 20
168.000000
 40
2.500000
  0
CIRCLE
  8
0
 62
     2
 10
-182.499985
 20
187.000000
 40
3.000000
  0
CIRCLE
  8
0
 10
-182.499985
 20
187.000000
 40
2.500000
  0
CIRCLE
  8
0
 62
     2
 10
-92.499985
 20
187.000000
 40
3.000000
  0
CIRCLE
  8
0
 10
-92.499985
 20
187.000000
 40
2.500000
  0
CIRCLE
  8
0
 62
     2
 10
-92.499985
 20
168.000000
 40
3.000000
  0
CIRCLE
  8
0
 10
-92.499985
 20
168.000000
 40
2.500000
  0
CIRCLE
  8
0
 62
     2
 10
-92.499985
 20
149.000000
 40
3.000000
  0
CIRCLE
  8
0
 10
-92.499985
 20
149.000000
 40
2.500000
  0
CIRCLE
  8
0
 62
     2
 10
-182.499985
 20
149.000000
 40
3.000000
  0
CIRCLE
  8
0
 10
-182.499985
 20
149.000000
 40
2.500000
  0
ARC
  8
0
 10
-261.000000
 20
192.500000
 40
1.500000
 50
90.000000
 51
180.000000
  0
ARC
  8
0
 10
-261.000000
 20
143.500000
 40
1.500000
 50
180.000000
 51
270.000000
  0
ARC
  8
0
 10
-257.700012
 20
179.000000
 40
1.000000
 50
270.000000
 51
0.000000
  0
ARC
  8
0
 10
-257.700012
 20
157.000000
 40
1.000000
 50
0.000000
 51
90.000000
  0
ARC
  8
0
 10
-255.699997
 20
193.000000
 40
1.000000
 50
90.000000
 51
180.000000
  0
ARC
  8
0
 10
-255.699997
 20
143.000000
 40
1.000015
 50
180.000000
 51
270.000000
  0
ARC
  8
0
 10
-261.000000
 20
159.500000
 40
1.500000
 50
180.000000
 51
270.000000
  0
ARC
  8
0
 10
-261.000000
 20
176.500000
 40
1.500000
 50
90.000000
 51
180.000000
  0
CIRCLE
  8
0
 10
-248.500000
 20
168.000000
 40
1.500000
  0
CIRCLE
  8
0
 62
     2
 10
-248.500000
 20
168.000000
 40
1.250000
  0
CIRCLE
  8
0
 10
-254.500000
 20
168.000000
 40
1.500000
  0
CIRCLE
  8
0
 62
     2
 10
-254.500000
 20
168.000000
 40
1.250000
  0
ARC
  8
0
 10
-242.000000
 20
181.500000
 40
1.500000
 50
90.000000
 51
180.000000
  0
ARC
  8
0
 10
-242.000000
 20
154.500000
 40
1.500000
 50
180.000000
 51
270.000000
  0
CIRCLE
  8
0
 10
-239.500000
 20
157.500000
 40
3.000000
  0
CIRCLE
  8
0
 10
-239.500000
 20
178.500000
 40
3.000000
  0
ARC
  8
0
 10
-255.199997
 20
188.500000
 40
7.499993
 50
160.528763
 51
199.471237
  0
ARC
  8
0
 10
-255.199997
 20
183.500000
 40
7.499993
 50
160.528763
 51
199.471130
  0
ARC
  8
0
 10
-255.199997
 20
152.500000
 40
7.499993
 50
160.528763
 51
199.471237
  0
ARC
  8
0
 10
-255.199997
 20
147.500000
 40
7.499993
 50
160.528763
 51
199.471130
  0
ARC
  8
0
 10
180.200012
 20
147.500000
 40
7.500007
 50
340.528809
 51
19.471201
  0
ARC
  8
0
 10
186.000000
 20
192.500000
 40
1.500000
 50
0.000000
 51
90.000000
  0
ARC
  8
0
 10
186.000000
 20
143.500000
 40
1.500000
 50
270.000000
 51
0.000000
  0
ARC
  8
0
 10
182.700012
 20
179.000000
 40
1.000000
 50
180.000000
 51
270.000000
  0
ARC
  8
0
 10
182.700012
 20
157.000000
 40
1.000000
 50
90.000000
 51
180.000000
  0
ARC
  8
0
 10
180.700012
 20
193.000000
 40
1.000000
 50
0.000000
 51
90.000000
  0
ARC
  8
0
 10
180.700012
 20
143.000000
 40
1.000000
 50
270.000000
 51
0.000000
  0
ARC
  8
0
 10
186.000000
 20
159.500000
 40
1.500000
 50
270.000000
 51
0.000000
  0
ARC
  8
0
 10
186.000000
 20
176.500000
 40
1.500000
 50
0.000000
 51
90.000000
  0
CIRCLE
  8
0
 10
173.500000
 20
168.000000
 40
1.500000
  0
CIRCLE
  8
0
 62
     2
 10
173.500000
 20
168.000000
 40
1.250000
  0
CIRCLE
  8
0
 10
179.500000
 20
168.000000
 40
1.500000
  0
CIRCLE
  8
0
 62
     2
 10
179.500000
 20
168.000000
 40
1.250000
  0
ARC
  8
0
 10
167.000000
 20
181.500000
 40
1.500000
 50
0.000000
 51
90.000000
  0
ARC
  8
0
 10
167.000000
 20
154.500000
 40
1.500000
 50
270.000000
 51
0.000000
  0
CIRCLE
  8
0
 10
164.500000
 20
157.500000
 40
3.000000
  0
CIRCLE
  8
0
 10
164.500000
 20
178.500000
 40
3.000000
  0
ARC
  8
0
 10
180.200012
 20
188.500000
 40
7.500007
 50
340.528809
 51
19.471201
  0
ARC
  8
0
 10
180.200012
 20
183.500000
 40
7.500007
 50
340.528809
 51
19.471201
  0
ARC
  8
0
 10
180.200012
 20
152.500000
 40
7.500007
 50
340.528809
 51
19.471201
  0
ARC
  8
0
 10
308.458557
 20
9.000000
 40
3.000006
 50
29.999931
 51
90.000000
  0
ARC
  8
0
 10
322.799988
 20
12.328545
 40
0.299988
 50
180.000000
 51
279.999817
  0
ARC
  8
0
 10
325.200012
 20
12.142471
 40
0.299988
 50
0.000000
 51
99.999817
  0
ARC
  8
0
 10
325.200012
 20
8.299999
 40
0.300000
 50
270.000000
 51
0.000000
  0
ARC
  8
0
 10
323.049988
 20
17.599998
 40
0.850006
 50
0.000000
 51
70.173439
  0
ARC
  8
0
 10
324.700012
 20
17.599998
 40
0.799988
 50
180.000000
 51
0.000000
  0
ARC
  8
0
 10
323.200012
 20
14.514141
 40
1.000000
 50
180.000000
 51
225.572464
  0
ARC
  8
0
 10
324.700012
 20
27.500000
 40
0.799988
 50
0.000000
 51
180.000000
  0
ARC
  8
0
 10
286.541443
 20
9.000000
 40
3.000000
 50
90.000000
 51
150.000031
  0
ARC
  8
0
 10
269.799988
 20
8.299999
 40
0.299988
 50
180.000000
 51
270.000000
  0
ARC
  8
0
 10
269.799988
 20
12.142471
 40
0.300000
 50
80.000183
 51
180.000000
  0
ARC
  8
0
 10
272.200012
 20
12.328545
 40
0.300000
 50
260.000183
 51
0.000000
  0
ARC
  8
0
 10
271.799988
 20
14.514141
 40
1.000008
 50
314.427551
 51
0.000000
  0
ARC
  8
0
 10
271.950012
 20
17.599998
 40
0.850003
 50
109.826599
 51
180.000000
  0
ARC
  8
0
 10
270.299988
 20
17.599998
 40
0.799988
 50
180.000000
 51
0.000000
  0
ARC
  8
0
 10
270.299988
 20
27.500000
 40
0.799988
 50
0.000000
 51
180.000000
  0
ARC
  8
0
 10
271.324860
 20
56.807682
 40
0.200009
 50
49.997288
 51
139.997696
  0
ARC
  8
0
 10
289.000000
 20
13.500000
 40
1.500000
 50
179.999969
 51
270.000000
  0
ARC
  8
0
 10
306.000000
 20
13.500000
 40
1.500000
 50
270.000000
 51
0.000000
  0
CIRCLE
  8
0
 10
315.500000
 20
20.000000
 40
2.500000
  0
CIRCLE
  8
0
 62
     2
 10
315.500000
 20
20.000000
 40
3.000000
  0
ARC
  8
0
 10
279.500000
 20
56.000000
 40
8.000000
 50
90.000000
 51
179.999969
  0
ARC
  8
0
 10
315.500000
 20
56.000000
 40
8.000000
 50
0.000000
 51
90.000000
  0
ARC
  8
0
 10
279.500000
 20
20.000000
 40
8.000000
 50
179.999985
 51
270.000000
  0
ARC
  8
0
 10
315.500000
 20
20.000000
 40
8.000000
 50
270.000000
 51
0.000000
  0
ARC
  8
0
 10
279.500000
 20
56.000000
 40
8.000000
 50
270.000000
 51
0.000000
  0
ARC
  8
0
 10
315.500000
 20
56.000000
 40
8.000000
 50
179.999969
 51
270.000000
  0
ARC
  8
0
 10
315.500000
 20
20.000000
 40
8.000000
 50
90.000000
 51
179.999954
  0
ARC
  8
0
 10
279.500000
 20
20.000000
 40
8.000000
 50
0.000000
 51
90.000000
  0
ARC
  8
0
 10
273.000000
 20
46.500000
 40
1.500000
 50
90.000000
 51
180.000000
  0
ARC
  8
0
 10
273.000000
 20
29.500000
 40
1.500000
 50
180.000000
 51
270.000000
  0
ARC
  8
0
 10
289.000000
 20
62.500000
 40
1.500000
 50
90.000000
 51
180.000000
  0
ARC
  8
0
 10
306.000000
 20
62.500000
 40
1.500000
 50
0.000000
 51
90.000000
  0
ARC
  8
0
 10
322.000000
 20
46.500000
 40
1.500000
 50
0.000000
 51
90.000000
  0
ARC
  8
0
 10
322.000000
 20
29.500000
 40
1.500000
 50
270.000000
 51
0.000000
  0
CIRCLE
  8
0
 10
279.500000
 20
56.000000
 40
7.000000
  0
CIRCLE
  8
0
 10
315.500000
 20
56.000000
 40
7.000000
  0
CIRCLE
  8
0
 10
315.500000
 20
20.000000
 40
7.000000
  0
CIRCLE
  8
0
 10
279.500000
 20
20.000000
 40
7.000000
  0
CIRCLE
  8
0
 62
     2
 10
279.500000
 20
20.000000
 40
3.000000
  0
CIRCLE
  8
0
 10
279.500000
 20
20.000000
 40
2.500000
  0
CIRCLE
  8
0
 10
279.500000
 20
56.000000
 40
2.500000
  0
CIRCLE
  8
0
 62
     2
 10
279.500000
 20
56.000000
 40
3.000000
  0
CIRCLE
  8
0
 10
315.500000
 20
56.000000
 40
2.500000
  0
CIRCLE
  8
0
 62
     2
 10
315.500000
 20
56.000000
 40
3.000000
  0
CIRCLE
  8
0
 10
279.500000
 20
56.000000
 40
5.000000
  0
CIRCLE
  8
0
 10
315.500000
 20
56.000000
 40
5.000000
  0
CIRCLE
  8
0
 10
315.500000
 20
20.000000
 40
5.000000
  0
CIRCLE
  8
0
 10
279.500000
 20
20.000000
 40
5.000000
  0
CIRCLE
  8
0
 10
286.500000
 20
38.000000
 40
5.722500
  0
CIRCLE
  8
0
 62
     2
 10
286.500000
 20
38.000000
 40
6.573500
  0
CIRCLE
  8
0
 62
     2
 10
308.500000
 20
38.000000
 40
6.573500
  0
CIRCLE
  8
0
 10
308.500000
 20
38.000000
 40
5.722500
  0
ARC
  8
0
 10
258.500000
 20
84.500000
 40
1.000000
 50
90.000000
 51
180.000000
  0
ARC
  8
0
 10
336.500000
 20
84.500000
 40
1.000000
 50
0.000000
 51
90.000000
  0
ARC
  8
0
 10
270.299988
 20
29.000004
 40
0.799998
 50
40.679810
 51
119.999649
  0
ARC
  8
0
 10
266.566650
 20
39.000000
 40
2.266673
 50
118.072807
 51
241.927200
  0
ARC
  8
0
 10
264.500000
 20
38.500008
 40
2.000000
 50
80.159943
 51
180.000000
  0
ARC
  8
0
 10
267.000000
 20
25.300007
 40
1.000000
 50
270.000000
 51
0.000000
  0
ARC
  8
0
 10
271.100006
 20
33.800007
 40
1.699990
 50
139.880600
 51
250.145981
  0
ARC
  8
0
 10
269.401886
 20
29.097187
 40
3.300005
 50
50.521317
 51
70.146065
  0
ARC
  8
0
 10
352.496368
 20
37.703072
 40
90.000000
 50
179.481125
 51
188.010788
  0
ARC
  8
0
 10
264.364868
 20
25.300007
 40
0.999992
 50
188.010788
 51
270.000000
  0
ARC
  8
0
 10
324.700012
 20
27.500004
 40
0.799996
 50
60.000351
 51
191.075348
  0
CIRCLE
  8
0
 62
     4
 10
-340.333282
 20
-67.000008
 40
5.000000
  0
CIRCLE
  8
0
 62
     4
 10
-326.833466
 20
-131.000000
 40
5.000000
  0
CIRCLE
  8
0
 62
     4
 10
-326.833527
 20
-66.999992
 40
5.000000
  0
CIRCLE
  8
0
 62
     4
 10
-340.333221
 20
-131.000000
 40
5.000000
  0
CIRCLE
  8
0
 62
     4
 10
-333.583405
 20
-78.000000
 40
5.000000
  0
ARC
  8
0
 62
     4
 10
-185.451248
 20
-203.021439
 40
7.027233
 50
245.788223
 51
257.966949
  0
ARC
  8
0
 62
     4
 10
-187.333191
 20
-211.850327
 40
2.000002
 50
42.460850
 51
77.967094
  0
ARC
  8
0
 62
     4
 10
-243.215225
 20
-203.021637
 40
7.027246
 50
282.033295
 51
294.212555
  0
ARC
  8
0
 62
     4
 10
-241.333191
 20
-211.850525
 40
2.000002
 50
102.033333
 51
137.533264
  0
ARC
  8
0
 62
     4
 10
-177.833176
 20
-207.500153
 40
3.000000
 50
270.000000
 51
0.000000
  0
ARC
  8
0
 62
     4
 10
-250.833176
 20
-207.500198
 40
3.000000
 50
180.000000
 51
270.000000
  0
ARC
  8
0
 62
     4
 10
-188.833206
 20
-179.000168
 40
1.000000
 50
0.000000
 51
90.000000
  0
ARC
  8
0
 62
     4
 10
-176.833191
 20
-186.500153
 40
2.000000
 50
0.000000
 51
90.000000
  0
ARC
  8
0
 62
     4
 10
-179.333191
 20
-195.500153
 40
1.000000
 50
0.000000
 51
90.000000
  0
ARC
  8
0
 62
     4
 10
-249.333191
 20
-195.500198
 40
1.000000
 50
90.000000
 51
180.000000
  0
ARC
  8
0
 62
     4
 10
-251.833191
 20
-186.500198
 40
2.000000
 50
90.000000
 51
180.000000
  0
ARC
  8
0
 62
     4
 10
-239.833206
 20
-179.000183
 40
1.000000
 50
90.000000
 51
180.000000
  0
ARC
  8
0
 62
     4
 10
-200.333206
 20
-176.065811
 40
1.500000
 50
0.000000
 51
65.297401
  0
ARC
  8
0
 62
     4
 10
-228.333206
 20
-176.065826
 40
1.499998
 50
114.702599
 51
180.000000
  0
ARC
  8
0
 62
     4
 10
-214.333176
 20
-206.500183
 40
35.000000
 50
65.297272
 51
114.702751
  0
CIRCLE
  8
0
 62
     4
 10
-214.333298
 20
-183.000214
 40
7.900000
  0
CIRCLE
  8
0
 62
     1
 10
-214.333298
 20
-183.000214
 40
9.000000
  0
CIRCLE
  8
0
 62
     4
 10
-83.583420
 20
-78.000000
 40
5.000000
  0
CIRCLE
  8
0
 62
     4
 10
-90.333199
 20
-131.000000
 40
5.000000
  0
CIRCLE
  8
0
 62
     4
 10
-76.833549
 20
-66.999992
 40
5.000000
  0
CIRCLE
  8
0
 62
     4
 10
-76.833443
 20
-131.000000
 40
5.000000
  0
CIRCLE
  8
0
 62
     4
 10
-90.333305
 20
-67.000008
 40
5.000000
  0
CIRCLE
  8
0
 62
     1
 10
35.666801
 20
-183.000137
 40
8.188000
  0
CIRCLE
  8
0
 62
     4
 10
35.666679
 20
-183.000137
 40
9.000000
  0
ARC
  8
0
 62
     4
 10
35.666817
 20
-206.500107
 40
35.000000
 50
65.297272
 51
114.702751
  0
ARC
  8
0
 62
     4
 10
21.666769
 20
-176.065765
 40
1.499999
 50
114.702667
 51
180.000000
  0
ARC
  8
0
 62
     4
 10
49.666767
 20
-176.065720
 40
1.500000
 50
0.000000
 51
65.297401
  0
ARC
  8
0
 62
     4
 10
10.166770
 20
-179.000122
 40
1.000000
 50
90.000000
 51
180.000000
  0
ARC
  8
0
 62
     4
 10
-1.833210
 20
-186.500137
 40
2.000000
 50
89.999985
 51
180.000000
  0
ARC
  8
0
 62
     4
 10
0.666795
 20
-195.500137
 40
1.000000
 50
89.999985
 51
180.000000
  0
ARC
  8
0
 62
     4
 10
70.666794
 20
-195.500061
 40
1.000000
 50
0.000000
 51
90.000000
  0
ARC
  8
0
 62
     4
 10
73.166786
 20
-186.500061
 40
2.000000
 50
0.000000
 51
90.000000
  0
ARC
  8
0
 62
     4
 10
61.166771
 20
-179.000076
 40
1.000000
 50
0.000000
 51
90.000000
  0
ARC
  8
0
 62
     4
 10
-0.833182
 20
-207.500137
 40
3.000000
 50
180.000000
 51
270.000031
  0
ARC
  8
0
 62
     4
 10
72.166817
 20
-207.500061
 40
3.000000
 50
270.000000
 51
0.000000
  0
ARC
  8
0
 62
     4
 10
8.666805
 20
-211.850464
 40
2.000001
 50
102.033249
 51
137.533218
  0
ARC
  8
0
 62
     4
 10
6.784765
 20
-203.021576
 40
7.027245
 50
282.033264
 51
294.212555
  0
ARC
  8
0
 62
     4
 10
62.666805
 20
-211.850235
 40
1.999999
 50
42.460922
 51
77.966667
  0
ARC
  8
0
 62
     4
 10
64.548744
 20
-203.021347
 40
7.027233
 50
245.788223
 51
257.966736
  0
ARC
  8
0
 62
     4
 10
203.816696
 20
-106.966644
 40
3.000000
 50
180.000000
 51
270.000000
  0
ARC
  8
0
 62
     4
 10
203.816696
 20
-106.966644
 40
6.199997
 50
180.000000
 51
270.000000
  0
ARC
  8
0
 62
     4
 10
309.616577
 20
-89.666679
 40
12.500000
 50
196.260208
 51
343.739807
  0
CIRCLE
  8
0
 62
     4
 10
327.616547
 20
-101.166779
 40
5.000000
  0
CIRCLE
  8
0
 62
     4
 10
291.616608
 20
-101.166779
 40
5.000000
  0
ARC
  8
0
 62
     4
 10
286.583466
 20
-224.466690
 40
1.000000
 50
0.000000
 51
90.000000
  0
ARC
  8
0
 62
     4
 10
272.583466
 20
-224.466690
 40
1.000000
 50
90.000000
 51
180.000000
  0
ARC
  8
0
 62
     4
 10
338.583466
 20
-224.466690
 40
1.000000
 50
90.000000
 51
180.000000
  0
ARC
  8
0
 62
     4
 10
352.583466
 20
-224.466690
 40
1.000000
 50
0.000000
 51
90.000000
  0
TEXT
  8
0
 10
-365.285309
 20
256.649994
 40
9.000000
  1
ORK SERIES
 50
0.000000
 41
1.052632
 51
0.000000
  7
STANDARD
  0
TEXT
  8
0
 10
242.014816
 20
-274.500000
 40
12.500000
  1
KOGANEI CORP.
 50
0.000000
 41
1.052632
 51
0.000000
  7
STANDARD
  0
TEXT
  8
0
 10
251.264664
 20
256.649994
 40
9.000000
  1
DATE: Apr ,1994
 50
0.000000
 41
1.052632
 51
0.000000
  7
STANDARD
  0
TEXT
  8
0
 10
-384.785309
 20
224.149994
 40
9.000000
  1
MODEL:ORK 32X200
 50
0.000000
 41
1.052632
 51
0.000000
  7
STANDARD
  0
TEXT
  8
0
 10
-326.618439
 20
-33.049999
 40
7.000000
  1
S-ABSORBER(-K)
 50
0.000000
 41
1.052632
 51
0.000000
  7
STANDARD
  0
TEXT
  8
0
 10
-65.355942
 20
-33.049999
 40
7.000000
  1
A-BOLT(-S)
 50
0.000000
 41
1.052632
 51
0.000000
  7
STANDARD
  0
TEXT
  8
0
 10
201.287811
 20
-33.049999
 40
7.000000
  1
L-SUPPORT(-L)
 50
0.000000
 41
1.052632
 51
0.000000
  7
STANDARD
  0
TEXT
  8
0
 10
201.287811
 20
-151.300003
 40
7.000000
  1
F-SUPPORT(-F)
 50
0.000000
 41
1.052632
 51
0.000000
  7
STANDARD
  0
ENDSEC
  0
EOF
