  0
SECTION
  2
HEADER
  0
ENDSEC
  0
SECTION
  2
TABLES
  0
TABLE
  2
LTYPE
 70
     4
  0
LTYPE
  2
CONTINUOUS
 70
    64
  3
Solid line
 72
    65
 73
     0
 40
0.000000
  0
LTYPE
  2
DASHED
 70
    64
  3
__ __ __ __ __ __ __ __ __ __ __ __ __ __ __
 72
    65
 73
     2
 40
3.500000
 49
2.000000
 49
-1.500000
  0
LTYPE
  2
CENTER
 70
    64
  3
____ _ ____ _ ____ _ ____ _ ____ _ ____ _ ____
 72
    65
 73
     4
 40
17.500000
 49
13.000000
 49
-1.500000
 49
1.500000
 49
-1.500000
  0
LTYPE
  2
PHANTOM
 70
    64
  3
_____ _ _ _____ _ _ _____ _ _ _____ _ _ ____  
 72
    65
 73
     6
 40
15.500000
 49
8.000000
 49
-1.500000
 49
1.500000
 49
-1.500000
 49
1.500000
 49
-1.500000
  0
LTYPE
  2
DASHED1
 70
    64
  3
__ __ __ __ __ __ __ __ __ __ __ __ __ __ __
 72
    65
 73
     2
 40
1.500000
 49
1.000000
 49
-0.500000
  0
LTYPE
  2
DASHED2
 70
    64
  3
__ __ __ __ __ __ __ __ __ __ __ __ __ __ __
 72
    65
 73
     2
 40
3.500000
 49
2.500000
 49
-1.000000
  0
LTYPE
  2
DASHED3
 70
    64
  3
__ __ __ __ __ __ __ __ __ __ __ __ __ __ __
 72
    65
 73
     2
 40
6.000000
 49
4.000000
 49
-2.000000
  0
LTYPE
  2
DASHED4
 70
    64
  3
__ __ __ __ __ __ __ __ __ __ __ __ __ __ __
 72
    65
 73
     2
 40
12.000000
 49
10.000000
 49
-2.000000
  0
LTYPE
  2
DASHED5
 70
    64
  3
__ __ __ __ __ __ __ __ __ __ __ __ __ __ __
 72
    65
 73
     2
 40
17.000000
 49
15.000000
 49
-2.000000
  0
LTYPE
  2
DASHED6
 70
    64
  3
__ __ __ __ __ __ __ __ __ __ __ __ __ __ __
 72
    65
 73
     2
 40
29.000000
 49
27.000000
 49
-2.000000
  0
LTYPE
  2
PHANTOM1
 70
    64
  3
_____ _ _ _____ _ _ _____ _ _ _____ _ _ ____  
 72
    65
 73
     6
 40
31.000000
 49
25.000000
 49
-1.500000
 49
1.000000
 49
-1.000000
 49
1.000000
 49
-1.500000
  0
LTYPE
  2
PHANTOM2
 70
    64
  3
_____ _ _ _____ _ _ _____ _ _ _____ _ _ ____  
 72
    65
 73
     6
 40
36.000000
 49
27.000000
 49
-1.500000
 49
2.500000
 49
-1.000000
 49
2.500000
 49
-1.500000
  0
LTYPE
  2
PHANTOM3
 70
    64
  3
_____ _ _ _____ _ _ _____ _ _ _____ _ _ ____  
 72
    65
 73
     6
 40
78.000000
 49
64.000000
 49
-2.000000
 49
4.000000
 49
-2.000000
 49
4.000000
 49
-2.000000
  0
LTYPE
  2
CENTER1
 70
    64
  3
____ _ ____ _ ____ _ ____ _ ____ _ ____ _ ____
 72
    65
 73
     4
 40
19.000000
 49
14.000000
 49
-1.000000
 49
3.000000
 49
-1.000000
  0
LTYPE
  2
CENTER2
 70
    64
  3
____ _ ____ _ ____ _ ____ _ ____ _ ____ _ ____
 72
    65
 73
     4
 40
28.500000
 49
25.000000
 49
-1.000000
 49
1.500000
 49
-1.000000
  0
LTYPE
  2
CENTER3
 70
    64
  3
____ _ ____ _ ____ _ ____ _ ____ _ ____ _ ____
 72
    65
 73
     4
 40
31.500000
 49
27.000000
 49
-1.000000
 49
2.500000
 49
-1.000000
  0
LTYPE
  2
CENTER4
 70
    64
  3
____ _ ____ _ ____ _ ____ _ ____ _ ____ _ ____
 72
    65
 73
     4
 40
50.000000
 49
45.000000
 49
-1.000000
 49
3.000000
 49
-1.000000
  0
LTYPE
  2
CENTER5
 70
    64
  3
____ _ ____ _ ____ _ ____ _ ____ _ ____ _ ____
 72
    65
 73
     4
 40
100.000000
 49
92.000000
 49
-2.000000
 49
4.000000
 49
-2.000000
  0
LTYPE
  2
SBK1
 70
    64
  3
______ _ _ _ ______ _ _ _ ______ _ _ _ _____  
 72
    65
 73
     8
 40
60.500000
 49
45.000000
 49
-2.000000
 49
2.500000
 49
-2.000000
 49
2.500000
 49
-2.000000
 49
2.500000
 49
-2.000000
  0
LTYPE
  2
SBK2
 70
    64
  3
______ _ _ _ ______ _ _ _ ______ _ _ _ _____  
 72
    65
 73
     8
 40
84.000000
 49
64.000000
 49
-2.000000
 49
4.000000
 49
-2.000000
 49
4.000000
 49
-2.000000
 49
4.000000
 49
-2.000000
  0
LTYPE
  2
STCH
 70
    64
  3
__ __ __ __ __ __ __ __ __ __ __ __ __ __ __
 72
    65
 73
     2
 40
3.000000
 49
1.000000
 49
-2.000000
  0
LTYPE
  2
MTCH
 70
    64
  3
_____ _ _ _____ _ _ _____ _ _ _____ _ _ ____  
 72
    65
 73
     6
 40
80.000000
 49
66.000000
 49
-2.000000
 49
4.000000
 49
-2.000000
 49
4.000000
 49
-2.000000
  0
ENDTAB
  0
TABLE
  2
LAYER
 70
     1
  0
LAYER
  2
0
 70
     0
 62
     7
  6
CONTINUOUS
  0
ENDTAB
  0
TABLE
  2
STYLE
 70
     1
  0
STYLE
  2
STANDARD
 70
     0
 40
0.000000
 41
1.000000
 50
0.000000
 71
     0
 42
0.200000
  3
txt
  4
BIGFONT
  0
ENDTAB
  0
TABLE
  2
VIEW
 70
     0
  0
ENDTAB
  0
ENDSEC
  0
SECTION
  2
BLOCKS
  0
ENDSEC
  0
SECTION
  2
ENTITIES
  0
LINE
  8
0
 10
-399.250000
 20
-20.250000
 11
399.799988
 21
-20.250000
  0
LINE
  8
0
 10
107.274994
 20
-20.250000
 11
107.274994
 21
-276.750000
  0
LINE
  8
0
 10
-136.487503
 20
-20.250000
 11
-136.487503
 21
-276.750000
  0
LINE
  8
0
  6
CENTER
 62
     2
 10
-270.118927
 20
-225.496292
 11
-359.735535
 21
-225.496292
  0
LINE
  8
0
  6
CENTER
 62
     2
 10
-226.118927
 20
-225.496292
 11
-156.118927
 21
-225.496292
  0
LINE
  8
0
  6
CENTER
 62
     2
 10
-191.118927
 20
-211.041824
 11
-191.118927
 21
-262.496277
  0
LINE
  8
0
  6
CENTER
 62
     2
 10
-5.118927
 20
-225.496292
 11
-85.478546
 21
-225.496292
  0
LINE
  8
0
  6
CENTER
 62
     2
 10
49.881073
 20
-162.496292
 11
49.881073
 21
-262.496277
  0
LINE
  8
0
  6
CENTER
 62
     2
 10
14.881073
 20
-225.496292
 11
84.881073
 21
-225.496292
  0
LINE
  8
0
 10
107.274994
 20
-138.500000
 11
399.799988
 21
-138.500000
  0
LINE
  8
0
  6
PHANTOM
 62
     2
 10
205.085098
 20
-60.861237
 11
205.085098
 21
-97.868347
  0
LINE
  8
0
  6
CENTER
 62
     2
 10
177.368652
 20
-88.861237
 11
238.969604
 21
-88.861237
  0
LINE
  8
0
  6
CENTER
 62
     2
 10
310.085083
 20
-71.101257
 11
310.085083
 21
-125.861237
  0
LINE
  8
0
  6
CENTER
 62
     2
 10
116.275269
 20
-203.932465
 11
231.608582
 21
-203.932465
  0
LINE
  8
0
  6
CENTER
 62
     2
 10
281.573242
 20
-203.932465
 11
351.573242
 21
-203.932465
  0
LINE
  8
0
  6
CENTER
 62
     2
 10
274.903503
 20
-88.861237
 11
345.085083
 21
-88.861237
  0
LINE
  8
0
  6
CENTER
 62
     2
 10
163.573227
 20
-182.202988
 11
163.573227
 21
-239.770538
  0
LINE
  8
0
  6
CENTER
 62
     2
 10
316.573242
 20
-178.169586
 11
316.573242
 21
-236.038879
  0
LINE
  8
0
 10
-399.250000
 20
-33.250000
 11
399.799988
 21
-33.250000
  0
LINE
  8
0
 10
107.274994
 20
-151.500000
 11
399.799988
 21
-151.500000
  0
LINE
  8
0
 10
399.799988
 20
276.250000
 11
399.799988
 21
-276.750000
  0
LINE
  8
0
 10
-399.250000
 20
276.250000
 11
-399.250000
 21
-276.750000
  0
LINE
  8
0
 10
-399.250000
 20
276.250000
 11
399.799988
 21
276.250000
  0
LINE
  8
0
 10
-399.250000
 20
-276.750000
 11
399.799988
 21
-276.750000
  0
LINE
  8
0
 10
239.799988
 20
-251.750000
 11
399.799988
 21
-251.750000
  0
LINE
  8
0
 10
239.799988
 20
251.250000
 11
399.799988
 21
251.250000
  0
LINE
  8
0
 10
-399.250000
 20
251.250000
 11
-239.250000
 21
251.250000
  0
LINE
  8
0
 10
239.799988
 20
-251.750000
 11
239.799988
 21
-276.750000
  0
LINE
  8
0
 10
239.799988
 20
251.250000
 11
239.799988
 21
276.250000
  0
LINE
  8
0
 10
-239.250000
 20
276.250000
 11
-239.250000
 21
251.250000
  0
LINE
  8
0
 10
85.499939
 20
38.999962
 11
85.499939
 21
32.000053
  0
LINE
  8
0
 10
79.499939
 20
32.000053
 11
85.499939
 21
32.000053
  0
LINE
  8
0
 10
51.499939
 20
33.800011
 11
61.499939
 21
33.800011
  0
LINE
  8
0
 10
61.499939
 20
38.999962
 11
61.499939
 21
33.000008
  0
LINE
  8
0
 10
64.499939
 20
37.000053
 11
79.499939
 21
37.000053
  0
LINE
  8
0
 10
64.499939
 20
20.800056
 11
79.499939
 21
20.800056
  0
LINE
  8
0
 10
64.499939
 20
37.000053
 11
64.499939
 21
20.800056
  0
LINE
  8
0
 10
61.499939
 20
33.000008
 11
63.499939
 21
33.000008
  0
LINE
  8
0
 10
71.249947
 20
22.867058
 11
71.999954
 21
22.434044
  0
LINE
  8
0
 10
71.999939
 20
22.433985
 11
72.749947
 21
22.866999
  0
LINE
  8
0
 10
72.749939
 20
22.867043
 11
72.749939
 21
23.733070
  0
LINE
  8
0
 10
72.749954
 20
23.733082
 11
71.999977
 21
24.166080
  0
LINE
  8
0
 10
72.000031
 20
24.165966
 11
71.250031
 21
23.732954
  0
LINE
  8
0
 10
71.249939
 20
23.733070
 11
71.249939
 21
22.867043
  0
LINE
  8
0
 10
63.499939
 20
32.000053
 11
64.499939
 21
32.000053
  0
LINE
  8
0
 10
51.499939
 20
37.200005
 11
61.499939
 21
37.200005
  0
LINE
  8
0
 10
79.499939
 20
39.000008
 11
79.499939
 21
20.800056
  0
LINE
  8
0
 10
69.499939
 20
39.000008
 11
69.499939
 21
37.000053
  0
LINE
  8
0
 10
63.499939
 20
39.000008
 11
63.499939
 21
32.000053
  0
LINE
  8
0
 10
194.499939
 20
65.000008
 11
194.499939
 21
3.000008
  0
LINE
  8
0
 10
-345.500061
 20
3.000008
 11
194.499939
 21
3.000008
  0
LINE
  8
0
 10
-345.500061
 20
9.200020
 11
194.499939
 21
9.200020
  0
LINE
  8
0
 10
-345.500061
 20
14.000008
 11
194.499939
 21
14.000008
  0
LINE
  8
0
 10
-345.500061
 20
24.299995
 11
-235.500061
 21
24.299995
  0
LINE
  8
0
 10
-345.500061
 20
28.299995
 11
-235.500061
 21
28.299995
  0
LINE
  8
0
 10
-345.500061
 20
37.000008
 11
-248.581100
 21
37.000008
  0
LINE
  8
0
 10
-345.500061
 20
39.000008
 11
-310.500061
 21
39.000008
  0
LINE
  8
0
 10
-345.500061
 20
49.869850
 11
-310.500061
 21
49.869850
  0
LINE
  8
0
 10
-345.500061
 20
54.497932
 11
-310.500061
 21
54.497932
  0
LINE
  8
0
 10
-345.500061
 20
63.000008
 11
-310.500061
 21
63.000008
  0
LINE
  8
0
 10
-345.500061
 20
65.000008
 11
-345.500061
 21
3.000008
  0
LINE
  8
0
 10
224.499939
 20
63.000008
 11
224.499939
 21
61.327232
  0
LINE
  8
0
 10
222.499939
 20
65.000008
 11
194.499939
 21
65.000008
  0
LINE
  8
0
 10
222.499939
 20
5.000008
 11
194.499939
 21
5.000008
  0
LINE
  8
0
 10
218.699951
 20
63.000008
 11
218.699951
 21
48.000008
  0
LINE
  8
0
 10
222.499939
 20
23.000008
 11
219.699951
 21
23.000008
  0
LINE
  8
0
 10
222.499939
 20
47.000008
 11
219.699951
 21
47.000008
  0
LINE
  8
0
 10
218.699951
 20
22.000008
 11
218.699951
 21
7.000008
  0
LINE
  8
0
 10
212.500031
 20
31.536016
 11
209.500076
 21
33.268044
  0
LINE
  8
0
 10
215.500092
 20
36.732143
 11
212.500092
 21
38.464195
  0
LINE
  8
0
 10
215.499939
 20
36.732063
 11
215.499939
 21
33.267952
  0
LINE
  8
0
 10
209.499939
 20
36.732063
 11
209.499939
 21
33.267952
  0
LINE
  8
0
 10
212.500092
 20
38.463936
 11
209.500076
 21
36.731880
  0
LINE
  8
0
 10
215.500122
 20
33.267731
 11
212.500107
 21
31.535675
  0
LINE
  8
0
 10
219.991821
 20
21.000008
 11
218.699951
 21
21.000008
  0
LINE
  8
0
 10
219.991821
 20
7.000008
 11
218.699951
 21
7.000008
  0
LINE
  8
0
 10
220.699951
 20
19.773521
 11
220.699951
 21
8.226509
  0
LINE
  8
0
 10
224.242249
 20
19.773506
 11
220.699951
 21
19.773506
  0
LINE
  8
0
 10
224.224426
 20
16.886757
 11
220.699951
 21
16.886757
  0
LINE
  8
0
 10
224.224426
 20
11.113258
 11
220.699951
 21
11.113258
  0
LINE
  8
0
 10
224.242249
 20
8.226509
 11
220.699951
 21
8.226509
  0
LINE
  8
0
 10
224.699951
 20
18.980812
 11
224.699951
 21
9.019203
  0
LINE
  8
0
 10
220.699753
 20
19.773354
 11
219.991608
 21
20.999863
  0
LINE
  8
0
 10
220.700104
 20
8.226415
 11
219.991974
 21
6.999901
  0
LINE
  8
0
 10
224.499939
 20
50.672768
 11
224.499939
 21
19.327248
  0
LINE
  8
0
 10
219.991821
 20
7.000008
 11
219.991821
 21
21.000008
  0
LINE
  8
0
 10
224.242249
 20
61.773514
 11
220.699951
 21
61.773514
  0
LINE
  8
0
 10
224.699951
 20
60.980804
 11
224.699951
 21
51.019203
  0
LINE
  8
0
 10
224.224426
 20
58.886765
 11
220.699951
 21
58.886765
  0
LINE
  8
0
 10
224.224426
 20
53.113258
 11
220.699951
 21
53.113258
  0
LINE
  8
0
 10
224.242249
 20
50.226509
 11
220.699951
 21
50.226509
  0
LINE
  8
0
 10
220.699799
 20
50.226574
 11
219.991669
 21
49.000057
  0
LINE
  8
0
 10
220.699951
 20
61.773521
 11
220.699951
 21
50.226509
  0
LINE
  8
0
 10
219.991821
 20
49.000008
 11
219.991821
 21
63.000008
  0
LINE
  8
0
 10
219.991821
 20
49.000008
 11
218.699951
 21
49.000008
  0
LINE
  8
0
 10
219.991821
 20
63.000008
 11
218.699951
 21
63.000008
  0
LINE
  8
0
 10
220.699722
 20
61.773399
 11
219.991577
 21
62.999908
  0
LINE
  8
0
 10
224.499939
 20
8.672768
 11
224.499939
 21
7.000008
  0
LINE
  8
0
 10
202.984695
 20
46.636559
 11
199.709030
 21
40.962902
  0
LINE
  8
0
 10
202.291809
 20
47.036598
 11
199.016144
 21
41.362938
  0
LINE
  8
0
  6
CENTER
 62
     2
 10
-380.500061
 20
35.000008
 11
229.288452
 21
35.000008
  0
LINE
  8
0
 10
224.242325
 20
61.773502
 11
224.699997
 21
60.980793
  0
LINE
  8
0
 10
224.242279
 20
50.226528
 11
224.699951
 21
51.019238
  0
LINE
  8
0
 10
224.242264
 20
8.226461
 11
224.699936
 21
9.019173
  0
LINE
  8
0
 10
224.242172
 20
19.773468
 11
224.699844
 21
18.980757
  0
LINE
  8
0
 10
-375.500061
 20
63.000008
 11
-375.500061
 21
61.327232
  0
LINE
  8
0
 10
-373.500061
 20
65.000008
 11
-345.500061
 21
65.000008
  0
LINE
  8
0
 10
-373.500061
 20
5.000008
 11
-345.500061
 21
5.000008
  0
LINE
  8
0
 10
-369.700073
 20
63.000008
 11
-369.700073
 21
48.000008
  0
LINE
  8
0
 10
-373.500061
 20
23.000008
 11
-370.700073
 21
23.000008
  0
LINE
  8
0
 10
-373.500061
 20
47.000008
 11
-370.700073
 21
47.000008
  0
LINE
  8
0
 10
-369.700073
 20
22.000008
 11
-369.700073
 21
7.000008
  0
LINE
  8
0
 10
-363.500092
 20
31.536072
 11
-360.500122
 21
33.268089
  0
LINE
  8
0
 10
-366.500183
 20
36.732185
 11
-363.500183
 21
38.464233
  0
LINE
  8
0
 10
-366.500061
 20
36.732063
 11
-366.500061
 21
33.267952
  0
LINE
  8
0
 10
-360.500061
 20
36.732063
 11
-360.500061
 21
33.267952
  0
LINE
  8
0
 10
-363.500183
 20
38.463928
 11
-360.500183
 21
36.731880
  0
LINE
  8
0
 10
-366.500183
 20
33.267754
 11
-363.500183
 21
31.535692
  0
LINE
  8
0
 10
-370.991943
 20
21.000008
 11
-369.700073
 21
21.000008
  0
LINE
  8
0
 10
-370.991943
 20
7.000008
 11
-369.700073
 21
7.000008
  0
LINE
  8
0
 10
-371.700073
 20
19.773521
 11
-371.700073
 21
8.226509
  0
LINE
  8
0
 10
-375.242371
 20
19.773506
 11
-371.700073
 21
19.773506
  0
LINE
  8
0
 10
-375.224548
 20
16.886757
 11
-371.700073
 21
16.886757
  0
LINE
  8
0
 10
-375.224548
 20
11.113258
 11
-371.700073
 21
11.113258
  0
LINE
  8
0
 10
-375.242371
 20
8.226509
 11
-371.700073
 21
8.226509
  0
LINE
  8
0
 10
-375.700073
 20
18.980812
 11
-375.700073
 21
9.019203
  0
LINE
  8
0
 10
-371.699921
 20
19.773375
 11
-370.991730
 21
20.999861
  0
LINE
  8
0
 10
-371.699860
 20
8.226596
 11
-370.991730
 21
7.000080
  0
LINE
  8
0
 10
-375.500061
 20
50.672768
 11
-375.500061
 21
19.327248
  0
LINE
  8
0
 10
-370.991943
 20
7.000008
 11
-370.991943
 21
21.000008
  0
LINE
  8
0
 10
-375.242371
 20
61.773514
 11
-371.700073
 21
61.773514
  0
LINE
  8
0
 10
-375.700073
 20
60.980804
 11
-375.700073
 21
51.019203
  0
LINE
  8
0
 10
-375.224548
 20
58.886765
 11
-371.700073
 21
58.886765
  0
LINE
  8
0
 10
-375.224548
 20
53.113258
 11
-371.700073
 21
53.113258
  0
LINE
  8
0
 10
-375.242371
 20
50.226509
 11
-371.700073
 21
50.226509
  0
LINE
  8
0
 10
-371.699982
 20
50.226559
 11
-370.991791
 21
49.000042
  0
LINE
  8
0
 10
-371.700073
 20
61.773521
 11
-371.700073
 21
50.226509
  0
LINE
  8
0
 10
-370.991943
 20
49.000008
 11
-370.991943
 21
63.000008
  0
LINE
  8
0
 10
-370.991943
 20
49.000008
 11
-369.700073
 21
49.000008
  0
LINE
  8
0
 10
-370.991943
 20
63.000008
 11
-369.700073
 21
63.000008
  0
LINE
  8
0
 10
-371.699982
 20
61.773495
 11
-370.991852
 21
62.999977
  0
LINE
  8
0
 10
-375.500061
 20
8.672768
 11
-375.500061
 21
7.000008
  0
LINE
  8
0
 10
-350.708862
 20
47.036877
 11
-353.984589
 21
41.363277
  0
LINE
  8
0
 10
-350.015991
 20
46.636982
 11
-353.291718
 21
40.963360
  0
LINE
  8
0
 10
-375.242523
 20
61.773563
 11
-375.700195
 21
60.980865
  0
LINE
  8
0
 10
-375.242249
 20
50.226597
 11
-375.699921
 21
51.019295
  0
LINE
  8
0
 10
-375.242371
 20
8.226507
 11
-375.700073
 21
9.019232
  0
LINE
  8
0
 10
-375.242493
 20
19.773535
 11
-375.700195
 21
18.980812
  0
LINE
  8
0
 10
-300.500061
 20
93.000008
 11
-150.500061
 21
93.000008
  0
LINE
  8
0
 10
-310.500061
 20
92.500008
 11
-310.500061
 21
37.500008
  0
LINE
  8
0
 10
-300.500061
 20
93.000008
 11
-300.500061
 21
37.500008
  0
LINE
  8
0
 10
-150.500061
 20
93.000008
 11
-150.500061
 21
37.500008
  0
LINE
  8
0
 10
-140.500061
 20
92.500008
 11
-140.500061
 21
37.500008
  0
LINE
  8
0
  6
CENTER
 62
     2
 10
-225.500061
 20
98.000008
 11
-225.500061
 21
-1.673820
  0
LINE
  8
0
 10
-310.500061
 20
92.500008
 11
-140.500061
 21
92.500008
  0
LINE
  8
0
 10
-310.500061
 20
37.500008
 11
-140.500061
 21
37.500008
  0
LINE
  8
0
 10
-140.500061
 20
39.000008
 11
194.499939
 21
39.000008
  0
LINE
  8
0
 10
-140.500061
 20
49.869850
 11
194.499939
 21
49.869850
  0
LINE
  8
0
 10
-140.500061
 20
54.497932
 11
194.499939
 21
54.497932
  0
LINE
  8
0
 10
-140.500061
 20
63.000008
 11
194.499939
 21
63.000008
  0
LINE
  8
0
  6
CENTER
 62
     2
 10
74.499939
 20
68.000008
 11
74.499939
 21
-1.999992
  0
LINE
  8
0
 10
-300.500061
 20
77.000008
 11
-150.500061
 21
77.000008
  0
LINE
  8
0
 10
-345.500061
 20
10.267952
 11
194.499939
 21
10.267952
  0
LINE
  8
0
 10
-310.500061
 20
45.891014
 11
-140.500061
 21
45.891014
  0
LINE
  8
0
 10
-248.500061
 20
37.200005
 11
-238.500061
 21
37.200005
  0
LINE
  8
0
 10
-236.500061
 20
32.000053
 11
-235.500061
 21
32.000053
  0
LINE
  8
0
 10
-236.500061
 20
37.500008
 11
-236.500061
 21
32.000053
  0
LINE
  8
0
 10
-230.500061
 20
37.500008
 11
-230.500061
 21
37.000053
  0
LINE
  8
0
 10
-220.500061
 20
37.500008
 11
-220.500061
 21
20.800056
  0
LINE
  8
0
 10
-214.500061
 20
37.500008
 11
-214.500061
 21
32.000053
  0
LINE
  8
0
 10
-220.500061
 20
32.000053
 11
-214.500061
 21
32.000053
  0
LINE
  8
0
 10
-248.500061
 20
33.800011
 11
-238.500061
 21
33.800011
  0
LINE
  8
0
 10
-238.500061
 20
37.500008
 11
-238.500061
 21
33.000008
  0
LINE
  8
0
 10
-235.500061
 20
37.000053
 11
-220.500061
 21
37.000053
  0
LINE
  8
0
 10
-235.500061
 20
20.800056
 11
-220.500061
 21
20.800056
  0
LINE
  8
0
 10
-235.500061
 20
37.000053
 11
-235.500061
 21
20.800056
  0
LINE
  8
0
 10
-238.500061
 20
33.000008
 11
-236.500061
 21
33.000008
  0
LINE
  8
0
 10
-228.750061
 20
22.867058
 11
-228.000061
 21
22.434044
  0
LINE
  8
0
 10
-228.000061
 20
22.434004
 11
-227.250061
 21
22.867018
  0
LINE
  8
0
 10
-227.250061
 20
22.867043
 11
-227.250061
 21
23.733070
  0
LINE
  8
0
 10
-227.250061
 20
23.733082
 11
-228.000031
 21
24.166080
  0
LINE
  8
0
 10
-228.000000
 20
24.166014
 11
-228.749985
 21
23.733007
  0
LINE
  8
0
 10
-228.750046
 20
23.733070
 11
-228.750046
 21
22.867043
  0
LINE
  8
0
 10
-214.500061
 20
37.000008
 11
51.418915
 21
37.000008
  0
LINE
  8
0
 10
-220.500061
 20
28.299995
 11
64.499939
 21
28.299995
  0
LINE
  8
0
 10
-220.500061
 20
24.299995
 11
64.499939
 21
24.299995
  0
LINE
  8
0
 10
85.499939
 20
37.000008
 11
194.499939
 21
37.000008
  0
LINE
  8
0
 10
79.499939
 20
28.299995
 11
194.499939
 21
28.299995
  0
LINE
  8
0
 10
79.499939
 20
24.299995
 11
194.499939
 21
24.299995
  0
LINE
  8
0
 10
61.499939
 20
38.999962
 11
85.499939
 21
38.999962
  0
LINE
  8
0
 10
194.499847
 20
136.000046
 11
194.499847
 21
200.000046
  0
LINE
  8
0
 10
-345.500153
 20
200.000046
 11
-310.500153
 21
200.000046
  0
LINE
  8
0
 10
-345.500153
 20
197.600052
 11
-310.500153
 21
197.600052
  0
LINE
  8
0
 10
-345.500153
 20
190.400040
 11
-310.500153
 21
190.400040
  0
LINE
  8
0
 10
-345.500153
 20
145.600067
 11
-310.500153
 21
145.600067
  0
LINE
  8
0
 10
-345.500153
 20
138.400055
 11
-310.500153
 21
138.400055
  0
LINE
  8
0
 10
-345.500153
 20
136.000061
 11
-310.500153
 21
136.000061
  0
LINE
  8
0
  6
CENTER
 62
     2
 10
-384.933472
 20
168.000061
 11
234.866547
 21
168.000061
  0
LINE
  8
0
 10
224.499847
 20
196.000061
 11
224.499847
 21
194.000061
  0
LINE
  8
0
 10
222.499847
 20
138.000061
 11
194.499847
 21
138.000061
  0
LINE
  8
0
 10
222.499847
 20
198.000061
 11
194.499847
 21
198.000061
  0
LINE
  8
0
 10
218.699860
 20
196.000061
 11
218.699860
 21
181.000061
  0
LINE
  8
0
 10
222.499847
 20
156.000061
 11
219.699860
 21
156.000061
  0
LINE
  8
0
 10
222.499847
 20
180.000061
 11
219.699860
 21
180.000061
  0
LINE
  8
0
 10
218.699860
 20
155.000061
 11
218.699860
 21
140.000061
  0
LINE
  8
0
 10
224.699860
 20
152.000061
 11
224.699860
 21
142.000061
  0
LINE
  8
0
 10
219.991730
 20
154.000061
 11
218.699860
 21
154.000061
  0
LINE
  8
0
 10
219.991730
 20
140.000061
 11
218.699860
 21
140.000061
  0
LINE
  8
0
 10
220.699860
 20
152.773560
 11
220.699860
 21
141.226562
  0
LINE
  8
0
 10
220.699982
 20
152.773682
 11
219.991837
 21
154.000198
  0
LINE
  8
0
 10
220.700012
 20
141.226456
 11
219.991898
 21
139.999985
  0
LINE
  8
0
 10
219.991730
 20
140.000061
 11
219.991730
 21
154.000061
  0
LINE
  8
0
 10
224.499847
 20
184.000061
 11
224.499847
 21
152.000061
  0
LINE
  8
0
 10
219.991730
 20
182.000061
 11
219.991730
 21
196.000061
  0
LINE
  8
0
 10
224.699860
 20
194.000061
 11
224.699860
 21
184.000061
  0
LINE
  8
0
 10
219.991730
 20
196.000061
 11
218.699860
 21
196.000061
  0
LINE
  8
0
 10
219.991730
 20
182.000061
 11
218.699860
 21
182.000061
  0
LINE
  8
0
 10
220.699860
 20
194.773560
 11
220.699860
 21
183.226562
  0
LINE
  8
0
 10
220.699768
 20
194.773544
 11
219.991653
 21
196.000000
  0
LINE
  8
0
 10
220.699997
 20
183.226486
 11
219.991852
 21
181.999985
  0
LINE
  8
0
 10
224.499847
 20
142.000061
 11
224.499847
 21
140.000061
  0
LINE
  8
0
 10
202.199860
 20
181.000061
 11
202.199860
 21
155.000061
  0
LINE
  8
0
 10
200.699860
 20
153.500061
 11
194.499847
 21
153.500061
  0
LINE
  8
0
 10
200.699860
 20
182.500061
 11
194.499847
 21
182.500061
  0
LINE
  8
0
  6
CENTER
 62
     2
 10
199.764114
 20
177.085922
 11
196.935684
 21
179.914352
  0
LINE
  8
0
 10
199.764328
 20
156.086105
 11
196.935898
 21
158.914536
  0
LINE
  8
0
 10
199.764389
 20
158.914032
 11
196.935974
 21
156.085602
  0
LINE
  8
0
  6
CENTER
 62
     2
 10
199.763992
 20
177.085785
 11
196.935562
 21
179.914215
  0
LINE
  8
0
 10
199.764114
 20
177.085922
 11
196.935684
 21
179.914352
  0
LINE
  8
0
 10
199.763977
 20
179.914368
 11
196.935547
 21
177.085953
  0
LINE
  8
0
 10
213.499939
 20
168.865921
 11
212.749939
 21
168.432907
  0
LINE
  8
0
 10
214.249954
 20
167.566849
 11
213.499954
 21
167.133835
  0
LINE
  8
0
 10
214.249847
 20
168.433075
 11
214.249847
 21
167.567047
  0
LINE
  8
0
 10
212.749847
 20
168.433075
 11
212.749847
 21
167.567047
  0
LINE
  8
0
 10
213.500031
 20
167.134186
 11
212.750031
 21
167.567215
  0
LINE
  8
0
 10
214.250015
 20
168.433243
 11
213.500015
 21
168.866257
  0
LINE
  8
0
 10
207.500000
 20
168.865906
 11
206.750000
 21
168.432892
  0
LINE
  8
0
 10
208.249985
 20
168.433228
 11
207.499985
 21
168.866241
  0
LINE
  8
0
 10
208.249847
 20
168.433075
 11
208.249847
 21
167.567047
  0
LINE
  8
0
 10
208.250000
 20
167.566864
 11
207.500000
 21
167.133850
  0
LINE
  8
0
 10
207.500015
 20
167.134186
 11
206.750015
 21
167.567200
  0
LINE
  8
0
 10
206.749847
 20
168.433075
 11
206.749847
 21
167.567047
  0
LINE
  8
0
 10
220.699860
 20
194.000061
 11
224.699860
 21
194.000061
  0
LINE
  8
0
 10
220.699860
 20
184.000061
 11
224.699860
 21
184.000061
  0
LINE
  8
0
 10
220.699860
 20
142.000061
 11
224.699860
 21
142.000061
  0
LINE
  8
0
 10
220.699860
 20
152.000061
 11
224.699860
 21
152.000061
  0
LINE
  8
0
 10
220.699860
 20
189.000061
 11
224.270966
 21
189.000061
  0
LINE
  8
0
 10
220.699860
 20
147.000061
 11
224.270966
 21
147.000061
  0
LINE
  8
0
 10
-345.500153
 20
136.000046
 11
-345.500153
 21
200.000046
  0
LINE
  8
0
 10
-375.500153
 20
196.000061
 11
-375.500153
 21
194.000061
  0
LINE
  8
0
 10
-373.500153
 20
138.000061
 11
-345.500153
 21
138.000061
  0
LINE
  8
0
 10
-373.500153
 20
198.000061
 11
-345.500153
 21
198.000061
  0
LINE
  8
0
 10
-369.700165
 20
196.000061
 11
-369.700165
 21
181.000061
  0
LINE
  8
0
 10
-373.500153
 20
156.000061
 11
-370.700165
 21
156.000061
  0
LINE
  8
0
 10
-373.500153
 20
180.000061
 11
-370.700165
 21
180.000061
  0
LINE
  8
0
 10
-369.700165
 20
155.000061
 11
-369.700165
 21
140.000061
  0
LINE
  8
0
 10
-375.700165
 20
152.000061
 11
-375.700165
 21
142.000061
  0
LINE
  8
0
 10
-370.992035
 20
154.000061
 11
-369.700165
 21
154.000061
  0
LINE
  8
0
 10
-370.992035
 20
140.000061
 11
-369.700165
 21
140.000061
  0
LINE
  8
0
 10
-371.700165
 20
152.773560
 11
-371.700165
 21
141.226562
  0
LINE
  8
0
 10
-371.700287
 20
152.773666
 11
-370.992157
 21
154.000153
  0
LINE
  8
0
 10
-371.700195
 20
141.226532
 11
-370.992065
 21
140.000061
  0
LINE
  8
0
 10
-370.992035
 20
140.000061
 11
-370.992035
 21
154.000061
  0
LINE
  8
0
 10
-375.500153
 20
184.000061
 11
-375.500153
 21
152.000061
  0
LINE
  8
0
 10
-370.992035
 20
182.000061
 11
-370.992035
 21
196.000061
  0
LINE
  8
0
 10
-375.700165
 20
194.000061
 11
-375.700165
 21
184.000061
  0
LINE
  8
0
 10
-370.992035
 20
196.000061
 11
-369.700165
 21
196.000061
  0
LINE
  8
0
 10
-370.992035
 20
182.000061
 11
-369.700165
 21
182.000061
  0
LINE
  8
0
 10
-371.700165
 20
194.773560
 11
-371.700165
 21
183.226562
  0
LINE
  8
0
 10
-371.700043
 20
194.773514
 11
-370.991913
 21
195.999985
  0
LINE
  8
0
 10
-371.700134
 20
183.226517
 11
-370.992004
 21
182.000031
  0
LINE
  8
0
 10
-375.500153
 20
142.000061
 11
-375.500153
 21
140.000061
  0
LINE
  8
0
 10
-353.200165
 20
181.000061
 11
-353.200165
 21
155.000061
  0
LINE
  8
0
 10
-351.700165
 20
153.500061
 11
-345.500153
 21
153.500061
  0
LINE
  8
0
 10
-351.700165
 20
182.500061
 11
-345.500153
 21
182.500061
  0
LINE
  8
0
  6
CENTER
 62
     2
 10
-350.764526
 20
177.086014
 11
-347.936157
 21
179.914444
  0
LINE
  8
0
 10
-350.764557
 20
156.086060
 11
-347.936127
 21
158.914490
  0
LINE
  8
0
 10
-350.764587
 20
158.914062
 11
-347.936157
 21
156.085648
  0
LINE
  8
0
  6
CENTER
 62
     2
 10
-350.764465
 20
177.085876
 11
-347.936035
 21
179.914307
  0
LINE
  8
0
 10
-350.764526
 20
177.086014
 11
-347.936157
 21
179.914444
  0
LINE
  8
0
 10
-350.764465
 20
179.914215
 11
-347.936035
 21
177.085800
  0
LINE
  8
0
 10
-364.500183
 20
168.865875
 11
-363.750183
 21
168.432861
  0
LINE
  8
0
 10
-365.250275
 20
167.566849
 11
-364.500275
 21
167.133835
  0
LINE
  8
0
 10
-365.250153
 20
168.433075
 11
-365.250153
 21
167.567047
  0
LINE
  8
0
 10
-363.750153
 20
168.433075
 11
-363.750153
 21
167.567047
  0
LINE
  8
0
 10
-364.500244
 20
167.134186
 11
-363.750214
 21
167.567200
  0
LINE
  8
0
 10
-365.250275
 20
168.433243
 11
-364.500275
 21
168.866257
  0
LINE
  8
0
 10
-358.500214
 20
168.865921
 11
-357.750214
 21
168.432907
  0
LINE
  8
0
 10
-359.250275
 20
168.433258
 11
-358.500275
 21
168.866272
  0
LINE
  8
0
 10
-359.250153
 20
168.433075
 11
-359.250153
 21
167.567047
  0
LINE
  8
0
 10
-359.250214
 20
167.566864
 11
-358.500214
 21
167.133850
  0
LINE
  8
0
 10
-358.500214
 20
167.134216
 11
-357.750214
 21
167.567230
  0
LINE
  8
0
 10
-357.750153
 20
168.433075
 11
-357.750153
 21
167.567047
  0
LINE
  8
0
 10
-371.700165
 20
194.000061
 11
-375.700165
 21
194.000061
  0
LINE
  8
0
 10
-371.700165
 20
184.000061
 11
-375.700165
 21
184.000061
  0
LINE
  8
0
 10
-371.700165
 20
142.000061
 11
-375.700165
 21
142.000061
  0
LINE
  8
0
 10
-371.700165
 20
152.000061
 11
-375.700165
 21
152.000061
  0
LINE
  8
0
 10
-371.700165
 20
189.000061
 11
-375.271210
 21
189.000061
  0
LINE
  8
0
 10
-371.700165
 20
147.000061
 11
-375.271210
 21
147.000061
  0
LINE
  8
0
  6
CENTER
 62
     2
 10
-225.500153
 20
220.500061
 11
-225.500153
 21
115.500061
  0
LINE
  8
0
 10
-300.500153
 20
215.500061
 11
-300.500153
 21
120.500061
  0
LINE
  8
0
 10
-150.500153
 20
215.500061
 11
-150.500153
 21
120.500061
  0
LINE
  8
0
 10
-140.500153
 20
215.500061
 11
-140.500153
 21
120.500061
  0
LINE
  8
0
 10
-310.500153
 20
215.500061
 11
-310.500153
 21
120.500061
  0
LINE
  8
0
 10
-310.500153
 20
120.500061
 11
-140.500153
 21
120.500061
  0
LINE
  8
0
 10
-310.500153
 20
215.500061
 11
-140.500153
 21
215.500061
  0
LINE
  8
0
  6
CENTER
 62
     2
 10
-280.500153
 20
196.000061
 11
-280.500153
 21
140.000061
  0
LINE
  8
0
  6
CENTER
 62
     2
 10
-288.500153
 20
188.000061
 11
-272.500153
 21
188.000061
  0
LINE
  8
0
  6
CENTER
 62
     2
 10
-233.500153
 20
188.000061
 11
-217.500153
 21
188.000061
  0
LINE
  8
0
  6
CENTER
 62
     2
 10
-170.500153
 20
196.000061
 11
-170.500153
 21
140.000061
  0
LINE
  8
0
  6
CENTER
 62
     2
 10
-178.500153
 20
188.000061
 11
-162.500153
 21
188.000061
  0
LINE
  8
0
  6
CENTER
 62
     2
 10
-178.500153
 20
148.000061
 11
-162.500153
 21
148.000061
  0
LINE
  8
0
  6
CENTER
 62
     2
 10
-288.500153
 20
148.000061
 11
-272.500153
 21
148.000061
  0
LINE
  8
0
 10
-225.500183
 20
189.732132
 11
-224.000168
 21
188.866104
  0
LINE
  8
0
 10
-227.000183
 20
187.134048
 11
-225.500183
 21
186.268021
  0
LINE
  8
0
 10
-225.500183
 20
186.268036
 11
-224.000168
 21
187.134064
  0
LINE
  8
0
 10
-227.000168
 20
188.866089
 11
-225.500153
 21
189.732117
  0
LINE
  8
0
 10
-227.000153
 20
188.866074
 11
-227.000153
 21
187.134033
  0
LINE
  8
0
 10
-224.000153
 20
188.866089
 11
-224.000153
 21
187.134018
  0
LINE
  8
0
 10
-300.500153
 20
205.500061
 11
-150.500153
 21
205.500061
  0
LINE
  8
0
 10
-300.500153
 20
130.500061
 11
-150.500153
 21
130.500061
  0
LINE
  8
0
  6
CENTER
 62
     2
 10
74.499847
 20
205.000046
 11
74.499847
 21
124.941620
  0
LINE
  8
0
 10
-345.500153
 20
159.500061
 11
-310.500153
 21
159.500061
  0
LINE
  8
0
 10
-345.500153
 20
176.500061
 11
-310.500153
 21
176.500061
  0
LINE
  8
0
 10
-140.500153
 20
200.000046
 11
194.499847
 21
200.000046
  0
LINE
  8
0
 10
-140.500153
 20
197.600052
 11
194.499847
 21
197.600052
  0
LINE
  8
0
 10
-140.500153
 20
190.400040
 11
194.499847
 21
190.400040
  0
LINE
  8
0
 10
-140.500153
 20
176.500061
 11
194.499847
 21
176.500061
  0
LINE
  8
0
 10
-140.500153
 20
159.500061
 11
194.499847
 21
159.500061
  0
LINE
  8
0
 10
-140.500153
 20
145.600067
 11
194.499847
 21
145.600067
  0
LINE
  8
0
 10
-140.500153
 20
138.400055
 11
194.499847
 21
138.400055
  0
LINE
  8
0
 10
-140.500153
 20
136.000061
 11
194.499847
 21
136.000061
  0
LINE
  8
0
 10
79.499847
 20
136.000061
 11
79.499847
 21
132.000046
  0
LINE
  8
0
 10
85.499847
 20
136.000061
 11
85.499847
 21
132.000046
  0
LINE
  8
0
 10
63.499847
 20
136.000061
 11
63.499847
 21
132.000046
  0
LINE
  8
0
 10
61.499847
 20
136.000061
 11
61.499847
 21
133.150009
  0
LINE
  8
0
 10
63.499847
 20
132.000046
 11
85.499847
 21
132.000046
  0
LINE
  8
0
 10
69.499847
 20
136.000061
 11
69.499847
 21
132.000046
  0
LINE
  8
0
 10
61.499847
 20
133.150009
 11
63.499847
 21
133.150009
  0
LINE
  8
0
 10
51.499847
 20
133.949997
 11
61.499847
 21
133.949997
  0
LINE
  8
0
 10
64.499847
 20
129.000046
 11
79.499847
 21
129.000046
  0
LINE
  8
0
 10
64.499847
 20
132.000046
 11
64.499847
 21
129.000046
  0
LINE
  8
0
 10
79.499847
 20
132.000046
 11
79.499847
 21
129.000046
  0
LINE
  8
0
  6
CENTER
 62
     2
 10
310.500031
 20
98.000015
 11
310.500031
 21
-1.999981
  0
LINE
  8
0
 10
278.800018
 20
3.000019
 11
293.000031
 21
3.000019
  0
LINE
  8
0
 10
289.500031
 20
5.000019
 11
331.500031
 21
5.000019
  0
LINE
  8
0
 10
328.000031
 20
3.000019
 11
342.200043
 21
3.000019
  0
LINE
  8
0
 10
338.852112
 20
8.556806
 11
342.147919
 21
9.137945
  0
LINE
  8
0
 10
342.500031
 20
8.842487
 11
342.500031
 21
3.300007
  0
LINE
  8
0
 10
340.500031
 20
14.000019
 11
342.200043
 21
14.000019
  0
LINE
  8
0
 10
340.500031
 20
55.921841
 11
340.623199
 21
56.025200
  0
LINE
  8
0
 10
341.833191
 20
39.000011
 11
342.200043
 21
39.000011
  0
LINE
  8
0
 10
340.500031
 20
37.000011
 11
342.200043
 21
37.000011
  0
LINE
  8
0
 10
342.500031
 20
38.700016
 11
342.500031
 21
37.300007
  0
LINE
  8
0
 10
340.500000
 20
40.310940
 11
341.450134
 21
39.178612
  0
LINE
  8
0
 10
342.500031
 20
23.500011
 11
342.500031
 21
14.300007
  0
LINE
  8
0
 10
340.900024
 20
23.500011
 11
340.900024
 21
22.900013
  0
LINE
  8
0
 10
340.500031
 20
21.407187
 11
340.900024
 21
22.900013
  0
LINE
  8
0
 10
280.500031
 20
55.921818
 11
280.376862
 21
56.025185
  0
LINE
  8
0
 10
278.500031
 20
8.842487
 11
278.500031
 21
3.300007
  0
LINE
  8
0
 10
280.500000
 20
40.310936
 11
279.549896
 21
39.178619
  0
LINE
  8
0
 10
279.166870
 20
39.000011
 11
278.800018
 21
39.000011
  0
LINE
  8
0
 10
278.500031
 20
38.700016
 11
278.500031
 21
38.500015
  0
LINE
  8
0
 10
280.500031
 20
21.407196
 11
280.100037
 21
22.900021
  0
LINE
  8
0
 10
280.100037
 20
23.500011
 11
280.100037
 21
22.900013
  0
LINE
  8
0
 10
278.500031
 20
23.500011
 11
278.500031
 21
14.300007
  0
LINE
  8
0
 10
280.500031
 20
14.000019
 11
278.800018
 21
14.000019
  0
LINE
  8
0
 10
282.147919
 20
8.556740
 11
278.852112
 21
9.137877
  0
LINE
  8
0
 10
275.500031
 20
93.000015
 11
345.500031
 21
93.000015
  0
LINE
  8
0
 10
358.000031
 20
91.500015
 11
358.000031
 21
45.891010
  0
LINE
  8
0
 10
263.000031
 20
91.500015
 11
263.000031
 21
45.891010
  0
LINE
  8
0
 10
264.000031
 20
92.500015
 11
357.000031
 21
92.500015
  0
LINE
  8
0
 10
275.000031
 20
92.500038
 11
275.500031
 21
93.000023
  0
LINE
  8
0
 10
345.500061
 20
93.000031
 11
346.000061
 21
92.500038
  0
LINE
  8
0
 10
273.000031
 20
37.500011
 11
274.500031
 21
37.500011
  0
LINE
  8
0
 10
277.500031
 20
40.000011
 11
277.500031
 21
38.500015
  0
LINE
  8
0
 10
263.000031
 20
45.891014
 11
273.000031
 21
37.500027
  0
LINE
  8
0
 10
343.500031
 20
40.000011
 11
343.500031
 21
37.500011
  0
LINE
  8
0
 10
348.000031
 20
37.500011
 11
343.500031
 21
37.500011
  0
LINE
  8
0
 10
358.000000
 20
45.891022
 11
348.000000
 21
37.500027
  0
LINE
  8
0
 10
277.500031
 20
40.000011
 11
279.000031
 21
40.000011
  0
LINE
  8
0
 10
279.000000
 20
40.000008
 11
280.500000
 21
41.787640
  0
LINE
  8
0
 10
343.500031
 20
40.000011
 11
342.000031
 21
40.000011
  0
LINE
  8
0
 10
342.000061
 20
40.000011
 11
340.500061
 21
41.787643
  0
LINE
  8
0
 10
340.500031
 20
56.000011
 11
340.500031
 21
14.000019
  0
LINE
  8
0
 10
280.500031
 20
56.000011
 11
280.500031
 21
14.000019
  0
LINE
  8
0
 10
289.500031
 20
65.000015
 11
331.500031
 21
65.000015
  0
LINE
  8
0
 10
298.500031
 20
63.000011
 11
298.500031
 21
56.000011
  0
LINE
  8
0
 10
322.500031
 20
63.000011
 11
322.500031
 21
56.000011
  0
LINE
  8
0
 10
282.500031
 20
47.000011
 11
289.500031
 21
47.000011
  0
LINE
  8
0
 10
282.500031
 20
23.000011
 11
289.500031
 21
23.000011
  0
LINE
  8
0
 10
331.500031
 20
47.000011
 11
338.500031
 21
47.000011
  0
LINE
  8
0
 10
322.500031
 20
14.000019
 11
322.500031
 21
7.000019
  0
LINE
  8
0
 10
331.500031
 20
23.000011
 11
338.500031
 21
23.000011
  0
LINE
  8
0
 10
298.500031
 20
14.000019
 11
298.500031
 21
7.000019
  0
LINE
  8
0
  6
DASHED
 62
     2
 10
340.000031
 20
28.421520
 11
329.000031
 21
28.765289
  0
LINE
  8
0
  6
DASHED
 62
     2
 10
340.000031
 20
29.277514
 11
329.000031
 21
29.621283
  0
LINE
  8
0
  6
DASHED
 62
     2
 10
340.000031
 20
40.722511
 11
329.000031
 21
40.378746
  0
LINE
  8
0
  6
DASHED
 62
     2
 10
340.000031
 20
41.578526
 11
329.000031
 21
41.234760
  0
LINE
  8
0
  6
DASHED
 62
     2
 10
329.000031
 20
28.765278
 11
329.000031
 21
41.234745
  0
LINE
  8
0
  6
DASHED
 62
     2
 10
329.000031
 20
28.765270
 11
327.517395
 21
29.621273
  0
LINE
  8
0
  6
DASHED
 62
     2
 10
329.000061
 20
41.234749
 11
327.517395
 21
40.378746
  0
LINE
  8
0
  6
DASHED
 62
     2
 10
329.000031
 20
29.621273
 11
325.287628
 21
29.621273
  0
LINE
  8
0
  6
DASHED
 62
     2
 10
329.000031
 20
40.378742
 11
325.287628
 21
40.378742
  0
LINE
  8
0
  6
DASHED
 62
     2
 10
281.000031
 20
41.578510
 11
292.000031
 21
41.234741
  0
LINE
  8
0
  6
DASHED
 62
     2
 10
281.000031
 20
40.722515
 11
292.000031
 21
40.378750
  0
LINE
  8
0
  6
DASHED
 62
     2
 10
281.000031
 20
29.277523
 11
292.000031
 21
29.621290
  0
LINE
  8
0
  6
DASHED
 62
     2
 10
281.000031
 20
28.421518
 11
292.000031
 21
28.765285
  0
LINE
  8
0
  6
DASHED
 62
     2
 10
292.000031
 20
41.234745
 11
292.000031
 21
28.765278
  0
LINE
  8
0
  6
DASHED
 62
     2
 10
292.000031
 20
41.234745
 11
293.482697
 21
40.378742
  0
LINE
  8
0
  6
DASHED
 62
     2
 10
292.000061
 20
28.765251
 11
293.482697
 21
29.621254
  0
LINE
  8
0
  6
DASHED
 62
     2
 10
292.000031
 20
40.378742
 11
295.712433
 21
40.378742
  0
LINE
  8
0
  6
DASHED
 62
     2
 10
292.000031
 20
29.621281
 11
295.712433
 21
29.621281
  0
LINE
  8
0
 10
284.500031
 20
16.886768
 11
284.500031
 21
11.113270
  0
LINE
  8
0
 10
294.500031
 20
16.886768
 11
294.500031
 21
11.113270
  0
LINE
  8
0
 10
289.500061
 20
8.226484
 11
294.500061
 21
11.113226
  0
LINE
  8
0
 10
284.500031
 20
16.886745
 11
289.500031
 21
19.773495
  0
LINE
  8
0
 10
284.500061
 20
11.113241
 11
289.500061
 21
8.226492
  0
LINE
  8
0
 10
289.500031
 20
19.773483
 11
294.500031
 21
16.886734
  0
LINE
  8
0
  6
CENTER
 62
     2
 10
280.500031
 20
14.000019
 11
298.500031
 21
14.000019
  0
LINE
  8
0
  6
CENTER
 62
     2
 10
289.500031
 20
23.000011
 11
289.500031
 21
5.000019
  0
LINE
  8
0
 10
284.500031
 20
58.886761
 11
284.500031
 21
53.113255
  0
LINE
  8
0
 10
294.500031
 20
58.886761
 11
294.500031
 21
53.113255
  0
LINE
  8
0
 10
289.500031
 20
50.226513
 11
294.500031
 21
53.113262
  0
LINE
  8
0
 10
284.500031
 20
58.886761
 11
289.500061
 21
61.773525
  0
LINE
  8
0
 10
284.500031
 20
53.113258
 11
289.500031
 21
50.226509
  0
LINE
  8
0
 10
289.500031
 20
61.773514
 11
294.500031
 21
58.886765
  0
LINE
  8
0
  6
CENTER
 62
     2
 10
280.500031
 20
56.000011
 11
298.500031
 21
56.000011
  0
LINE
  8
0
  6
CENTER
 62
     2
 10
289.500031
 20
65.000015
 11
289.500031
 21
47.000011
  0
LINE
  8
0
 10
326.500031
 20
58.886761
 11
326.500031
 21
53.113255
  0
LINE
  8
0
 10
336.500031
 20
58.886761
 11
336.500031
 21
53.113255
  0
LINE
  8
0
 10
331.500031
 20
50.226509
 11
336.500031
 21
53.113258
  0
LINE
  8
0
 10
326.500031
 20
58.886765
 11
331.500031
 21
61.773514
  0
LINE
  8
0
 10
326.500061
 20
53.113270
 11
331.500061
 21
50.226521
  0
LINE
  8
0
 10
331.500031
 20
61.773525
 11
336.500061
 21
58.886761
  0
LINE
  8
0
  6
CENTER
 62
     2
 10
322.500031
 20
56.000011
 11
340.500031
 21
56.000011
  0
LINE
  8
0
  6
CENTER
 62
     2
 10
331.500031
 20
65.000015
 11
331.500031
 21
47.000011
  0
LINE
  8
0
 10
326.500031
 20
16.886768
 11
326.500031
 21
11.113270
  0
LINE
  8
0
 10
336.500031
 20
16.886768
 11
336.500031
 21
11.113270
  0
LINE
  8
0
 10
331.500031
 20
8.226479
 11
336.500031
 21
11.113227
  0
LINE
  8
0
 10
326.500061
 20
16.886734
 11
331.500061
 21
19.773483
  0
LINE
  8
0
 10
326.500061
 20
11.113246
 11
331.500031
 21
8.226497
  0
LINE
  8
0
 10
331.500061
 20
19.773500
 11
336.500031
 21
16.886751
  0
LINE
  8
0
  6
CENTER
 62
     2
 10
322.500031
 20
14.000019
 11
340.500031
 21
14.000019
  0
LINE
  8
0
  6
CENTER
 62
     2
 10
331.500031
 20
23.000011
 11
331.500031
 21
5.000019
  0
LINE
  8
0
  6
CENTER
 62
     2
 10
275.500031
 20
35.000011
 11
345.500031
 21
35.000011
  0
LINE
  8
0
  6
DASHED
 62
     2
 10
289.900024
 20
40.331623
 11
289.900024
 21
29.668400
  0
LINE
  8
0
  6
DASHED
 62
     2
 10
288.900024
 20
41.300373
 11
288.900024
 21
28.699650
  0
LINE
  8
0
  6
DASHED
 62
     2
 10
282.000031
 20
41.547260
 11
282.000031
 21
28.452763
  0
LINE
  8
0
  6
DASHED
 62
     2
 10
281.000031
 20
40.547260
 11
282.000031
 21
41.547260
  0
LINE
  8
0
  6
DASHED
 62
     2
 10
288.900055
 20
28.668390
 11
289.900055
 21
29.668392
  0
LINE
  8
0
  6
DASHED
 62
     2
 10
288.900024
 20
41.331600
 11
289.900055
 21
40.331600
  0
LINE
  8
0
  6
DASHED
 62
     2
 10
281.000031
 20
29.452744
 11
282.000031
 21
28.452753
  0
LINE
  8
0
  6
DASHED
 62
     2
 10
331.100037
 20
40.331623
 11
331.100037
 21
29.668400
  0
LINE
  8
0
  6
DASHED
 62
     2
 10
332.100037
 20
41.300373
 11
332.100037
 21
28.699650
  0
LINE
  8
0
  6
DASHED
 62
     2
 10
332.100037
 20
41.331631
 11
331.100037
 21
40.331627
  0
LINE
  8
0
  6
DASHED
 62
     2
 10
332.100006
 20
28.668390
 11
331.100006
 21
29.668392
  0
LINE
  8
0
  6
DASHED
 62
     2
 10
340.000000
 20
29.452795
 11
339.000000
 21
28.452793
  0
LINE
  8
0
  6
DASHED
 62
     2
 10
339.000031
 20
41.547260
 11
339.000031
 21
28.452763
  0
LINE
  8
0
  6
DASHED
 62
     2
 10
340.000061
 20
40.547268
 11
339.000061
 21
41.547268
  0
LINE
  8
0
  6
DASHED
 62
     2
 10
281.000031
 20
45.000011
 11
281.000031
 21
25.000011
  0
LINE
  8
0
  6
DASHED
 62
     2
 10
280.500031
 20
45.000011
 11
281.000031
 21
45.000011
  0
LINE
  8
0
  6
DASHED
 62
     2
 10
280.500031
 20
25.000011
 11
281.000031
 21
25.000011
  0
LINE
  8
0
  6
DASHED
 62
     2
 10
340.000031
 20
45.000011
 11
340.000031
 21
25.000011
  0
LINE
  8
0
  6
DASHED
 62
     2
 10
340.500031
 20
25.000011
 11
340.000031
 21
25.000011
  0
LINE
  8
0
  6
DASHED
 62
     2
 10
340.500031
 20
45.000011
 11
340.000031
 21
45.000011
  0
LINE
  8
0
  6
CENTER
 62
     2
 10
299.500031
 20
44.000011
 11
299.500031
 21
26.000011
  0
LINE
  8
0
  6
CENTER
 62
     2
 10
321.500031
 20
44.000011
 11
321.500031
 21
26.000011
  0
LINE
  8
0
 10
278.542603
 20
23.757486
 11
278.000061
 21
24.300030
  0
LINE
  8
0
 10
278.500031
 20
21.800007
 11
278.000031
 21
21.300009
  0
LINE
  8
0
 10
278.000031
 20
24.300018
 11
278.000031
 21
21.300018
  0
LINE
  8
0
 10
273.364899
 20
20.300018
 11
276.000031
 21
20.300018
  0
LINE
  8
0
 10
273.500031
 20
36.500015
 11
273.867340
 21
36.500015
  0
LINE
  8
0
 10
274.500031
 20
31.500015
 11
280.500031
 21
31.500015
  0
LINE
  8
0
 10
274.500031
 20
38.500015
 11
274.500031
 21
31.500015
  0
LINE
  8
0
 10
274.200012
 20
33.191700
 11
274.200012
 21
31.200012
  0
LINE
  8
0
 10
274.200012
 20
31.200012
 11
276.500031
 21
31.200012
  0
LINE
  8
0
 10
276.500061
 20
31.199986
 11
276.800049
 21
31.499989
  0
LINE
  8
0
 10
277.000031
 20
24.595879
 11
277.000031
 21
21.300018
  0
LINE
  8
0
 10
278.800018
 20
31.500015
 11
278.800018
 21
30.895462
  0
LINE
  8
0
 10
277.000031
 20
24.595873
 11
278.900024
 21
25.692835
  0
LINE
  8
0
 10
277.000031
 20
21.300018
 11
278.000031
 21
21.300018
  0
LINE
  8
0
 10
277.000031
 20
24.300018
 11
278.000031
 21
24.300018
  0
LINE
  8
0
 10
277.000031
 20
21.570518
 11
278.270538
 21
21.570518
  0
LINE
  8
0
 10
277.000031
 20
24.029518
 11
278.270538
 21
24.029518
  0
LINE
  8
0
 10
278.899597
 20
28.596296
 11
279.522675
 21
28.201067
  0
LINE
  8
0
 10
342.500031
 20
23.800018
 11
342.500031
 21
21.800018
  0
LINE
  8
0
 10
274.500031
 20
38.500015
 11
280.500031
 21
38.500015
  0
LINE
  8
0
 62
     4
 10
-305.118866
 20
-167.996246
 11
-305.118866
 21
-215.896255
  0
LINE
  8
0
 62
     4
 10
-328.618866
 20
-168.996246
 11
-328.618866
 21
-176.496246
  0
LINE
  8
0
 62
     4
 10
-328.618866
 20
-168.996262
 11
-327.752869
 21
-168.496262
  0
LINE
  8
0
 62
     4
 10
-327.752838
 20
-168.496246
 11
-316.484894
 21
-168.496246
  0
LINE
  8
0
 62
     4
 10
-315.618927
 20
-168.996277
 11
-316.484955
 21
-168.496277
  0
LINE
  8
0
 62
     4
 10
-315.618866
 20
-168.996246
 11
-315.618866
 21
-176.496246
  0
LINE
  8
0
 62
     4
 10
-305.118866
 20
-167.996246
 11
-339.118866
 21
-167.996246
  0
LINE
  8
0
 62
     4
 10
-339.118866
 20
-167.996246
 11
-339.118866
 21
-215.896255
  0
LINE
  8
0
 62
     4
 10
-305.118866
 20
-215.896255
 11
-339.118866
 21
-215.896255
  0
LINE
  8
0
 62
     4
 10
-305.118866
 20
-201.996246
 11
-339.118866
 21
-201.996246
  0
LINE
  8
0
 62
     4
 10
-305.118866
 20
-184.996246
 11
-339.118866
 21
-184.996246
  0
LINE
  8
0
 62
     4
 10
-305.118866
 20
-176.496246
 11
-339.118866
 21
-176.496246
  0
LINE
  8
0
 62
     4
 10
-305.118866
 20
-171.788513
 11
-315.618866
 21
-171.788513
  0
LINE
  8
0
 62
     4
 10
-306.118866
 20
-177.496246
 11
-306.118866
 21
-184.996246
  0
LINE
  8
0
 62
     4
 10
-306.118896
 20
-177.496262
 11
-306.984924
 21
-176.996277
  0
LINE
  8
0
 62
     4
 10
-318.252838
 20
-176.996246
 11
-306.984894
 21
-176.996246
  0
LINE
  8
0
 62
     4
 10
-319.118866
 20
-177.496262
 11
-318.252869
 21
-176.996277
  0
LINE
  8
0
 62
     4
 10
-319.118866
 20
-177.496246
 11
-319.118866
 21
-184.996246
  0
LINE
  8
0
 62
     4
 10
-325.118866
 20
-177.496246
 11
-325.118866
 21
-184.996246
  0
LINE
  8
0
 62
     4
 10
-325.118866
 20
-177.496292
 11
-325.984894
 21
-176.996292
  0
LINE
  8
0
 62
     4
 10
-337.252838
 20
-176.996246
 11
-325.984894
 21
-176.996246
  0
LINE
  8
0
 62
     4
 10
-338.118866
 20
-177.496231
 11
-337.252838
 21
-176.996231
  0
LINE
  8
0
 62
     4
 10
-338.118866
 20
-177.496246
 11
-338.118866
 21
-184.996246
  0
LINE
  8
0
 62
     4
 10
-328.618866
 20
-171.788513
 11
-339.118866
 21
-171.788513
  0
LINE
  8
0
 62
     4
 10
-305.118866
 20
-182.496246
 11
-306.118866
 21
-182.496246
  0
LINE
  8
0
 62
     4
 10
-305.118866
 20
-184.496246
 11
-306.118866
 21
-184.496246
  0
LINE
  8
0
 62
     4
 10
-319.118866
 20
-182.496246
 11
-325.118866
 21
-182.496246
  0
LINE
  8
0
 62
     4
 10
-319.118866
 20
-184.496246
 11
-325.118866
 21
-184.496246
  0
LINE
  8
0
 62
     4
 10
-338.118866
 20
-182.496246
 11
-339.118866
 21
-182.496246
  0
LINE
  8
0
 62
     4
 10
-338.118866
 20
-184.496246
 11
-339.118866
 21
-184.496246
  0
LINE
  8
0
  6
CENTER
 62
     1
 10
-322.118866
 20
-163.496246
 11
-322.118866
 21
-228.142929
  0
LINE
  8
0
  6
CENTER
 62
     1
 10
-312.618866
 20
-171.788513
 11
-312.618866
 21
-189.996246
  0
LINE
  8
0
  6
CENTER
 62
     1
 10
-331.618866
 20
-171.788513
 11
-331.618866
 21
-189.996246
  0
LINE
  8
0
  6
CENTER
 62
     1
 10
-367.118866
 20
-183.496246
 11
-244.118866
 21
-183.496246
  0
LINE
  8
0
 62
     4
 10
-249.118866
 20
-174.746246
 11
-249.118866
 21
-192.246246
  0
LINE
  8
0
 62
     4
 10
-305.118866
 20
-193.496246
 11
-260.118866
 21
-193.496246
  0
LINE
  8
0
 62
     4
 10
-305.118866
 20
-173.496246
 11
-260.118866
 21
-173.496246
  0
LINE
  8
0
 62
     4
 10
-362.118866
 20
-181.996246
 11
-362.118866
 21
-184.996246
  0
LINE
  8
0
 62
     4
 10
-259.118866
 20
-174.496246
 11
-259.118866
 21
-192.496246
  0
LINE
  8
0
 62
     4
 10
-260.118866
 20
-173.496262
 11
-259.118866
 21
-174.496262
  0
LINE
  8
0
 62
     4
 10
-259.118866
 20
-192.496246
 11
-260.118866
 21
-193.496246
  0
LINE
  8
0
 62
     4
 10
-259.118866
 20
-192.246246
 11
-249.118866
 21
-192.246246
  0
LINE
  8
0
 62
     4
 10
-259.118866
 20
-174.746246
 11
-249.118866
 21
-174.746246
  0
LINE
  8
0
 62
     4
 10
-253.118866
 20
-174.746246
 11
-253.118866
 21
-192.246246
  0
LINE
  8
0
 62
     4
 10
-340.118866
 20
-174.496246
 11
-340.118866
 21
-192.496246
  0
LINE
  8
0
 62
     4
 10
-339.118866
 20
-173.496246
 11
-340.118866
 21
-174.496246
  0
LINE
  8
0
 62
     4
 10
-340.118866
 20
-192.496246
 11
-339.118866
 21
-193.496262
  0
LINE
  8
0
  6
CENTER
 62
     1
 10
-260.118866
 20
-193.496246
 11
-260.118866
 21
-187.855148
  0
LINE
  8
0
 62
     4
 10
-361.118866
 20
-185.996246
 11
-340.118866
 21
-185.996246
  0
LINE
  8
0
 62
     4
 10
-361.118866
 20
-180.996246
 11
-340.118866
 21
-180.996246
  0
LINE
  8
0
 62
     4
 10
-361.118866
 20
-180.996262
 11
-362.118866
 21
-181.996262
  0
LINE
  8
0
 62
     4
 10
-362.118835
 20
-184.996246
 11
-361.118866
 21
-185.996246
  0
LINE
  8
0
 62
     4
 10
-361.118866
 20
-180.996246
 11
-361.118866
 21
-185.996246
  0
LINE
  8
0
 62
     4
 10
-274.118866
 20
-179.137360
 11
-259.118866
 21
-179.137360
  0
LINE
  8
0
 62
     4
 10
-274.118866
 20
-187.855148
 11
-259.118866
 21
-187.855148
  0
LINE
  8
0
 62
     4
 10
-260.118866
 20
-179.137360
 11
-260.118866
 21
-173.496246
  0
LINE
  8
0
 62
     4
 10
-274.118866
 20
-179.137360
 11
-274.118866
 21
-187.855148
  0
LINE
  8
0
 62
     1
 10
-274.118866
 20
-179.137329
 11
-259.118866
 21
-187.855133
  0
LINE
  8
0
 62
     1
 10
-259.118866
 20
-179.137360
 11
-274.118866
 21
-187.855164
  0
LINE
  8
0
 62
     1
 10
-340.118866
 20
-174.496246
 11
-339.118866
 21
-174.496246
  0
LINE
  8
0
 62
     1
 10
-340.118866
 20
-192.496246
 11
-339.118866
 21
-192.496246
  0
LINE
  8
0
 62
     1
 10
-305.118866
 20
-192.496246
 11
-259.118866
 21
-192.496246
  0
LINE
  8
0
 62
     1
 10
-305.118866
 20
-174.496246
 11
-259.118866
 21
-174.496246
  0
LINE
  8
0
 62
     4
 10
-328.618866
 20
-168.996246
 11
-315.618866
 21
-168.996246
  0
LINE
  8
0
 62
     4
 10
-338.118866
 20
-177.496246
 11
-325.118866
 21
-177.496246
  0
LINE
  8
0
 62
     4
 10
-319.118866
 20
-177.496246
 11
-306.118866
 21
-177.496246
  0
LINE
  8
0
 62
     4
 10
-305.118958
 20
-137.496292
 11
-305.118958
 21
-43.496292
  0
LINE
  8
0
 62
     4
 10
-305.118958
 20
-137.496292
 11
-339.118958
 21
-137.496292
  0
LINE
  8
0
 62
     4
 10
-305.118958
 20
-73.496292
 11
-339.118958
 21
-73.496292
  0
LINE
  8
0
 62
     4
 10
-305.118958
 20
-59.496292
 11
-339.118958
 21
-59.496292
  0
LINE
  8
0
 62
     4
 10
-305.118958
 20
-43.496292
 11
-339.118958
 21
-43.496292
  0
LINE
  8
0
 62
     4
 10
-305.118958
 20
-107.496292
 11
-339.118958
 21
-107.496292
  0
LINE
  8
0
 62
     4
 10
-305.118958
 20
-121.496292
 11
-339.118958
 21
-121.496292
  0
LINE
  8
0
 62
     4
 10
-339.118958
 20
-137.496292
 11
-339.118958
 21
-43.496292
  0
LINE
  8
0
 62
     4
 10
-331.618896
 20
-55.960365
 11
-334.618866
 21
-54.228317
  0
LINE
  8
0
 62
     4
 10
-328.618896
 20
-50.764172
 11
-331.618896
 21
-49.032131
  0
LINE
  8
0
 62
     4
 10
-334.618958
 20
-50.764259
 11
-331.618958
 21
-49.032204
  0
LINE
  8
0
 62
     4
 10
-331.618927
 20
-55.960396
 11
-328.618927
 21
-54.228348
  0
LINE
  8
0
 62
     4
 10
-334.618958
 20
-54.228340
 11
-334.618958
 21
-50.764236
  0
LINE
  8
0
 62
     4
 10
-328.618958
 20
-54.228340
 11
-328.618958
 21
-50.764236
  0
LINE
  8
0
 62
     4
 10
-309.618896
 20
-126.764214
 11
-312.618896
 21
-125.032166
  0
LINE
  8
0
 62
     4
 10
-312.618896
 20
-131.960419
 11
-309.618896
 21
-130.228378
  0
LINE
  8
0
 62
     4
 10
-309.618958
 20
-130.228333
 11
-309.618958
 21
-126.764236
  0
LINE
  8
0
 62
     4
 10
-312.618958
 20
-131.960403
 11
-315.618927
 21
-130.228348
  0
LINE
  8
0
 62
     4
 10
-315.618958
 20
-130.228333
 11
-315.618958
 21
-126.764236
  0
LINE
  8
0
 62
     4
 10
-315.618927
 20
-126.764275
 11
-312.618958
 21
-125.032234
  0
LINE
  8
0
 62
     4
 10
-319.118896
 20
-112.764221
 11
-322.118896
 21
-111.032173
  0
LINE
  8
0
 62
     4
 10
-322.118958
 20
-117.960426
 11
-319.118927
 21
-116.228378
  0
LINE
  8
0
 62
     4
 10
-319.118958
 20
-116.228348
 11
-319.118958
 21
-112.764236
  0
LINE
  8
0
 62
     4
 10
-322.118958
 20
-117.960396
 11
-325.118958
 21
-116.228348
  0
LINE
  8
0
 62
     4
 10
-325.118958
 20
-116.228348
 11
-325.118958
 21
-112.764236
  0
LINE
  8
0
 62
     4
 10
-325.118958
 20
-112.764282
 11
-322.118958
 21
-111.032219
  0
LINE
  8
0
 62
     4
 10
-328.618896
 20
-126.764221
 11
-331.618896
 21
-125.032166
  0
LINE
  8
0
 62
     4
 10
-331.618927
 20
-131.960403
 11
-328.618958
 21
-130.228348
  0
LINE
  8
0
 62
     4
 10
-328.618958
 20
-130.228333
 11
-328.618958
 21
-126.764236
  0
LINE
  8
0
 62
     4
 10
-331.618927
 20
-131.960388
 11
-334.618958
 21
-130.228333
  0
LINE
  8
0
 62
     4
 10
-334.618958
 20
-130.228333
 11
-334.618958
 21
-126.764236
  0
LINE
  8
0
 62
     4
 10
-334.618927
 20
-126.764275
 11
-331.618927
 21
-125.032219
  0
LINE
  8
0
 62
     4
 10
-309.618927
 20
-50.764156
 11
-312.618896
 21
-49.032120
  0
LINE
  8
0
 62
     4
 10
-312.618958
 20
-55.960438
 11
-309.618927
 21
-54.228378
  0
LINE
  8
0
 62
     4
 10
-309.618958
 20
-54.228340
 11
-309.618958
 21
-50.764236
  0
LINE
  8
0
 62
     4
 10
-312.618896
 20
-55.960316
 11
-315.618896
 21
-54.228279
  0
LINE
  8
0
 62
     4
 10
-315.618958
 20
-54.228340
 11
-315.618958
 21
-50.764236
  0
LINE
  8
0
 62
     4
 10
-315.618958
 20
-50.764263
 11
-312.618927
 21
-49.032211
  0
LINE
  8
0
  6
CENTER
 62
     1
 10
-302.618958
 20
-52.496292
 11
-341.618958
 21
-52.496292
  0
LINE
  8
0
  6
CENTER
 62
     1
 10
-312.618958
 20
-42.496292
 11
-312.618958
 21
-62.496292
  0
LINE
  8
0
  6
CENTER
 62
     1
 10
-331.618958
 20
-42.496292
 11
-331.618958
 21
-62.496292
  0
LINE
  8
0
  6
CENTER
 62
     1
 10
-322.118958
 20
-35.844414
 11
-322.118958
 21
-148.244415
  0
LINE
  8
0
  6
CENTER
 62
     1
 10
-312.118958
 20
-114.496292
 11
-332.118958
 21
-114.496292
  0
LINE
  8
0
  6
CENTER
 62
     1
 10
-302.618958
 20
-128.496292
 11
-341.618958
 21
-128.496292
  0
LINE
  8
0
  6
CENTER
 62
     1
 10
-312.618958
 20
-138.496292
 11
-312.618958
 21
-118.496292
  0
LINE
  8
0
  6
CENTER
 62
     1
 10
-331.618958
 20
-138.496292
 11
-331.618958
 21
-118.496292
  0
LINE
  8
0
 62
     4
 10
-249.118958
 20
-81.746292
 11
-249.118958
 21
-99.246292
  0
LINE
  8
0
  6
DASHED
 62
     1
 10
-339.118958
 20
-100.496292
 11
-305.118958
 21
-100.496292
  0
LINE
  8
0
  6
DASHED
 62
     1
 10
-339.118958
 20
-80.496292
 11
-305.118958
 21
-80.496292
  0
LINE
  8
0
 62
     4
 10
-362.118958
 20
-88.996292
 11
-362.118958
 21
-91.996292
  0
LINE
  8
0
 62
     4
 10
-259.118958
 20
-81.496292
 11
-259.118958
 21
-99.496292
  0
LINE
  8
0
 62
     4
 10
-259.118958
 20
-99.246292
 11
-249.118958
 21
-99.246292
  0
LINE
  8
0
 62
     4
 10
-259.118958
 20
-81.746292
 11
-249.118958
 21
-81.746292
  0
LINE
  8
0
 62
     4
 10
-253.118958
 20
-81.746292
 11
-253.118958
 21
-99.246292
  0
LINE
  8
0
 62
     4
 10
-339.118927
 20
-80.496284
 11
-340.118927
 21
-81.496284
  0
LINE
  8
0
 62
     4
 10
-340.118958
 20
-99.496300
 11
-339.118958
 21
-100.496300
  0
LINE
  8
0
 62
     4
 10
-260.118958
 20
-99.496292
 11
-260.118958
 21
-81.496292
  0
LINE
  8
0
 62
     4
 10
-361.118958
 20
-92.996292
 11
-340.118958
 21
-92.996292
  0
LINE
  8
0
 62
     4
 10
-361.118958
 20
-87.996292
 11
-340.118958
 21
-87.996292
  0
LINE
  8
0
 62
     4
 10
-361.118927
 20
-87.996292
 11
-362.118927
 21
-88.996300
  0
LINE
  8
0
 62
     4
 10
-362.118958
 20
-91.996292
 11
-361.118958
 21
-92.996277
  0
LINE
  8
0
 62
     4
 10
-361.118958
 20
-87.996292
 11
-361.118958
 21
-92.996292
  0
LINE
  8
0
 62
     1
 10
-305.118958
 20
-99.496292
 11
-274.118927
 21
-99.496292
  0
LINE
  8
0
 62
     1
 10
-305.118958
 20
-81.496292
 11
-274.118927
 21
-81.496292
  0
LINE
  8
0
 62
     4
 10
-275.118927
 20
-80.496284
 11
-274.118927
 21
-81.496284
  0
LINE
  8
0
 62
     4
 10
-275.118958
 20
-100.496315
 11
-274.118958
 21
-99.496307
  0
LINE
  8
0
 62
     4
 10
-305.118958
 20
-100.496292
 11
-275.118958
 21
-100.496292
  0
LINE
  8
0
 62
     4
 10
-305.118958
 20
-80.496292
 11
-275.118958
 21
-80.496292
  0
LINE
  8
0
 62
     1
 10
-339.118958
 20
-99.496292
 11
-340.118958
 21
-99.496292
  0
LINE
  8
0
 62
     1
 10
-339.118958
 20
-81.496292
 11
-340.118958
 21
-81.496292
  0
LINE
  8
0
  6
DASHED
 62
     1
 10
-305.118958
 20
-81.496292
 11
-339.118958
 21
-81.496292
  0
LINE
  8
0
  6
DASHED
 62
     1
 10
-305.118958
 20
-99.496292
 11
-339.118958
 21
-99.496292
  0
LINE
  8
0
 62
     4
 10
-274.118927
 20
-81.496292
 11
-259.118958
 21
-81.496292
  0
LINE
  8
0
 62
     4
 10
-274.118927
 20
-99.496292
 11
-259.118958
 21
-99.496292
  0
LINE
  8
0
  6
CENTER
 62
     1
 10
-365.515778
 20
-90.496292
 11
-245.031982
 21
-90.496292
  0
LINE
  8
0
 62
     4
 10
-340.118958
 20
-81.496292
 11
-340.118958
 21
-99.496315
  0
LINE
  8
0
 62
     4
 10
-159.118912
 20
-197.996277
 11
-159.118912
 21
-205.488052
  0
LINE
  8
0
 62
     4
 10
-223.118912
 20
-197.996277
 11
-223.118912
 21
-205.488052
  0
LINE
  8
0
 62
     4
 10
-223.118896
 20
-205.488052
 11
-221.118896
 21
-207.166260
  0
LINE
  8
0
 62
     4
 10
-233.718903
 20
-197.496277
 11
-217.775757
 21
-197.496277
  0
LINE
  8
0
 62
     4
 10
-159.118927
 20
-205.488052
 11
-161.118912
 21
-207.166245
  0
LINE
  8
0
 62
     4
 10
-148.518921
 20
-197.496277
 11
-164.462067
 21
-197.496277
  0
LINE
  8
0
 62
     4
 10
-144.118912
 20
-186.996277
 11
-144.118912
 21
-211.896271
  0
LINE
  8
0
 62
     4
 10
-238.118912
 20
-186.996277
 11
-238.118912
 21
-211.896271
  0
LINE
  8
0
 62
     4
 10
-234.118912
 20
-197.896271
 11
-234.118912
 21
-201.996277
  0
LINE
  8
0
 62
     4
 10
-148.118912
 20
-197.896271
 11
-148.118912
 21
-201.996277
  0
LINE
  8
0
 62
     4
 10
-238.118912
 20
-201.996277
 11
-234.118912
 21
-201.996277
  0
LINE
  8
0
 62
     4
 10
-148.118912
 20
-201.996277
 11
-144.118912
 21
-201.996277
  0
LINE
  8
0
 62
     4
 10
-236.118912
 20
-184.996277
 11
-222.518921
 21
-184.996277
  0
LINE
  8
0
 62
     4
 10
-160.118912
 20
-177.496277
 11
-160.118912
 21
-184.596283
  0
LINE
  8
0
 62
     4
 10
-222.118912
 20
-177.496277
 11
-222.118912
 21
-182.496277
  0
LINE
  8
0
 62
     4
 10
-159.718903
 20
-184.996277
 11
-146.118912
 21
-184.996277
  0
LINE
  8
0
 62
     4
 10
-221.618912
 20
-176.496277
 11
-208.518921
 21
-176.496277
  0
LINE
  8
0
 62
     4
 10
-174.118912
 20
-173.082092
 11
-174.118912
 21
-176.096283
  0
LINE
  8
0
 62
     4
 10
-208.118912
 20
-173.082092
 11
-208.118912
 21
-176.096283
  0
LINE
  8
0
 62
     4
 10
-173.718918
 20
-176.496277
 11
-161.118912
 21
-176.496277
  0
LINE
  8
0
 62
     4
 10
-222.118912
 20
-184.496277
 11
-201.068787
 21
-184.496277
  0
LINE
  8
0
 62
     4
 10
-222.118912
 20
-182.496277
 11
-201.068787
 21
-182.496277
  0
LINE
  8
0
 62
     4
 10
-222.118912
 20
-184.496277
 11
-222.118912
 21
-184.596283
  0
LINE
  8
0
 62
     4
 10
-234.118912
 20
-197.996277
 11
-223.118912
 21
-197.996277
  0
LINE
  8
0
 62
     4
 10
-234.118912
 20
-215.896271
 11
-223.118912
 21
-215.896271
  0
LINE
  8
0
 62
     4
 10
-233.118912
 20
-197.496277
 11
-233.118912
 21
-197.996277
  0
LINE
  8
0
 62
     4
 10
-225.118912
 20
-197.496277
 11
-225.118912
 21
-197.996277
  0
LINE
  8
0
 62
     4
 10
-220.752884
 20
-168.496277
 11
-209.484940
 21
-168.496277
  0
LINE
  8
0
 62
     4
 10
-221.618912
 20
-168.996277
 11
-221.618912
 21
-176.496277
  0
LINE
  8
0
 62
     4
 10
-208.618912
 20
-168.996277
 11
-208.618912
 21
-176.496277
  0
LINE
  8
0
 62
     4
 10
-221.618912
 20
-168.996292
 11
-220.752884
 21
-168.496292
  0
LINE
  8
0
 62
     4
 10
-208.618912
 20
-168.996277
 11
-209.484940
 21
-168.496277
  0
LINE
  8
0
 62
     4
 10
-148.118912
 20
-215.896271
 11
-159.118912
 21
-215.896271
  0
LINE
  8
0
 62
     4
 10
-149.118912
 20
-197.496277
 11
-149.118912
 21
-197.996277
  0
LINE
  8
0
 62
     4
 10
-148.118912
 20
-197.996277
 11
-159.118912
 21
-197.996277
  0
LINE
  8
0
 62
     4
 10
-157.118912
 20
-197.496277
 11
-157.118912
 21
-197.996277
  0
LINE
  8
0
 62
     4
 10
-235.618912
 20
-177.496277
 11
-235.618912
 21
-184.996277
  0
LINE
  8
0
 62
     4
 10
-235.618912
 20
-177.496292
 11
-234.752884
 21
-176.996292
  0
LINE
  8
0
 62
     4
 10
-234.752884
 20
-176.996277
 11
-223.484940
 21
-176.996277
  0
LINE
  8
0
 62
     4
 10
-222.618912
 20
-177.496277
 11
-223.484940
 21
-176.996277
  0
LINE
  8
0
 62
     4
 10
-222.618912
 20
-177.496277
 11
-222.618912
 21
-184.996277
  0
LINE
  8
0
 62
     4
 10
-159.618912
 20
-177.496277
 11
-159.618912
 21
-184.996277
  0
LINE
  8
0
 62
     4
 10
-159.618912
 20
-177.496277
 11
-158.752884
 21
-176.996277
  0
LINE
  8
0
 62
     4
 10
-147.484940
 20
-176.996277
 11
-158.752884
 21
-176.996277
  0
LINE
  8
0
 62
     4
 10
-146.618881
 20
-177.496292
 11
-147.484909
 21
-176.996292
  0
LINE
  8
0
 62
     4
 10
-146.618912
 20
-177.496277
 11
-146.618912
 21
-184.996277
  0
LINE
  8
0
 62
     4
 10
-219.118912
 20
-182.496277
 11
-219.118912
 21
-184.496277
  0
LINE
  8
0
 62
     4
 10
-211.118912
 20
-182.496277
 11
-211.118912
 21
-184.496277
  0
LINE
  8
0
  6
CENTER
 62
     1
 10
-206.118912
 20
-183.496277
 11
-176.118912
 21
-183.496277
  0
LINE
  8
0
  6
CENTER
 62
     1
 10
-229.118912
 20
-171.996277
 11
-229.118912
 21
-202.996277
  0
LINE
  8
0
  6
CENTER
 62
     1
 10
-215.118912
 20
-163.496277
 11
-215.118912
 21
-189.496277
  0
LINE
  8
0
  6
CENTER
 62
     1
 10
-153.118912
 20
-171.996277
 11
-153.118912
 21
-202.996277
  0
LINE
  8
0
 62
     1
 10
-212.118912
 20
-182.496277
 11
-212.118912
 21
-184.496277
  0
LINE
  8
0
 62
     1
 10
-218.118912
 20
-182.496277
 11
-218.118912
 21
-184.496277
  0
LINE
  8
0
 62
     1
 10
-232.118912
 20
-197.496277
 11
-232.118912
 21
-197.996277
  0
LINE
  8
0
 62
     1
 10
-226.118912
 20
-197.496277
 11
-226.118912
 21
-197.996277
  0
LINE
  8
0
 62
     1
 10
-156.118912
 20
-197.496277
 11
-156.118912
 21
-197.996277
  0
LINE
  8
0
 62
     1
 10
-150.118912
 20
-197.496277
 11
-150.118912
 21
-197.996277
  0
LINE
  8
0
 62
     4
 10
-200.118912
 20
-179.137375
 11
-200.118912
 21
-187.855179
  0
LINE
  8
0
 62
     4
 10
-182.118912
 20
-179.137375
 11
-182.118912
 21
-187.855179
  0
LINE
  8
0
  6
CENTER
 62
     1
 10
-191.118912
 20
-162.894302
 11
-191.118912
 21
-200.043228
  0
LINE
  8
0
 62
     4
 10
-221.118896
 20
-207.166260
 11
-221.118896
 21
-215.657639
  0
LINE
  8
0
 62
     4
 10
-161.118927
 20
-207.166260
 11
-161.118927
 21
-215.657639
  0
LINE
  8
0
 62
     4
 10
-221.618912
 20
-168.996292
 11
-208.618912
 21
-168.996292
  0
LINE
  8
0
 62
     4
 10
-235.618912
 20
-177.496307
 11
-222.618912
 21
-177.496307
  0
LINE
  8
0
 62
     4
 10
-159.618912
 20
-177.496307
 11
-146.618912
 21
-177.496307
  0
LINE
  8
0
 62
     4
 10
-40.118855
 20
-167.996246
 11
-40.118855
 21
-215.896255
  0
LINE
  8
0
 62
     4
 10
-63.618855
 20
-168.996246
 11
-63.618855
 21
-176.496246
  0
LINE
  8
0
 62
     4
 10
-63.618847
 20
-168.996246
 11
-62.752850
 21
-168.496262
  0
LINE
  8
0
 62
     4
 10
-62.752827
 20
-168.496246
 11
-51.484882
 21
-168.496246
  0
LINE
  8
0
 62
     4
 10
-50.618927
 20
-168.996292
 11
-51.484955
 21
-168.496292
  0
LINE
  8
0
 62
     4
 10
-50.618855
 20
-168.996246
 11
-50.618855
 21
-176.496246
  0
LINE
  8
0
 62
     4
 10
-40.118855
 20
-167.996246
 11
-74.118851
 21
-167.996246
  0
LINE
  8
0
 62
     4
 10
-74.118851
 20
-167.996246
 11
-74.118851
 21
-215.896255
  0
LINE
  8
0
 62
     4
 10
-40.118855
 20
-215.896255
 11
-74.118851
 21
-215.896255
  0
LINE
  8
0
 62
     4
 10
-40.118855
 20
-201.996246
 11
-74.118851
 21
-201.996246
  0
LINE
  8
0
 62
     4
 10
-40.118855
 20
-184.996246
 11
-74.118851
 21
-184.996246
  0
LINE
  8
0
 62
     4
 10
-40.118855
 20
-176.496246
 11
-74.118851
 21
-176.496246
  0
LINE
  8
0
 62
     4
 10
-40.118855
 20
-171.788513
 11
-50.618855
 21
-171.788513
  0
LINE
  8
0
 62
     4
 10
-41.118855
 20
-177.496246
 11
-41.118855
 21
-184.996246
  0
LINE
  8
0
 62
     4
 10
-41.118904
 20
-177.496292
 11
-41.984932
 21
-176.996307
  0
LINE
  8
0
 62
     4
 10
-53.252827
 20
-176.996246
 11
-41.984882
 21
-176.996246
  0
LINE
  8
0
 62
     4
 10
-54.118851
 20
-177.496262
 11
-53.252853
 21
-176.996277
  0
LINE
  8
0
 62
     4
 10
-54.118855
 20
-177.496246
 11
-54.118855
 21
-184.996246
  0
LINE
  8
0
 62
     4
 10
-60.118855
 20
-177.496246
 11
-60.118855
 21
-184.996246
  0
LINE
  8
0
 62
     4
 10
-60.118870
 20
-177.496307
 11
-60.984894
 21
-176.996307
  0
LINE
  8
0
 62
     4
 10
-72.252823
 20
-176.996246
 11
-60.984882
 21
-176.996246
  0
LINE
  8
0
 62
     4
 10
-73.118858
 20
-177.496231
 11
-72.252831
 21
-176.996231
  0
LINE
  8
0
 62
     4
 10
-73.118851
 20
-177.496246
 11
-73.118851
 21
-184.996246
  0
LINE
  8
0
 62
     4
 10
-63.618855
 20
-171.788513
 11
-74.118851
 21
-171.788513
  0
LINE
  8
0
 62
     4
 10
-40.118855
 20
-182.496246
 11
-41.118855
 21
-182.496246
  0
LINE
  8
0
 62
     4
 10
-40.118855
 20
-184.496246
 11
-41.118855
 21
-184.496246
  0
LINE
  8
0
 62
     4
 10
-54.118855
 20
-182.496246
 11
-60.118855
 21
-182.496246
  0
LINE
  8
0
 62
     4
 10
-54.118855
 20
-184.496246
 11
-60.118855
 21
-184.496246
  0
LINE
  8
0
 62
     4
 10
-73.118851
 20
-182.496246
 11
-74.118851
 21
-182.496246
  0
LINE
  8
0
 62
     4
 10
-73.118851
 20
-184.496246
 11
-74.118851
 21
-184.496246
  0
LINE
  8
0
 62
     4
 10
-35.318817
 20
-173.496201
 11
-34.118832
 21
-175.574661
  0
LINE
  8
0
 62
     4
 10
-35.318867
 20
-193.496246
 11
-35.318867
 21
-173.496246
  0
LINE
  8
0
 62
     4
 10
-34.118855
 20
-175.574707
 11
-34.118855
 21
-191.417786
  0
LINE
  8
0
 62
     4
 10
-35.318871
 20
-193.496277
 11
-34.118889
 21
-191.417801
  0
LINE
  8
0
 62
     4
 10
-74.118851
 20
-175.496246
 11
-75.118851
 21
-175.496246
  0
LINE
  8
0
 62
     4
 10
-74.118851
 20
-191.496246
 11
-75.118851
 21
-191.496246
  0
LINE
  8
0
  6
CENTER
 62
     1
 10
-29.118862
 20
-183.496246
 11
-80.118851
 21
-183.496246
  0
LINE
  8
0
 62
     4
 10
-35.318836
 20
-173.496246
 11
-40.118855
 21
-173.496246
  0
LINE
  8
0
 62
     4
 10
-35.318867
 20
-193.496246
 11
-40.118855
 21
-193.496246
  0
LINE
  8
0
 62
     1
 10
-34.118855
 20
-191.496246
 11
-40.118855
 21
-191.496246
  0
LINE
  8
0
 62
     1
 10
-34.118855
 20
-175.496246
 11
-40.118855
 21
-175.496246
  0
LINE
  8
0
 62
     4
 10
-75.118851
 20
-191.496246
 11
-75.118851
 21
-175.496246
  0
LINE
  8
0
  6
CENTER
 62
     1
 10
-57.118855
 20
-163.496246
 11
-57.118855
 21
-227.659973
  0
LINE
  8
0
  6
CENTER
 62
     1
 10
-47.618855
 20
-171.788513
 11
-47.618855
 21
-189.996246
  0
LINE
  8
0
  6
CENTER
 62
     1
 10
-66.618851
 20
-171.788513
 11
-66.618851
 21
-189.996246
  0
LINE
  8
0
 62
     4
 10
-40.118935
 20
-137.496307
 11
-40.118935
 21
-43.496307
  0
LINE
  8
0
 62
     4
 10
-40.118935
 20
-137.496307
 11
-74.118935
 21
-137.496307
  0
LINE
  8
0
 62
     4
 10
-40.118935
 20
-73.496307
 11
-74.118935
 21
-73.496307
  0
LINE
  8
0
 62
     4
 10
-40.118935
 20
-59.496307
 11
-74.118935
 21
-59.496307
  0
LINE
  8
0
 62
     4
 10
-40.118935
 20
-43.496307
 11
-74.118935
 21
-43.496307
  0
LINE
  8
0
 62
     4
 10
-40.118935
 20
-107.496307
 11
-74.118935
 21
-107.496307
  0
LINE
  8
0
 62
     4
 10
-40.118935
 20
-121.496307
 11
-74.118935
 21
-121.496307
  0
LINE
  8
0
 62
     4
 10
-74.118935
 20
-137.496307
 11
-74.118935
 21
-43.496307
  0
LINE
  8
0
 62
     4
 10
-66.618866
 20
-55.960392
 11
-69.618843
 21
-54.228340
  0
LINE
  8
0
 62
     4
 10
-63.618870
 20
-50.764149
 11
-66.618851
 21
-49.032104
  0
LINE
  8
0
 62
     4
 10
-69.618935
 20
-50.764267
 11
-66.618927
 21
-49.032215
  0
LINE
  8
0
 62
     4
 10
-66.618919
 20
-55.960411
 11
-63.618908
 21
-54.228367
  0
LINE
  8
0
 62
     4
 10
-69.618935
 20
-54.228355
 11
-69.618935
 21
-50.764252
  0
LINE
  8
0
 62
     4
 10
-63.618935
 20
-54.228355
 11
-63.618935
 21
-50.764252
  0
LINE
  8
0
 62
     4
 10
-44.618874
 20
-126.764229
 11
-47.618885
 21
-125.032173
  0
LINE
  8
0
 62
     4
 10
-47.618832
 20
-131.960464
 11
-44.618851
 21
-130.228424
  0
LINE
  8
0
 62
     4
 10
-44.618935
 20
-130.228363
 11
-44.618935
 21
-126.764252
  0
LINE
  8
0
 62
     4
 10
-47.618946
 20
-131.960419
 11
-50.618923
 21
-130.228363
  0
LINE
  8
0
 62
     4
 10
-50.618935
 20
-130.228363
 11
-50.618935
 21
-126.764252
  0
LINE
  8
0
 62
     4
 10
-50.618881
 20
-126.764320
 11
-47.618900
 21
-125.032280
  0
LINE
  8
0
 62
     4
 10
-54.118866
 20
-112.764214
 11
-57.118874
 21
-111.032166
  0
LINE
  8
0
 62
     4
 10
-57.118900
 20
-117.960464
 11
-54.118893
 21
-116.228416
  0
LINE
  8
0
 62
     4
 10
-54.118935
 20
-116.228363
 11
-54.118935
 21
-112.764252
  0
LINE
  8
0
 62
     4
 10
-57.118938
 20
-117.960396
 11
-60.118916
 21
-116.228355
  0
LINE
  8
0
 62
     4
 10
-60.118935
 20
-116.228363
 11
-60.118935
 21
-112.764252
  0
LINE
  8
0
 62
     4
 10
-60.118896
 20
-112.764313
 11
-57.118893
 21
-111.032249
  0
LINE
  8
0
 62
     4
 10
-63.618889
 20
-126.764236
 11
-66.618896
 21
-125.032181
  0
LINE
  8
0
 62
     4
 10
-66.618904
 20
-131.960419
 11
-63.618931
 21
-130.228363
  0
LINE
  8
0
 62
     4
 10
-63.618935
 20
-130.228363
 11
-63.618935
 21
-126.764252
  0
LINE
  8
0
 62
     4
 10
-66.618919
 20
-131.960388
 11
-69.618927
 21
-130.228333
  0
LINE
  8
0
 62
     4
 10
-69.618935
 20
-130.228363
 11
-69.618935
 21
-126.764252
  0
LINE
  8
0
 62
     4
 10
-69.618896
 20
-126.764313
 11
-66.618889
 21
-125.032257
  0
LINE
  8
0
 62
     4
 10
-44.618870
 20
-50.764145
 11
-47.618858
 21
-49.032108
  0
LINE
  8
0
 62
     4
 10
-47.618900
 20
-55.960461
 11
-44.618893
 21
-54.228401
  0
LINE
  8
0
 62
     4
 10
-44.618935
 20
-54.228355
 11
-44.618935
 21
-50.764252
  0
LINE
  8
0
 62
     4
 10
-47.618881
 20
-55.960312
 11
-50.618866
 21
-54.228271
  0
LINE
  8
0
 62
     4
 10
-50.618935
 20
-54.228355
 11
-50.618935
 21
-50.764252
  0
LINE
  8
0
 62
     4
 10
-50.618919
 20
-50.764282
 11
-47.618908
 21
-49.032227
  0
LINE
  8
0
 62
     4
 10
-35.319004
 20
-80.496346
 11
-34.119019
 21
-82.574806
  0
LINE
  8
0
 62
     4
 10
-35.318916
 20
-100.496307
 11
-35.318916
 21
-80.496307
  0
LINE
  8
0
 62
     4
 10
-35.318993
 20
-100.496277
 11
-34.118980
 21
-98.417816
  0
LINE
  8
0
 62
     4
 10
-34.118935
 20
-82.574768
 11
-34.118935
 21
-98.417847
  0
LINE
  8
0
 62
     4
 10
-74.118935
 20
-82.496307
 11
-75.118935
 21
-82.496307
  0
LINE
  8
0
 62
     4
 10
-74.118935
 20
-98.496307
 11
-75.118935
 21
-98.496307
  0
LINE
  8
0
 62
     4
 10
-35.318916
 20
-80.496307
 11
-40.118935
 21
-80.496307
  0
LINE
  8
0
 62
     4
 10
-35.318947
 20
-100.496307
 11
-40.118935
 21
-100.496307
  0
LINE
  8
0
 62
     1
 10
-34.118935
 20
-98.496307
 11
-40.118935
 21
-98.496307
  0
LINE
  8
0
 62
     1
 10
-34.118935
 20
-82.496307
 11
-40.118935
 21
-82.496307
  0
LINE
  8
0
  6
CENTER
 62
     1
 10
-37.618935
 20
-52.496307
 11
-76.618935
 21
-52.496307
  0
LINE
  8
0
  6
CENTER
 62
     1
 10
-47.618935
 20
-42.496307
 11
-47.618935
 21
-62.496307
  0
LINE
  8
0
  6
CENTER
 62
     1
 10
-66.618935
 20
-42.496307
 11
-66.618935
 21
-62.496307
  0
LINE
  8
0
  6
CENTER
 62
     1
 10
-57.118935
 20
-37.467983
 11
-57.118935
 21
-145.365265
  0
LINE
  8
0
  6
CENTER
 62
     1
 10
-47.118935
 20
-114.496307
 11
-67.118935
 21
-114.496307
  0
LINE
  8
0
  6
CENTER
 62
     1
 10
-37.618935
 20
-128.496307
 11
-76.618935
 21
-128.496307
  0
LINE
  8
0
  6
CENTER
 62
     1
 10
-47.618935
 20
-138.496307
 11
-47.618935
 21
-118.496307
  0
LINE
  8
0
  6
CENTER
 62
     1
 10
-66.618935
 20
-138.496307
 11
-66.618935
 21
-118.496307
  0
LINE
  8
0
  6
DASHED
 62
     1
 10
-72.118935
 20
-80.496300
 11
-74.118935
 21
-82.496292
  0
LINE
  8
0
  6
DASHED
 62
     1
 10
-72.118927
 20
-100.496307
 11
-74.118927
 21
-98.496307
  0
LINE
  8
0
  6
DASHED
 62
     1
 10
-40.118935
 20
-98.496307
 11
-74.118935
 21
-98.496307
  0
LINE
  8
0
  6
DASHED
 62
     1
 10
-40.118935
 20
-100.496307
 11
-74.118935
 21
-100.496307
  0
LINE
  8
0
  6
DASHED
 62
     1
 10
-40.118935
 20
-80.496307
 11
-74.118935
 21
-80.496307
  0
LINE
  8
0
  6
DASHED
 62
     1
 10
-40.118935
 20
-82.496307
 11
-74.118935
 21
-82.496307
  0
LINE
  8
0
 62
     4
 10
-75.118935
 20
-82.496307
 11
-75.118935
 21
-98.496307
  0
LINE
  8
0
  6
CENTER
 62
     1
 10
-88.511780
 20
-90.496307
 11
-17.500774
 21
-90.496307
  0
LINE
  8
0
 62
     4
 10
81.881065
 20
-197.996307
 11
81.881065
 21
-205.488083
  0
LINE
  8
0
 62
     4
 10
17.881065
 20
-197.996307
 11
17.881065
 21
-205.488083
  0
LINE
  8
0
 62
     4
 10
17.881077
 20
-205.488083
 11
19.881073
 21
-207.166290
  0
LINE
  8
0
 62
     4
 10
7.281067
 20
-197.496307
 11
23.224220
 21
-197.496307
  0
LINE
  8
0
 62
     4
 10
81.881027
 20
-205.488083
 11
79.881035
 21
-207.166275
  0
LINE
  8
0
 62
     4
 10
92.481056
 20
-197.496307
 11
76.537910
 21
-197.496307
  0
LINE
  8
0
 62
     4
 10
96.881065
 20
-186.996307
 11
96.881065
 21
-211.896301
  0
LINE
  8
0
 62
     4
 10
2.881065
 20
-186.996307
 11
2.881065
 21
-211.896301
  0
LINE
  8
0
 62
     4
 10
6.881065
 20
-197.896301
 11
6.881065
 21
-201.996307
  0
LINE
  8
0
 62
     4
 10
92.881065
 20
-197.896301
 11
92.881065
 21
-201.996307
  0
LINE
  8
0
 62
     4
 10
2.881065
 20
-201.996307
 11
6.881065
 21
-201.996307
  0
LINE
  8
0
 62
     4
 10
92.881065
 20
-201.996307
 11
96.881065
 21
-201.996307
  0
LINE
  8
0
 62
     4
 10
4.881065
 20
-184.996307
 11
18.481064
 21
-184.996307
  0
LINE
  8
0
 62
     4
 10
80.881065
 20
-177.496307
 11
80.881065
 21
-184.596313
  0
LINE
  8
0
 62
     4
 10
18.881065
 20
-177.496307
 11
18.881065
 21
-182.496307
  0
LINE
  8
0
 62
     4
 10
81.281075
 20
-184.996307
 11
94.881065
 21
-184.996307
  0
LINE
  8
0
 62
     4
 10
19.381065
 20
-176.496307
 11
32.481064
 21
-176.496307
  0
LINE
  8
0
 62
     4
 10
66.881065
 20
-173.082123
 11
66.881065
 21
-176.096313
  0
LINE
  8
0
 62
     4
 10
32.881065
 20
-173.082123
 11
32.881065
 21
-176.096313
  0
LINE
  8
0
 62
     4
 10
67.281059
 20
-176.496307
 11
79.881065
 21
-176.496307
  0
LINE
  8
0
 62
     4
 10
18.881065
 20
-184.496307
 11
39.931190
 21
-184.496307
  0
LINE
  8
0
 62
     4
 10
18.881065
 20
-182.496307
 11
39.931190
 21
-182.496307
  0
LINE
  8
0
 62
     4
 10
6.881065
 20
-197.996307
 11
17.881065
 21
-197.996307
  0
LINE
  8
0
 62
     4
 10
6.881065
 20
-215.896301
 11
17.881065
 21
-215.896301
  0
LINE
  8
0
 62
     4
 10
7.881065
 20
-197.496307
 11
7.881065
 21
-197.996307
  0
LINE
  8
0
 62
     4
 10
15.881065
 20
-197.496307
 11
15.881065
 21
-197.996307
  0
LINE
  8
0
 62
     4
 10
20.247093
 20
-168.496307
 11
31.515038
 21
-168.496307
  0
LINE
  8
0
 62
     4
 10
19.381065
 20
-168.996307
 11
19.381065
 21
-176.496307
  0
LINE
  8
0
 62
     4
 10
32.381065
 20
-168.996307
 11
32.381065
 21
-176.496307
  0
LINE
  8
0
 62
     4
 10
19.381071
 20
-168.996307
 11
20.247097
 21
-168.496307
  0
LINE
  8
0
 62
     4
 10
32.381050
 20
-168.996323
 11
31.515024
 21
-168.496323
  0
LINE
  8
0
 62
     4
 10
92.881065
 20
-215.896301
 11
81.881065
 21
-215.896301
  0
LINE
  8
0
 62
     4
 10
91.881065
 20
-197.496307
 11
91.881065
 21
-197.996307
  0
LINE
  8
0
 62
     4
 10
92.881065
 20
-197.996307
 11
81.881065
 21
-197.996307
  0
LINE
  8
0
 62
     4
 10
83.881065
 20
-197.496307
 11
83.881065
 21
-197.996307
  0
LINE
  8
0
 62
     4
 10
5.381065
 20
-177.496307
 11
5.381065
 21
-184.996307
  0
LINE
  8
0
 62
     4
 10
5.381078
 20
-177.496323
 11
6.247103
 21
-176.996323
  0
LINE
  8
0
 62
     4
 10
6.247093
 20
-176.996307
 11
17.515038
 21
-176.996307
  0
LINE
  8
0
 62
     4
 10
18.381054
 20
-177.496307
 11
17.515028
 21
-176.996307
  0
LINE
  8
0
 62
     4
 10
18.381065
 20
-177.496307
 11
18.381065
 21
-184.996307
  0
LINE
  8
0
 62
     4
 10
81.381065
 20
-177.496307
 11
81.381065
 21
-184.996307
  0
LINE
  8
0
 62
     4
 10
81.381081
 20
-177.496307
 11
82.247108
 21
-176.996307
  0
LINE
  8
0
 62
     4
 10
93.515038
 20
-176.996307
 11
82.247093
 21
-176.996307
  0
LINE
  8
0
 62
     4
 10
94.381096
 20
-177.496323
 11
93.515068
 21
-176.996323
  0
LINE
  8
0
 62
     4
 10
94.381065
 20
-177.496307
 11
94.381065
 21
-184.996307
  0
LINE
  8
0
 62
     4
 10
21.881065
 20
-182.496307
 11
21.881065
 21
-184.496307
  0
LINE
  8
0
 62
     4
 10
29.881065
 20
-182.496307
 11
29.881065
 21
-184.496307
  0
LINE
  8
0
 62
     4
 10
49.881058
 20
-177.722794
 11
54.881054
 21
-180.609543
  0
LINE
  8
0
 62
     4
 10
44.881077
 20
-186.383041
 11
49.881073
 21
-189.269791
  0
LINE
  8
0
 62
     4
 10
44.881069
 20
-180.609558
 11
49.881065
 21
-177.722809
  0
LINE
  8
0
 62
     4
 10
49.881069
 20
-189.269806
 11
54.881065
 21
-186.383057
  0
LINE
  8
0
 62
     4
 10
44.881065
 20
-180.609558
 11
44.881065
 21
-186.383057
  0
LINE
  8
0
 62
     4
 10
54.881065
 20
-180.609558
 11
54.881065
 21
-186.383057
  0
LINE
  8
0
  6
CENTER
 62
     1
 10
34.881065
 20
-183.496307
 11
64.881065
 21
-183.496307
  0
LINE
  8
0
  6
CENTER
 62
     1
 10
11.881065
 20
-171.996307
 11
11.881065
 21
-202.996307
  0
LINE
  8
0
  6
CENTER
 62
     1
 10
25.881065
 20
-163.496307
 11
25.881065
 21
-189.496307
  0
LINE
  8
0
  6
CENTER
 62
     1
 10
87.881065
 20
-171.996307
 11
87.881065
 21
-202.996307
  0
LINE
  8
0
 62
     1
 10
28.881065
 20
-182.496307
 11
28.881065
 21
-184.496307
  0
LINE
  8
0
 62
     1
 10
22.881065
 20
-182.496307
 11
22.881065
 21
-184.496307
  0
LINE
  8
0
 62
     1
 10
8.881065
 20
-197.496307
 11
8.881065
 21
-197.996307
  0
LINE
  8
0
 62
     1
 10
14.881065
 20
-197.496307
 11
14.881065
 21
-197.996307
  0
LINE
  8
0
 62
     1
 10
84.881065
 20
-197.496307
 11
84.881065
 21
-197.996307
  0
LINE
  8
0
 62
     1
 10
90.881065
 20
-197.496307
 11
90.881065
 21
-197.996307
  0
LINE
  8
0
 62
     4
 10
19.381065
 20
-168.996323
 11
32.381065
 21
-168.996323
  0
LINE
  8
0
 62
     4
 10
5.381065
 20
-177.496338
 11
18.381065
 21
-177.496338
  0
LINE
  8
0
 62
     4
 10
19.881073
 20
-207.166290
 11
19.881073
 21
-215.657669
  0
LINE
  8
0
  6
CENTER
 62
     1
 10
49.881065
 20
-164.348877
 11
49.881065
 21
-198.880997
  0
LINE
  8
0
 62
     4
 10
79.881035
 20
-207.166290
 11
79.881035
 21
-215.657654
  0
LINE
  8
0
 62
     4
 10
81.381065
 20
-177.496338
 11
94.381065
 21
-177.496338
  0
LINE
  8
0
 62
     4
 10
205.085159
 20
-120.861275
 11
229.085159
 21
-120.861275
  0
LINE
  8
0
 62
     4
 10
210.085159
 20
-99.861275
 11
210.085159
 21
-112.861275
  0
LINE
  8
0
 62
     4
 10
212.385178
 20
-105.778084
 11
212.385178
 21
-113.944466
  0
LINE
  8
0
 62
     4
 10
213.085159
 20
-115.861275
 11
229.085159
 21
-115.861275
  0
LINE
  8
0
 62
     4
 10
229.085159
 20
-115.861275
 11
229.085159
 21
-120.861275
  0
LINE
  8
0
 62
     4
 10
205.085159
 20
-99.861275
 11
210.085159
 21
-99.861275
  0
LINE
  8
0
  6
CENTER
 62
     1
 10
214.686569
 20
-109.861275
 11
197.083664
 21
-109.861275
  0
LINE
  8
0
  6
CENTER
 62
     1
 10
217.585159
 20
-112.882149
 11
217.585159
 21
-123.622932
  0
LINE
  8
0
  6
DASHED
 62
     1
 10
224.585159
 20
-115.861275
 11
224.585159
 21
-116.861275
  0
LINE
  8
0
  6
DASHED
 62
     1
 10
210.585159
 20
-114.519600
 11
210.585159
 21
-116.861275
  0
LINE
  8
0
  6
DASHED
 62
     1
 10
222.085159
 20
-116.861275
 11
222.085159
 21
-120.861275
  0
LINE
  8
0
  6
DASHED
 62
     1
 10
213.085159
 20
-116.861275
 11
213.085159
 21
-120.861275
  0
LINE
  8
0
  6
DASHED
 62
     1
 10
210.585159
 20
-116.861275
 11
224.585159
 21
-116.861275
  0
LINE
  8
0
 62
     4
 10
205.085159
 20
-99.861275
 11
205.085159
 21
-120.861275
  0
LINE
  8
0
 62
     4
 10
281.085144
 20
-120.861229
 11
339.085083
 21
-120.861229
  0
LINE
  8
0
 62
     4
 10
281.085144
 20
-99.861229
 11
281.085144
 21
-120.861229
  0
LINE
  8
0
 62
     4
 10
281.085144
 20
-115.861229
 11
339.085114
 21
-115.861229
  0
LINE
  8
0
 62
     4
 10
281.085144
 20
-99.861229
 11
339.085114
 21
-99.861229
  0
LINE
  8
0
 62
     4
 10
331.085144
 20
-107.551857
 11
333.085114
 21
-108.706551
  0
LINE
  8
0
 62
     4
 10
329.085083
 20
-111.016022
 11
331.085114
 21
-112.170731
  0
LINE
  8
0
 62
     4
 10
329.085114
 20
-108.706596
 11
331.085114
 21
-107.551903
  0
LINE
  8
0
 62
     4
 10
331.085114
 20
-112.170723
 11
333.085114
 21
-111.016029
  0
LINE
  8
0
 62
     4
 10
333.085114
 20
-108.706505
 11
333.085114
 21
-111.015953
  0
LINE
  8
0
 62
     4
 10
329.085114
 20
-108.706505
 11
329.085114
 21
-111.015953
  0
LINE
  8
0
 62
     4
 10
289.085144
 20
-112.170700
 11
291.085175
 21
-111.015976
  0
LINE
  8
0
 62
     4
 10
287.085052
 20
-111.016075
 11
289.085083
 21
-112.170784
  0
LINE
  8
0
 62
     4
 10
287.085144
 20
-108.706505
 11
287.085144
 21
-111.015953
  0
LINE
  8
0
 62
     4
 10
287.085083
 20
-108.706650
 11
289.085083
 21
-107.551956
  0
LINE
  8
0
 62
     4
 10
289.085114
 20
-107.551918
 11
291.085114
 21
-108.706612
  0
LINE
  8
0
 62
     4
 10
291.085144
 20
-108.706505
 11
291.085144
 21
-111.015953
  0
LINE
  8
0
  6
CENTER
 62
     1
 10
323.493378
 20
-109.861229
 11
338.411133
 21
-109.861229
  0
LINE
  8
0
  6
CENTER
 62
     1
 10
282.320465
 20
-109.861229
 11
296.343140
 21
-109.861229
  0
LINE
  8
0
  6
CENTER
 62
     1
 10
289.085144
 20
-101.246300
 11
289.085144
 21
-117.655785
  0
LINE
  8
0
  6
CENTER
 62
     1
 10
331.085114
 20
-101.544640
 11
331.085114
 21
-117.357445
  0
LINE
  8
0
  6
CENTER
 62
     1
 10
322.085114
 20
-110.861229
 11
322.085114
 21
-125.861229
  0
LINE
  8
0
  6
DASHED
 62
     1
 10
329.085114
 20
-115.861229
 11
329.085114
 21
-116.861229
  0
LINE
  8
0
  6
DASHED
 62
     1
 10
315.085114
 20
-115.861229
 11
315.085114
 21
-116.861229
  0
LINE
  8
0
  6
DASHED
 62
     1
 10
317.585114
 20
-116.861229
 11
317.585114
 21
-120.861229
  0
LINE
  8
0
  6
DASHED
 62
     1
 10
326.585114
 20
-116.861229
 11
326.585114
 21
-120.861229
  0
LINE
  8
0
  6
DASHED
 62
     1
 10
315.085114
 20
-116.861229
 11
329.085114
 21
-116.861229
  0
LINE
  8
0
  6
DASHED
 62
     1
 10
305.085114
 20
-116.861229
 11
291.085114
 21
-116.861229
  0
LINE
  8
0
  6
DASHED
 62
     1
 10
305.085114
 20
-115.861229
 11
305.085114
 21
-116.861229
  0
LINE
  8
0
  6
DASHED
 62
     1
 10
302.585114
 20
-116.861229
 11
302.585114
 21
-120.861229
  0
LINE
  8
0
  6
CENTER
 62
     1
 10
298.085114
 20
-110.861229
 11
298.085114
 21
-125.861229
  0
LINE
  8
0
  6
DASHED
 62
     1
 10
293.585114
 20
-116.861229
 11
293.585114
 21
-120.861229
  0
LINE
  8
0
  6
DASHED
 62
     1
 10
291.085114
 20
-115.861229
 11
291.085114
 21
-116.861229
  0
LINE
  8
0
 62
     4
 10
339.085083
 20
-99.861229
 11
339.085083
 21
-120.861229
  0
LINE
  8
0
  6
CENTER
 62
     1
 10
191.073257
 20
-220.932465
 11
191.073257
 21
-240.932465
  0
LINE
  8
0
  6
DASHED
 62
     1
 10
186.573242
 20
-225.932465
 11
186.573242
 21
-235.932465
  0
LINE
  8
0
  6
DASHED
 62
     1
 10
195.573257
 20
-225.932465
 11
195.573257
 21
-235.932465
  0
LINE
  8
0
  6
DASHED
 62
     1
 10
140.573242
 20
-225.932465
 11
140.573242
 21
-235.932465
  0
LINE
  8
0
  6
CENTER
 62
     1
 10
136.073242
 20
-220.932465
 11
136.073242
 21
-240.932465
  0
LINE
  8
0
  6
DASHED
 62
     1
 10
131.573242
 20
-225.932465
 11
131.573242
 21
-235.932465
  0
LINE
  8
0
 62
     4
 10
126.073242
 20
-225.932465
 11
126.073242
 21
-235.932465
  0
LINE
  8
0
 62
     4
 10
201.073273
 20
-225.932465
 11
201.073273
 21
-235.932465
  0
LINE
  8
0
 62
     4
 10
126.073242
 20
-225.932465
 11
201.073273
 21
-225.932465
  0
LINE
  8
0
 62
     4
 10
126.073242
 20
-235.932465
 11
201.073273
 21
-235.932465
  0
LINE
  8
0
  6
CENTER
 62
     1
 10
356.573242
 20
-220.932449
 11
356.573242
 21
-240.932449
  0
LINE
  8
0
  6
DASHED
 62
     1
 10
361.073242
 20
-225.932449
 11
361.073242
 21
-235.932449
  0
LINE
  8
0
  6
DASHED
 62
     1
 10
352.073242
 20
-225.932449
 11
352.073242
 21
-235.932449
  0
LINE
  8
0
  6
DASHED
 62
     1
 10
281.073242
 20
-225.932449
 11
281.073242
 21
-235.932449
  0
LINE
  8
0
  6
CENTER
 62
     1
 10
276.573242
 20
-220.932449
 11
276.573242
 21
-240.932449
  0
LINE
  8
0
  6
DASHED
 62
     1
 10
272.073242
 20
-225.932449
 11
272.073242
 21
-235.932449
  0
LINE
  8
0
 62
     4
 10
348.973206
 20
-235.932449
 11
364.173218
 21
-235.932449
  0
LINE
  8
0
 62
     4
 10
344.973206
 20
-225.932449
 11
363.073242
 21
-225.932449
  0
LINE
  8
0
 62
     4
 10
364.573242
 20
-227.432449
 11
364.573242
 21
-235.532455
  0
LINE
  8
0
 62
     4
 10
284.173279
 20
-235.932449
 11
268.973267
 21
-235.932449
  0
LINE
  8
0
 62
     4
 10
288.173279
 20
-225.932449
 11
270.073273
 21
-225.932449
  0
LINE
  8
0
 62
     4
 10
268.573273
 20
-227.432449
 11
268.573273
 21
-235.532455
  0
LINE
  8
0
 62
     4
 10
284.573273
 20
-230.089981
 11
284.573273
 21
-235.632462
  0
LINE
  8
0
 62
     4
 10
288.221130
 20
-230.375702
 11
284.925323
 21
-229.794571
  0
LINE
  8
0
 62
     4
 10
288.573273
 20
-226.332443
 11
288.573273
 21
-230.080215
  0
LINE
  8
0
 62
     4
 10
344.573242
 20
-226.332443
 11
344.573242
 21
-230.080215
  0
LINE
  8
0
 62
     4
 10
344.925385
 20
-230.375580
 11
348.221161
 21
-229.794449
  0
LINE
  8
0
 62
     4
 10
348.573242
 20
-230.089981
 11
348.573242
 21
-235.632462
  0
ARC
  8
0
 62
     2
 10
49.689545
 20
34.650002
 40
1.999999
 50
334.849365
 51
25.150625
  0
ARC
  8
0
 62
     2
 10
53.310333
 20
36.350014
 40
2.000001
 50
154.849274
 51
205.150620
  0
CIRCLE
  8
0
 10
82.499939
 20
35.500008
 40
2.000000
  0
CIRCLE
  8
0
 10
71.999939
 20
23.300056
 40
1.500000
  0
ARC
  8
0
 10
222.499939
 20
63.000008
 40
2.000000
 50
0.000000
 51
90.000000
  0
ARC
  8
0
 10
222.499939
 20
7.000008
 40
2.000000
 50
270.000000
 51
0.000000
  0
ARC
  8
0
 10
219.699951
 20
48.000008
 40
1.000000
 50
180.000000
 51
270.000000
  0
ARC
  8
0
 10
219.699951
 20
22.000008
 40
1.000000
 50
90.000000
 51
180.000000
  0
ARC
  8
0
 10
216.699951
 20
63.000008
 40
2.000000
 50
0.000000
 51
90.000000
  0
ARC
  8
0
 10
222.499939
 20
45.000008
 40
2.000000
 50
0.000000
 51
90.000000
  0
ARC
  8
0
 10
222.499939
 20
25.000008
 40
2.000000
 50
270.000000
 51
0.000000
  0
ARC
  8
0
 10
216.699951
 20
7.000008
 40
2.000000
 50
270.000000
 51
0.000000
  0
CIRCLE
  8
0
 10
212.499939
 20
35.000008
 40
10.000000
  0
CIRCLE
  8
0
 10
212.499939
 20
35.000008
 40
6.578500
  0
CIRCLE
  8
0
 62
     2
 10
212.499939
 20
35.000008
 40
5.722500
  0
CIRCLE
  8
0
 10
200.999939
 20
44.000008
 40
3.300000
  0
ARC
  8
0
 10
215.699951
 20
56.000008
 40
9.000000
 50
341.291718
 51
18.708305
  0
ARC
  8
0
 10
222.271606
 20
60.330139
 40
2.428328
 50
323.530823
 51
36.469185
  0
ARC
  8
0
 10
222.271606
 20
51.669868
 40
2.428328
 50
323.530823
 51
36.469185
  0
ARC
  8
0
 10
222.271606
 20
9.669868
 40
2.428330
 50
323.530731
 51
36.469166
  0
ARC
  8
0
 10
215.699951
 20
14.000008
 40
9.000004
 50
341.291656
 51
18.708237
  0
ARC
  8
0
 10
222.271606
 20
18.330147
 40
2.428329
 50
323.530792
 51
36.469185
  0
ARC
  8
0
 10
-373.500061
 20
63.000008
 40
2.000000
 50
90.000000
 51
180.000000
  0
ARC
  8
0
 10
-373.500061
 20
7.000008
 40
2.000000
 50
179.999954
 51
270.000000
  0
ARC
  8
0
 10
-370.700073
 20
48.000008
 40
1.000000
 50
270.000000
 51
0.000000
  0
ARC
  8
0
 10
-370.700073
 20
22.000008
 40
1.000000
 50
0.000000
 51
90.000000
  0
ARC
  8
0
 10
-367.700073
 20
63.000008
 40
2.000000
 50
90.000000
 51
180.000000
  0
ARC
  8
0
 10
-373.500061
 20
45.000008
 40
2.000000
 50
90.000000
 51
180.000000
  0
ARC
  8
0
 10
-373.500061
 20
25.000008
 40
2.000000
 50
179.999939
 51
270.000000
  0
ARC
  8
0
 10
-367.700073
 20
7.000008
 40
2.000000
 50
179.999954
 51
270.000000
  0
CIRCLE
  8
0
 10
-363.500061
 20
35.000008
 40
10.000000
  0
CIRCLE
  8
0
 10
-363.500061
 20
35.000008
 40
6.578500
  0
CIRCLE
  8
0
 62
     2
 10
-363.500061
 20
35.000008
 40
5.722500
  0
CIRCLE
  8
0
 10
-352.000061
 20
44.000008
 40
3.300000
  0
ARC
  8
0
 10
-366.700073
 20
56.000008
 40
9.000004
 50
161.291641
 51
198.708237
  0
ARC
  8
0
 10
-373.271729
 20
60.330139
 40
2.428318
 50
143.530533
 51
216.469391
  0
ARC
  8
0
 10
-373.271729
 20
51.669868
 40
2.428316
 50
143.530609
 51
216.469391
  0
ARC
  8
0
 10
-373.271729
 20
9.669868
 40
2.428316
 50
143.530609
 51
216.469452
  0
ARC
  8
0
 10
-366.700073
 20
14.000008
 40
8.999999
 50
161.291733
 51
198.708313
  0
ARC
  8
0
 10
-373.271729
 20
18.330147
 40
2.428317
 50
143.530563
 51
216.469437
  0
ARC
  8
0
 62
     2
 10
-250.310455
 20
34.650002
 40
2.000006
 50
334.849457
 51
25.150532
  0
CIRCLE
  8
0
 10
-217.500061
 20
35.500008
 40
2.000000
  0
ARC
  8
0
 62
     2
 10
-246.689667
 20
36.350014
 40
1.999994
 50
154.849182
 51
205.150528
  0
CIRCLE
  8
0
 10
-228.000061
 20
23.300056
 40
1.500000
  0
ARC
  8
0
 10
222.499847
 20
196.000061
 40
2.000000
 50
0.000000
 51
90.000000
  0
ARC
  8
0
 10
222.499847
 20
140.000061
 40
2.000000
 50
270.000000
 51
0.000000
  0
ARC
  8
0
 10
216.699860
 20
196.000061
 40
2.000000
 50
0.000000
 51
90.000000
  0
ARC
  8
0
 10
222.499847
 20
178.000061
 40
2.000000
 50
0.000000
 51
90.000000
  0
ARC
  8
0
 10
222.499847
 20
158.000061
 40
2.000000
 50
270.000000
 51
0.000000
  0
ARC
  8
0
 10
216.699860
 20
140.000061
 40
2.000000
 50
270.000000
 51
0.000000
  0
ARC
  8
0
 10
219.699860
 20
181.000061
 40
1.000000
 50
180.000000
 51
270.000000
  0
ARC
  8
0
 10
219.699860
 20
155.000061
 40
1.000000
 50
90.000000
 51
180.000000
  0
ARC
  8
0
 10
200.699860
 20
181.000061
 40
1.500000
 50
0.000000
 51
90.000000
  0
ARC
  8
0
 10
200.699860
 20
155.000061
 40
1.500000
 50
270.000000
 51
0.000000
  0
CIRCLE
  8
0
 10
198.349823
 20
178.500061
 40
3.000000
  0
CIRCLE
  8
0
 10
198.349823
 20
157.500061
 40
3.000000
  0
CIRCLE
  8
0
 10
207.499847
 20
168.000061
 40
1.500000
  0
CIRCLE
  8
0
 10
213.499847
 20
168.000061
 40
1.500000
  0
CIRCLE
  8
0
 62
     2
 10
213.499847
 20
168.000061
 40
1.250000
  0
CIRCLE
  8
0
 62
     2
 10
207.499847
 20
168.000061
 40
1.250000
  0
ARC
  8
0
 10
217.199860
 20
191.500061
 40
7.500007
 50
340.528809
 51
19.471201
  0
ARC
  8
0
 10
217.199860
 20
186.500061
 40
7.499993
 50
340.528748
 51
19.471201
  0
ARC
  8
0
 10
217.199860
 20
149.500061
 40
7.500007
 50
340.528809
 51
19.471241
  0
ARC
  8
0
 10
217.199860
 20
144.500061
 40
7.500007
 50
340.528809
 51
19.471201
  0
ARC
  8
0
 10
-368.200165
 20
144.500061
 40
7.500007
 50
160.528793
 51
199.471207
  0
ARC
  8
0
 10
-373.500153
 20
196.000061
 40
2.000000
 50
90.000000
 51
180.000000
  0
ARC
  8
0
 10
-373.500153
 20
140.000061
 40
2.000000
 50
180.000000
 51
270.000000
  0
ARC
  8
0
 10
-367.700165
 20
196.000061
 40
2.000000
 50
90.000000
 51
180.000000
  0
ARC
  8
0
 10
-373.500153
 20
178.000061
 40
2.000000
 50
90.000000
 51
180.000000
  0
ARC
  8
0
 10
-373.500153
 20
158.000061
 40
2.000000
 50
180.000000
 51
270.000000
  0
ARC
  8
0
 10
-367.700165
 20
140.000061
 40
2.000000
 50
180.000000
 51
270.000000
  0
ARC
  8
0
 10
-370.700165
 20
181.000061
 40
1.000000
 50
270.000000
 51
0.000000
  0
ARC
  8
0
 10
-370.700165
 20
155.000061
 40
1.000000
 50
0.000000
 51
90.000000
  0
ARC
  8
0
 10
-351.700165
 20
181.000061
 40
1.500000
 50
90.000000
 51
180.000000
  0
ARC
  8
0
 10
-351.700165
 20
155.000061
 40
1.500000
 50
180.000000
 51
270.000000
  0
CIRCLE
  8
0
 10
-349.350189
 20
178.500061
 40
3.000000
  0
CIRCLE
  8
0
 10
-349.350189
 20
157.500061
 40
3.000000
  0
CIRCLE
  8
0
 10
-358.500153
 20
168.000061
 40
1.500000
  0
CIRCLE
  8
0
 10
-364.500153
 20
168.000061
 40
1.500000
  0
CIRCLE
  8
0
 62
     2
 10
-364.500153
 20
168.000061
 40
1.250000
  0
CIRCLE
  8
0
 62
     2
 10
-358.500153
 20
168.000061
 40
1.250000
  0
ARC
  8
0
 10
-368.200165
 20
191.500061
 40
7.500007
 50
160.528793
 51
199.471207
  0
ARC
  8
0
 10
-368.200165
 20
186.500061
 40
7.500007
 50
160.528793
 51
199.471207
  0
ARC
  8
0
 10
-368.200165
 20
149.500061
 40
7.500012
 50
160.528687
 51
199.471085
  0
CIRCLE
  8
0
 62
     2
 10
-280.500153
 20
168.000061
 40
3.000000
  0
CIRCLE
  8
0
 10
-280.500153
 20
168.000061
 40
2.500000
  0
CIRCLE
  8
0
 62
     2
 10
-280.500153
 20
188.000061
 40
3.000000
  0
CIRCLE
  8
0
 10
-280.500153
 20
188.000061
 40
2.500000
  0
CIRCLE
  8
0
 10
-225.500153
 20
188.000061
 40
3.000000
  0
CIRCLE
  8
0
 62
     2
 10
-225.500153
 20
188.000061
 40
2.500000
  0
CIRCLE
  8
0
 62
     2
 10
-170.500153
 20
188.000061
 40
3.000000
  0
CIRCLE
  8
0
 10
-170.500153
 20
188.000061
 40
2.500000
  0
CIRCLE
  8
0
 62
     2
 10
-170.500153
 20
168.000061
 40
3.000000
  0
CIRCLE
  8
0
 10
-170.500153
 20
168.000061
 40
2.500000
  0
CIRCLE
  8
0
 62
     2
 10
-170.500153
 20
148.000061
 40
3.000000
  0
CIRCLE
  8
0
 10
-170.500153
 20
148.000061
 40
2.500000
  0
CIRCLE
  8
0
 62
     2
 10
-280.500153
 20
148.000061
 40
3.000000
  0
CIRCLE
  8
0
 10
-280.500153
 20
148.000061
 40
2.500000
  0
ARC
  8
0
 10
82.499847
 20
133.066711
 40
2.266666
 50
208.072464
 51
331.927521
  0
ARC
  8
0
 62
     2
 10
49.689484
 20
134.800003
 40
2.000003
 50
334.849182
 51
36.872040
  0
ARC
  8
0
 10
295.000031
 20
3.000019
 40
2.000000
 50
90.000000
 51
179.999969
  0
ARC
  8
0
 10
326.000031
 20
3.000019
 40
2.000000
 50
0.000000
 51
90.000000
  0
ARC
  8
0
 10
342.200043
 20
3.300007
 40
0.300000
 50
270.000000
 51
0.000000
  0
ARC
  8
0
 10
342.200043
 20
8.842487
 40
0.299988
 50
0.000000
 51
99.999817
  0
ARC
  8
0
 10
342.200043
 20
14.300007
 40
0.300000
 50
270.000000
 51
0.000000
  0
ARC
  8
0
 10
338.800018
 20
8.852222
 40
0.300004
 50
246.873871
 51
279.999817
  0
ARC
  8
0
 10
342.200043
 20
37.300007
 40
0.299999
 50
270.000000
 51
0.000000
  0
ARC
  8
0
 10
342.200043
 20
38.700016
 40
0.299988
 50
0.000000
 51
90.000000
  0
ARC
  8
0
 10
341.833191
 20
39.500011
 40
0.500002
 50
219.999557
 51
270.000000
  0
ARC
  8
0
 10
341.700043
 20
23.500011
 40
0.799988
 50
0.000000
 51
180.000000
  0
ARC
  8
0
 10
280.248291
 20
55.871975
 40
0.200009
 50
49.997288
 51
139.998535
  0
ARC
  8
0
 10
278.800018
 20
3.300007
 40
0.299988
 50
179.999954
 51
270.000000
  0
ARC
  8
0
 10
278.800018
 20
8.842487
 40
0.300000
 50
80.000183
 51
180.000000
  0
ARC
  8
0
 10
279.166870
 20
39.500011
 40
0.500000
 50
270.000000
 51
320.000427
  0
ARC
  8
0
 10
278.800018
 20
38.700016
 40
0.299999
 50
90.000000
 51
180.000000
  0
ARC
  8
0
 10
279.300018
 20
23.500011
 40
0.799988
 50
0.000000
 51
180.000000
  0
ARC
  8
0
 10
278.800018
 20
14.300007
 40
0.299988
 50
180.000000
 51
270.000000
  0
ARC
  8
0
 10
282.200043
 20
8.852222
 40
0.300000
 50
260.000183
 51
293.126129
  0
ARC
  8
0
 10
300.500031
 20
7.000019
 40
2.000000
 50
179.999985
 51
270.000000
  0
ARC
  8
0
 10
320.500031
 20
7.000019
 40
2.000000
 50
270.000000
 51
0.000000
  0
ARC
  8
0
 10
289.500031
 20
56.000011
 40
9.000004
 50
90.000000
 51
179.999969
  0
ARC
  8
0
 10
331.500031
 20
56.000011
 40
9.000000
 50
0.000000
 51
90.000000
  0
ARC
  8
0
 10
331.500031
 20
14.000019
 40
9.000000
 50
270.000000
 51
0.000000
  0
ARC
  8
0
 10
289.500031
 20
14.000019
 40
9.000000
 50
179.999985
 51
270.000000
  0
ARC
  8
0
 10
289.500031
 20
56.000011
 40
9.000000
 50
270.000000
 51
0.000000
  0
ARC
  8
0
 10
331.500031
 20
56.000011
 40
9.000000
 50
179.999969
 51
270.000000
  0
ARC
  8
0
 10
331.500031
 20
14.000019
 40
9.000000
 50
90.000000
 51
179.999969
  0
ARC
  8
0
 10
289.500031
 20
14.000019
 40
9.000000
 50
0.000000
 51
90.000000
  0
ARC
  8
0
 10
300.500031
 20
63.000011
 40
2.000004
 50
90.000000
 51
180.000000
  0
ARC
  8
0
 10
320.500031
 20
63.000011
 40
2.000000
 50
0.000000
 51
90.000000
  0
ARC
  8
0
 10
282.500031
 20
45.000011
 40
2.000000
 50
90.000000
 51
180.000000
  0
ARC
  8
0
 10
282.500031
 20
25.000011
 40
2.000000
 50
180.000000
 51
270.000000
  0
ARC
  8
0
 10
338.500031
 20
25.000011
 40
2.000000
 50
270.000000
 51
0.000000
  0
ARC
  8
0
 10
338.500031
 20
45.000011
 40
2.000000
 50
0.000000
 51
90.000000
  0
CIRCLE
  8
0
 10
289.500031
 20
56.000011
 40
7.000000
  0
CIRCLE
  8
0
 10
331.500031
 20
56.000011
 40
7.000000
  0
CIRCLE
  8
0
 10
331.500031
 20
14.000019
 40
7.000000
  0
CIRCLE
  8
0
 10
289.500031
 20
14.000019
 40
7.000000
  0
CIRCLE
  8
0
 62
     2
 10
289.500031
 20
14.000019
 40
3.000000
  0
CIRCLE
  8
0
 10
289.500031
 20
14.000019
 40
2.500000
  0
CIRCLE
  8
0
 62
     2
 10
289.500031
 20
56.000011
 40
3.000000
  0
CIRCLE
  8
0
 10
289.500031
 20
56.000011
 40
2.500000
  0
CIRCLE
  8
0
 62
     2
 10
331.500031
 20
56.000011
 40
3.000000
  0
CIRCLE
  8
0
 10
331.500031
 20
56.000011
 40
2.500000
  0
CIRCLE
  8
0
 62
     2
 10
331.500031
 20
14.000019
 40
3.000000
  0
CIRCLE
  8
0
 10
331.500031
 20
14.000019
 40
2.500000
  0
CIRCLE
  8
0
 10
289.500031
 20
56.000011
 40
5.000000
  0
CIRCLE
  8
0
 10
331.500031
 20
56.000011
 40
5.000000
  0
CIRCLE
  8
0
 10
331.500031
 20
14.000019
 40
5.000000
  0
CIRCLE
  8
0
 10
289.500031
 20
14.000019
 40
5.000000
  0
CIRCLE
  8
0
 10
299.500031
 20
35.000011
 40
5.722500
  0
CIRCLE
  8
0
 62
     2
 10
299.500031
 20
35.000011
 40
6.578500
  0
CIRCLE
  8
0
 62
     2
 10
321.500031
 20
35.000011
 40
6.578500
  0
CIRCLE
  8
0
 10
321.500031
 20
35.000011
 40
5.722500
  0
ARC
  8
0
 10
264.000031
 20
91.500015
 40
1.000000
 50
90.000000
 51
180.000000
  0
ARC
  8
0
 10
357.000031
 20
91.500015
 40
1.000000
 50
0.000000
 51
90.000000
  0
ARC
  8
0
 10
279.300018
 20
25.000023
 40
0.799988
 50
0.000000
 51
119.999649
  0
ARC
  8
0
 10
275.566681
 20
35.000011
 40
2.266673
 50
118.072807
 51
241.927200
  0
ARC
  8
0
 10
273.500031
 20
34.500019
 40
2.000000
 50
90.000000
 51
180.000000
  0
ARC
  8
0
 10
276.000031
 20
21.300018
 40
1.000000
 50
270.000000
 51
0.000000
  0
ARC
  8
0
 10
280.100037
 20
29.800018
 40
1.699990
 50
139.880600
 51
225.078278
  0
ARC
  8
0
 10
278.401917
 20
25.097206
 40
3.300007
 50
50.521336
 51
70.146065
  0
ARC
  8
0
 10
361.496399
 20
33.703083
 40
90.000000
 50
179.481125
 51
188.010788
  0
ARC
  8
0
 10
273.364899
 20
21.300018
 40
0.999992
 50
188.010788
 51
270.000000
  0
ARC
  8
0
 10
280.900024
 20
25.000023
 40
0.799988
 50
180.000000
 51
240.000290
  0
ARC
  8
0
 62
     4
 10
-265.118866
 20
-183.496246
 40
10.000001
 50
154.158051
 51
205.841949
  0
CIRCLE
  8
0
 62
     4
 10
-331.618958
 20
-52.496292
 40
6.500000
  0
CIRCLE
  8
0
 62
     4
 10
-312.618958
 20
-128.496292
 40
6.500000
  0
CIRCLE
  8
0
 62
     4
 10
-322.118958
 20
-114.496292
 40
6.500000
  0
CIRCLE
  8
0
 62
     4
 10
-331.618958
 20
-128.496292
 40
6.500000
  0
CIRCLE
  8
0
 62
     4
 10
-312.618958
 20
-52.496292
 40
6.500000
  0
ARC
  8
0
 62
     1
 10
-222.818909
 20
-257.196289
 40
0.300003
 50
180.000000
 51
270.000000
  0
ARC
  8
0
 62
     4
 10
-233.718903
 20
-197.896271
 40
0.399994
 50
90.000000
 51
180.000000
  0
ARC
  8
0
 62
     4
 10
-148.518921
 20
-197.896271
 40
0.399994
 50
0.000000
 51
90.000000
  0
ARC
  8
0
 62
     4
 10
-236.118912
 20
-186.996277
 40
2.000000
 50
90.000000
 51
180.000000
  0
ARC
  8
0
 62
     4
 10
-146.118912
 20
-186.996277
 40
2.000000
 50
0.000000
 51
90.000000
  0
ARC
  8
0
 62
     4
 10
-221.118912
 20
-177.496277
 40
1.000000
 50
90.000000
 51
180.000000
  0
ARC
  8
0
 62
     4
 10
-161.118912
 20
-177.496277
 40
1.000000
 50
0.000000
 51
90.000000
  0
ARC
  8
0
 62
     4
 10
-222.518921
 20
-184.596283
 40
0.399994
 50
270.000000
 51
0.000000
  0
ARC
  8
0
 62
     4
 10
-159.718903
 20
-184.596283
 40
0.399994
 50
180.000000
 51
270.000000
  0
ARC
  8
0
 62
     4
 10
-208.518921
 20
-176.096283
 40
0.399994
 50
270.000000
 51
0.000000
  0
ARC
  8
0
 62
     4
 10
-173.718918
 20
-176.096283
 40
0.399994
 50
180.000000
 51
270.000000
  0
ARC
  8
0
 62
     4
 10
-191.118912
 20
-207.996277
 40
40.000000
 50
66.750435
 51
113.249580
  0
ARC
  8
0
 62
     4
 10
-176.118912
 20
-173.082092
 40
2.000000
 50
0.000000
 51
66.750381
  0
ARC
  8
0
 62
     4
 10
-206.118912
 20
-173.082092
 40
1.999998
 50
113.249619
 51
180.000000
  0
CIRCLE
  8
0
 62
     4
 10
-191.118912
 20
-183.496277
 40
10.000000
  0
ARC
  8
0
 62
     4
 10
-223.118912
 20
-207.396271
 40
8.500000
 50
270.000000
 51
283.608978
  0
ARC
  8
0
 62
     4
 10
-234.118912
 20
-211.896271
 40
4.000000
 50
180.000000
 51
270.000000
  0
ARC
  8
0
 62
     4
 10
-159.118912
 20
-207.396271
 40
8.499997
 50
256.391022
 51
270.000000
  0
ARC
  8
0
 62
     4
 10
-148.118912
 20
-211.896271
 40
4.000000
 50
270.000000
 51
0.000000
  0
CIRCLE
  8
0
 62
     1
 10
-191.118912
 20
-183.496277
 40
8.000000
  0
CIRCLE
  8
0
 62
     4
 10
-66.618935
 20
-52.496307
 40
6.500000
  0
CIRCLE
  8
0
 62
     4
 10
-47.618935
 20
-128.496307
 40
6.500000
  0
CIRCLE
  8
0
 62
     4
 10
-57.118935
 20
-114.496307
 40
6.500000
  0
CIRCLE
  8
0
 62
     4
 10
-66.618935
 20
-128.496307
 40
6.500000
  0
CIRCLE
  8
0
 62
     4
 10
-47.618935
 20
-52.496307
 40
6.500000
  0
ARC
  8
0
 62
     4
 10
7.281067
 20
-197.896301
 40
0.399994
 50
90.000000
 51
180.000000
  0
ARC
  8
0
 62
     4
 10
92.481056
 20
-197.896301
 40
0.400002
 50
0.000000
 51
90.000000
  0
ARC
  8
0
 62
     4
 10
4.881065
 20
-186.996307
 40
2.000000
 50
89.999985
 51
180.000000
  0
ARC
  8
0
 62
     4
 10
94.881065
 20
-186.996307
 40
2.000000
 50
0.000000
 51
90.000000
  0
ARC
  8
0
 62
     4
 10
19.881065
 20
-177.496307
 40
1.000000
 50
90.000000
 51
180.000000
  0
ARC
  8
0
 62
     4
 10
79.881065
 20
-177.496307
 40
1.000000
 50
0.000000
 51
90.000000
  0
ARC
  8
0
 62
     4
 10
18.481064
 20
-184.596313
 40
0.399994
 50
270.000000
 51
0.000000
  0
ARC
  8
0
 62
     4
 10
81.281075
 20
-184.596313
 40
0.400002
 50
180.000000
 51
270.000000
  0
ARC
  8
0
 62
     4
 10
32.481064
 20
-176.096313
 40
0.399994
 50
270.000000
 51
0.000000
  0
ARC
  8
0
 62
     4
 10
67.281059
 20
-176.096313
 40
0.400002
 50
180.000000
 51
270.000000
  0
ARC
  8
0
 62
     4
 10
49.881065
 20
-207.996307
 40
40.000000
 50
66.750435
 51
113.249580
  0
ARC
  8
0
 62
     4
 10
64.881065
 20
-173.082123
 40
2.000000
 50
0.000000
 51
66.750381
  0
ARC
  8
0
 62
     4
 10
34.881065
 20
-173.082123
 40
1.999998
 50
113.249619
 51
180.000000
  0
CIRCLE
  8
0
 62
     4
 10
49.881065
 20
-183.496307
 40
10.000000
  0
ARC
  8
0
 62
     4
 10
17.881065
 20
-207.396301
 40
8.500000
 50
270.000000
 51
283.608948
  0
ARC
  8
0
 62
     4
 10
6.881065
 20
-211.896301
 40
4.000000
 50
180.000000
 51
270.000031
  0
ARC
  8
0
 62
     4
 10
81.881065
 20
-207.396301
 40
8.499997
 50
256.391022
 51
269.999939
  0
ARC
  8
0
 62
     4
 10
92.881065
 20
-211.896301
 40
4.000000
 50
270.000000
 51
0.000000
  0
CIRCLE
  8
0
 62
     1
 10
49.881065
 20
-183.496307
 40
8.000000
  0
ARC
  8
0
 62
     4
 10
209.085159
 20
-109.861275
 40
5.250003
 50
51.055180
 51
79.019432
  0
ARC
  8
0
 62
     4
 10
213.085159
 20
-112.861275
 40
3.000000
 50
180.000000
 51
270.000000
  0
ARC
  8
0
 62
     4
 10
209.085159
 20
-109.861275
 40
5.250003
 50
289.204376
 51
308.944824
  0
CIRCLE
  8
0
 62
     4
 10
289.085144
 20
-109.861229
 40
5.250000
  0
CIRCLE
  8
0
 62
     4
 10
331.085114
 20
-109.861229
 40
5.250000
  0
ARC
  8
0
 62
     4
 10
348.973206
 20
-235.532455
 40
0.399994
 50
180.000000
 51
270.000000
  0
ARC
  8
0
 62
     4
 10
364.173218
 20
-235.532455
 40
0.399994
 50
270.000000
 51
0.000000
  0
ARC
  8
0
 62
     4
 10
363.073242
 20
-227.432449
 40
1.500000
 50
0.000000
 51
90.000000
  0
ARC
  8
0
 62
     4
 10
284.173279
 20
-235.532455
 40
0.399994
 50
270.000000
 51
0.000000
  0
ARC
  8
0
 62
     4
 10
268.973267
 20
-235.532455
 40
0.399994
 50
180.000000
 51
270.000000
  0
ARC
  8
0
 62
     4
 10
270.073273
 20
-227.432449
 40
1.500000
 50
90.000000
 51
180.000000
  0
ARC
  8
0
 62
     4
 10
284.873260
 20
-230.089981
 40
0.299998
 50
80.000122
 51
180.000000
  0
ARC
  8
0
 62
     4
 10
288.273285
 20
-230.080215
 40
0.299998
 50
260.000122
 51
0.000000
  0
ARC
  8
0
 62
     4
 10
344.873230
 20
-230.080215
 40
0.299988
 50
180.000000
 51
279.999878
  0
ARC
  8
0
 62
     4
 10
348.273254
 20
-230.089981
 40
0.299988
 50
0.000000
 51
99.999878
  0
ARC
  8
0
 62
     4
 10
344.973206
 20
-226.332443
 40
0.399994
 50
90.000000
 51
180.000000
  0
ARC
  8
0
 62
     4
 10
288.173279
 20
-226.332443
 40
0.399994
 50
0.000000
 51
90.000000
  0
TEXT
  8
0
 10
-317.618439
 20
-32.049999
 40
7.000000
  1
S-ABSORBER(-K)
 50
0.000000
 41
1.052632
 51
0.000000
  7
STANDARD
  0
TEXT
  8
0
 10
-50.355942
 20
-32.049999
 40
7.000000
  1
A-BOLT(-S)
 50
0.000000
 41
1.052632
 51
0.000000
  7
STANDARD
  0
TEXT
  8
0
 10
207.287811
 20
-32.049999
 40
7.000000
  1
L-SUPPORT(-L)
 50
0.000000
 41
1.052632
 51
0.000000
  7
STANDARD
  0
TEXT
  8
0
 10
207.287811
 20
-150.300003
 40
7.000000
  1
F-SUPPORT(-F)
 50
0.000000
 41
1.052632
 51
0.000000
  7
STANDARD
  0
TEXT
  8
0
 10
-365.285309
 20
256.649994
 40
9.000000
  1
ORK SERIES
 50
0.000000
 41
1.052632
 51
0.000000
  7
STANDARD
  0
TEXT
  8
0
 10
242.014816
 20
-274.500000
 40
12.500000
  1
KOGANEI CORP.
 50
0.000000
 41
1.052632
 51
0.000000
  7
STANDARD
  0
TEXT
  8
0
 10
251.264664
 20
256.649994
 40
9.000000
  1
DATE: Apr ,1994
 50
0.000000
 41
1.052632
 51
0.000000
  7
STANDARD
  0
TEXT
  8
0
 10
-384.785309
 20
224.149994
 40
9.000000
  1
MODEL:ORK 40X300
 50
0.000000
 41
1.052632
 51
0.000000
  7
STANDARD
  0
ENDSEC
  0
EOF
