  0
SECTION
  2
HEADER
  0
ENDSEC
  0
SECTION
  2
TABLES
  0
TABLE
  2
LTYPE
 70
     4
  0
LTYPE
  2
CONTINUOUS
 70
    64
  3
Solid line
 72
    65
 73
     0
 40
0.000000
  0
LTYPE
  2
DASHED
 70
    64
  3
__ __ __ __ __ __ __ __ __ __ __ __ __ __ __
 72
    65
 73
     2
 40
3.500000
 49
2.000000
 49
-1.500000
  0
LTYPE
  2
CENTER
 70
    64
  3
____ _ ____ _ ____ _ ____ _ ____ _ ____ _ ____
 72
    65
 73
     4
 40
17.500000
 49
13.000000
 49
-1.500000
 49
1.500000
 49
-1.500000
  0
LTYPE
  2
PHANTOM
 70
    64
  3
_____ _ _ _____ _ _ _____ _ _ _____ _ _ ____  
 72
    65
 73
     6
 40
15.500000
 49
8.000000
 49
-1.500000
 49
1.500000
 49
-1.500000
 49
1.500000
 49
-1.500000
  0
LTYPE
  2
DASHED1
 70
    64
  3
__ __ __ __ __ __ __ __ __ __ __ __ __ __ __
 72
    65
 73
     2
 40
1.500000
 49
1.000000
 49
-0.500000
  0
LTYPE
  2
DASHED2
 70
    64
  3
__ __ __ __ __ __ __ __ __ __ __ __ __ __ __
 72
    65
 73
     2
 40
3.500000
 49
2.500000
 49
-1.000000
  0
LTYPE
  2
DASHED3
 70
    64
  3
__ __ __ __ __ __ __ __ __ __ __ __ __ __ __
 72
    65
 73
     2
 40
6.000000
 49
4.000000
 49
-2.000000
  0
LTYPE
  2
DASHED4
 70
    64
  3
__ __ __ __ __ __ __ __ __ __ __ __ __ __ __
 72
    65
 73
     2
 40
12.000000
 49
10.000000
 49
-2.000000
  0
LTYPE
  2
DASHED5
 70
    64
  3
__ __ __ __ __ __ __ __ __ __ __ __ __ __ __
 72
    65
 73
     2
 40
17.000000
 49
15.000000
 49
-2.000000
  0
LTYPE
  2
DASHED6
 70
    64
  3
__ __ __ __ __ __ __ __ __ __ __ __ __ __ __
 72
    65
 73
     2
 40
29.000000
 49
27.000000
 49
-2.000000
  0
LTYPE
  2
PHANTOM1
 70
    64
  3
_____ _ _ _____ _ _ _____ _ _ _____ _ _ ____  
 72
    65
 73
     6
 40
31.000000
 49
25.000000
 49
-1.500000
 49
1.000000
 49
-1.000000
 49
1.000000
 49
-1.500000
  0
LTYPE
  2
PHANTOM2
 70
    64
  3
_____ _ _ _____ _ _ _____ _ _ _____ _ _ ____  
 72
    65
 73
     6
 40
36.000000
 49
27.000000
 49
-1.500000
 49
2.500000
 49
-1.000000
 49
2.500000
 49
-1.500000
  0
LTYPE
  2
PHANTOM3
 70
    64
  3
_____ _ _ _____ _ _ _____ _ _ _____ _ _ ____  
 72
    65
 73
     6
 40
78.000000
 49
64.000000
 49
-2.000000
 49
4.000000
 49
-2.000000
 49
4.000000
 49
-2.000000
  0
LTYPE
  2
CENTER1
 70
    64
  3
____ _ ____ _ ____ _ ____ _ ____ _ ____ _ ____
 72
    65
 73
     4
 40
19.000000
 49
14.000000
 49
-1.000000
 49
3.000000
 49
-1.000000
  0
LTYPE
  2
CENTER2
 70
    64
  3
____ _ ____ _ ____ _ ____ _ ____ _ ____ _ ____
 72
    65
 73
     4
 40
28.500000
 49
25.000000
 49
-1.000000
 49
1.500000
 49
-1.000000
  0
LTYPE
  2
CENTER3
 70
    64
  3
____ _ ____ _ ____ _ ____ _ ____ _ ____ _ ____
 72
    65
 73
     4
 40
31.500000
 49
27.000000
 49
-1.000000
 49
2.500000
 49
-1.000000
  0
LTYPE
  2
CENTER4
 70
    64
  3
____ _ ____ _ ____ _ ____ _ ____ _ ____ _ ____
 72
    65
 73
     4
 40
50.000000
 49
45.000000
 49
-1.000000
 49
3.000000
 49
-1.000000
  0
LTYPE
  2
CENTER5
 70
    64
  3
____ _ ____ _ ____ _ ____ _ ____ _ ____ _ ____
 72
    65
 73
     4
 40
100.000000
 49
92.000000
 49
-2.000000
 49
4.000000
 49
-2.000000
  0
LTYPE
  2
SBK1
 70
    64
  3
______ _ _ _ ______ _ _ _ ______ _ _ _ _____  
 72
    65
 73
     8
 40
60.500000
 49
45.000000
 49
-2.000000
 49
2.500000
 49
-2.000000
 49
2.500000
 49
-2.000000
 49
2.500000
 49
-2.000000
  0
LTYPE
  2
SBK2
 70
    64
  3
______ _ _ _ ______ _ _ _ ______ _ _ _ _____  
 72
    65
 73
     8
 40
84.000000
 49
64.000000
 49
-2.000000
 49
4.000000
 49
-2.000000
 49
4.000000
 49
-2.000000
 49
4.000000
 49
-2.000000
  0
LTYPE
  2
STCH
 70
    64
  3
__ __ __ __ __ __ __ __ __ __ __ __ __ __ __
 72
    65
 73
     2
 40
3.000000
 49
1.000000
 49
-2.000000
  0
LTYPE
  2
MTCH
 70
    64
  3
_____ _ _ _____ _ _ _____ _ _ _____ _ _ ____  
 72
    65
 73
     6
 40
80.000000
 49
66.000000
 49
-2.000000
 49
4.000000
 49
-2.000000
 49
4.000000
 49
-2.000000
  0
ENDTAB
  0
TABLE
  2
LAYER
 70
     1
  0
LAYER
  2
0
 70
     0
 62
     7
  6
CONTINUOUS
  0
ENDTAB
  0
TABLE
  2
STYLE
 70
     1
  0
STYLE
  2
STANDARD
 70
     0
 40
0.000000
 41
1.000000
 50
0.000000
 71
     0
 42
0.200000
  3
txt
  4
BIGFONT
  0
ENDTAB
  0
TABLE
  2
VIEW
 70
     0
  0
ENDTAB
  0
ENDSEC
  0
SECTION
  2
BLOCKS
  0
ENDSEC
  0
SECTION
  2
ENTITIES
  0
LINE
  8
0
  6
CENTER
 62
     2
 10
-159.998718
 20
-99.318146
 11
-159.998718
 21
-91.318146
  0
LINE
  8
0
 62
     4
 10
67.218948
 20
-77.553017
 11
68.768944
 21
-79.093018
  0
LINE
  8
0
 62
     4
 10
67.218956
 20
-79.093033
 11
68.768951
 21
-77.553032
  0
LINE
  8
0
 62
     4
 10
87.498947
 20
-77.133026
 11
93.554535
 21
-77.133026
  0
LINE
  8
0
 62
     4
 10
87.498947
 20
-79.513023
 11
93.554535
 21
-79.513023
  0
LINE
  8
0
 62
     4
 10
85.998955
 20
-76.723022
 11
87.498947
 21
-77.133018
  0
LINE
  8
0
 62
     4
 10
85.998947
 20
-79.923019
 11
87.498940
 21
-79.513016
  0
LINE
  8
0
 62
     4
 10
87.498947
 20
-79.513023
 11
87.498947
 21
-77.133026
  0
LINE
  8
0
 62
     4
 10
85.998947
 20
-79.923019
 11
85.998947
 21
-76.723038
  0
LINE
  8
0
 62
     4
 10
70.998947
 20
-79.923019
 11
70.998947
 21
-76.723038
  0
LINE
  8
0
 62
     4
 10
64.998947
 20
-79.923019
 11
64.998947
 21
-76.723038
  0
LINE
  8
0
 62
     4
 10
-82.781044
 20
-77.553024
 11
-81.231041
 21
-79.093018
  0
LINE
  8
0
 62
     4
 10
-82.781052
 20
-79.093025
 11
-81.231056
 21
-77.553024
  0
LINE
  8
0
 62
     4
 10
-62.501053
 20
-77.133026
 11
-56.445465
 21
-77.133026
  0
LINE
  8
0
 62
     4
 10
-62.501053
 20
-79.513023
 11
-56.445465
 21
-79.513023
  0
LINE
  8
0
 62
     4
 10
-64.001053
 20
-76.723022
 11
-62.501045
 21
-77.133018
  0
LINE
  8
0
 62
     4
 10
-64.001038
 20
-79.923027
 11
-62.501041
 21
-79.513023
  0
LINE
  8
0
 62
     4
 10
-62.501053
 20
-79.513023
 11
-62.501053
 21
-77.133026
  0
LINE
  8
0
 62
     4
 10
-64.001053
 20
-79.923019
 11
-64.001053
 21
-76.723038
  0
LINE
  8
0
 62
     4
 10
-79.001053
 20
-79.923019
 11
-79.001053
 21
-76.723038
  0
LINE
  8
0
 62
     4
 10
-85.001053
 20
-79.923019
 11
-85.001053
 21
-76.723038
  0
LINE
  8
0
 10
87.491272
 20
-72.568146
 11
83.991272
 21
-72.568146
  0
LINE
  8
0
 10
83.991272
 20
-72.568146
 11
83.991272
 21
-73.818146
  0
LINE
  8
0
 10
-153.998718
 20
-86.818146
 11
-164.998718
 21
-86.818146
  0
LINE
  8
0
 10
133.991272
 20
-86.818146
 11
144.991272
 21
-86.818146
  0
LINE
  8
0
 10
133.991272
 20
-67.318146
 11
133.991272
 21
-95.318146
  0
LINE
  8
0
 10
-153.998718
 20
-67.318146
 11
-153.998718
 21
-95.318146
  0
LINE
  8
0
 10
133.991272
 20
-67.318146
 11
144.991272
 21
-67.318146
  0
LINE
  8
0
 10
-164.998718
 20
-67.318146
 11
-153.998718
 21
-67.318146
  0
LINE
  8
0
 10
-40.008728
 20
-70.318146
 11
114.991272
 21
-70.318146
  0
LINE
  8
0
 10
-135.008728
 20
-70.318146
 11
-130.008728
 21
-70.318146
  0
LINE
  8
0
 10
120.991272
 20
-67.318146
 11
120.991272
 21
-68.818146
  0
LINE
  8
0
 10
120.991272
 20
-67.318146
 11
127.991272
 21
-67.318146
  0
LINE
  8
0
 10
127.991272
 20
-67.318146
 11
127.991272
 21
-68.818146
  0
LINE
  8
0
 10
-147.998718
 20
-67.318146
 11
-147.998718
 21
-68.818146
  0
LINE
  8
0
 10
-147.998718
 20
-67.318146
 11
-140.998718
 21
-67.318146
  0
LINE
  8
0
 10
-140.998718
 20
-67.318146
 11
-140.998718
 21
-68.818146
  0
LINE
  8
0
 10
87.491272
 20
-72.568146
 11
87.491272
 21
-73.818146
  0
LINE
  8
0
 10
88.241272
 20
-71.818146
 11
88.241272
 21
-73.818146
  0
LINE
  8
0
 10
87.491280
 20
-72.568146
 11
88.241272
 21
-71.818153
  0
LINE
  8
0
 62
     2
 10
114.991272
 20
-72.568146
 11
87.491272
 21
-72.568146
  0
LINE
  8
0
 10
114.991272
 20
-71.818146
 11
88.241272
 21
-71.818146
  0
LINE
  8
0
 10
114.991272
 20
-68.818146
 11
114.991272
 21
-73.818146
  0
LINE
  8
0
 10
114.991272
 20
-68.818146
 11
133.991272
 21
-68.818146
  0
LINE
  8
0
 10
-135.008728
 20
-72.568146
 11
-130.008728
 21
-72.568146
  0
LINE
  8
0
 10
-135.008728
 20
-71.818146
 11
-130.008728
 21
-71.818146
  0
LINE
  8
0
 10
-135.008728
 20
-68.818146
 11
-135.008728
 21
-73.818146
  0
LINE
  8
0
 10
-153.998718
 20
-68.818146
 11
-135.008728
 21
-68.818146
  0
LINE
  8
0
  6
CENTER
 62
     2
 10
-85.008728
 20
-102.675201
 11
-85.008728
 21
-58.040970
  0
LINE
  8
0
 10
133.991272
 20
-75.818146
 11
144.991272
 21
-75.818146
  0
LINE
  8
0
 10
-153.998718
 20
-75.818146
 11
-164.998718
 21
-75.818146
  0
LINE
  8
0
 10
-43.008728
 20
-72.818146
 11
-43.008728
 21
-73.818146
  0
LINE
  8
0
 10
-77.008728
 20
-72.818146
 11
-77.008728
 21
-73.818146
  0
LINE
  8
0
 10
-93.008728
 20
-72.818146
 11
-93.008728
 21
-73.818146
  0
LINE
  8
0
 10
-127.008728
 20
-72.818146
 11
-127.008728
 21
-73.818146
  0
LINE
  8
0
 10
-40.008728
 20
-72.818146
 11
-130.008728
 21
-72.818146
  0
LINE
  8
0
 10
-130.008728
 20
-65.318146
 11
-130.008728
 21
-72.818146
  0
LINE
  8
0
 10
-40.008728
 20
-65.318146
 11
-40.008728
 21
-72.818146
  0
LINE
  8
0
 10
-130.008728
 20
-65.318146
 11
-40.008728
 21
-65.318146
  0
LINE
  8
0
 10
-153.998718
 20
-79.918144
 11
133.991272
 21
-79.918144
  0
LINE
  8
0
 10
-153.998718
 20
-76.718155
 11
133.991272
 21
-76.718155
  0
LINE
  8
0
 10
-153.998718
 20
-73.818146
 11
133.991272
 21
-73.818146
  0
LINE
  8
0
 10
144.991272
 20
-95.318146
 11
144.991272
 21
-67.318146
  0
LINE
  8
0
 10
-164.998718
 20
-95.318146
 11
144.991272
 21
-95.318146
  0
LINE
  8
0
 10
-164.998718
 20
-67.318146
 11
-164.998718
 21
-95.318146
  0
LINE
  8
0
  6
PHANTOM
 62
     3
 10
6.490662
 20
-106.672295
 11
6.490662
 21
-26.064209
  0
LINE
  8
0
 10
200.841263
 20
8.471845
 11
202.221268
 21
9.271848
  0
LINE
  8
0
 10
199.711258
 20
8.471848
 11
200.841263
 21
8.471848
  0
LINE
  8
0
 10
201.591248
 20
5.671845
 11
202.971252
 21
6.471848
  0
LINE
  8
0
 10
195.491257
 20
9.671844
 11
195.491257
 21
4.671844
  0
LINE
  8
0
 10
199.591263
 20
5.171844
 11
199.591263
 21
4.671844
  0
LINE
  8
0
 10
200.091278
 20
5.671848
 11
199.591278
 21
5.171847
  0
LINE
  8
0
 10
200.091263
 20
5.671844
 11
201.591263
 21
5.671844
  0
LINE
  8
0
 10
195.891266
 20
5.671844
 11
195.891266
 21
7.271851
  0
LINE
  8
0
 10
195.891281
 20
5.671858
 11
196.391281
 21
5.171857
  0
LINE
  8
0
 10
196.391266
 20
5.171844
 11
196.391266
 21
4.671844
  0
LINE
  8
0
 10
184.991257
 20
67.671844
 11
184.991257
 21
4.671844
  0
LINE
  8
0
 10
214.991257
 20
4.671844
 11
214.991257
 21
96.671844
  0
LINE
  8
0
 10
186.991257
 20
96.671844
 11
200.291260
 21
96.671844
  0
LINE
  8
0
  6
CENTER
 62
     2
 10
205.951263
 20
46.171844
 11
183.911270
 21
46.171844
  0
LINE
  8
0
 10
200.291260
 20
96.671844
 11
200.291260
 21
95.671844
  0
LINE
  8
0
 10
198.991257
 20
95.671844
 11
200.291260
 21
95.671844
  0
LINE
  8
0
 10
198.991257
 20
95.671844
 11
198.991257
 21
94.171844
  0
LINE
  8
0
 10
198.991257
 20
94.171852
 11
199.701263
 21
93.461853
  0
LINE
  8
0
 10
200.401260
 20
93.171844
 11
203.571259
 21
93.171844
  0
LINE
  8
0
 10
204.991257
 20
94.171837
 11
204.281250
 21
93.461830
  0
LINE
  8
0
 10
204.991257
 20
95.671844
 11
204.991257
 21
94.171844
  0
LINE
  8
0
 10
204.991257
 20
95.671844
 11
203.691254
 21
95.671844
  0
LINE
  8
0
 10
203.691254
 20
96.671844
 11
203.691254
 21
95.671844
  0
LINE
  8
0
 10
203.691254
 20
96.671844
 11
214.991257
 21
96.671844
  0
LINE
  8
0
 10
186.991257
 20
96.671844
 11
186.991257
 21
4.671844
  0
LINE
  8
0
 10
202.971252
 20
6.471848
 11
204.591263
 21
6.471848
  0
LINE
  8
0
 10
202.221252
 20
9.271851
 11
204.591263
 21
9.271851
  0
LINE
  8
0
 10
201.591248
 20
5.671845
 11
202.971252
 21
6.471848
  0
LINE
  8
0
 10
200.841263
 20
8.471845
 11
202.221268
 21
9.271848
  0
LINE
  8
0
 10
206.491257
 20
9.671844
 11
206.491257
 21
4.671844
  0
LINE
  8
0
 10
184.991257
 20
67.671844
 11
186.991257
 21
67.671844
  0
LINE
  8
0
  6
CENTER
 62
     2
 10
196.491257
 20
55.321854
 11
196.491257
 21
37.171844
  0
LINE
  8
0
 10
198.491257
 20
96.671844
 11
198.491257
 21
92.671844
  0
LINE
  8
0
 10
205.491257
 20
92.671844
 11
198.491257
 21
92.671844
  0
LINE
  8
0
 10
205.491257
 20
92.671844
 11
205.491257
 21
96.671844
  0
LINE
  8
0
  6
CENTER
 62
     2
 10
205.511261
 20
49.671860
 11
217.531250
 21
49.671860
  0
LINE
  8
0
  6
DASHED
 62
     2
 10
212.491257
 20
47.421860
 11
214.991257
 21
47.421860
  0
LINE
  8
0
  6
DASHED
 62
     2
 10
212.491257
 20
53.921860
 11
212.491257
 21
45.421860
  0
LINE
  8
0
  6
DASHED
 62
     2
 10
208.791260
 20
45.421860
 11
212.491257
 21
45.421860
  0
LINE
  8
0
  6
DASHED
 62
     2
 10
208.791260
 20
45.421860
 11
208.791260
 21
47.421860
  0
LINE
  8
0
  6
DASHED
 62
     2
 10
207.791260
 20
47.421860
 11
208.791260
 21
47.421860
  0
LINE
  8
0
  6
DASHED
 62
     2
 10
207.791260
 20
51.921860
 11
208.791260
 21
51.921860
  0
LINE
  8
0
  6
DASHED
 62
     2
 10
208.791260
 20
53.921860
 11
208.791260
 21
51.921860
  0
LINE
  8
0
  6
DASHED
 62
     2
 10
208.791260
 20
53.921860
 11
212.491257
 21
53.921860
  0
LINE
  8
0
  6
DASHED
 62
     2
 10
212.491257
 20
51.921860
 11
214.991257
 21
51.921860
  0
LINE
  8
0
  6
DASHED
 62
     2
 10
207.791260
 20
51.921860
 11
207.791260
 21
47.421860
  0
LINE
  8
0
  6
CENTER
 62
     2
 10
205.911255
 20
15.671844
 11
217.531250
 21
15.671844
  0
LINE
  8
0
  6
DASHED
 62
     2
 10
212.491257
 20
13.421844
 11
214.991257
 21
13.421844
  0
LINE
  8
0
  6
DASHED
 62
     2
 10
212.491257
 20
19.921844
 11
212.491257
 21
11.421844
  0
LINE
  8
0
  6
DASHED
 62
     2
 10
208.791260
 20
11.421844
 11
212.491257
 21
11.421844
  0
LINE
  8
0
  6
DASHED
 62
     2
 10
208.791260
 20
11.421844
 11
208.791260
 21
13.421844
  0
LINE
  8
0
  6
DASHED
 62
     2
 10
207.791260
 20
13.421844
 11
208.791260
 21
13.421844
  0
LINE
  8
0
  6
DASHED
 62
     2
 10
207.791260
 20
17.921844
 11
208.791260
 21
17.921844
  0
LINE
  8
0
  6
DASHED
 62
     2
 10
208.791260
 20
19.921844
 11
208.791260
 21
17.921844
  0
LINE
  8
0
  6
DASHED
 62
     2
 10
208.791260
 20
19.921844
 11
212.491257
 21
19.921844
  0
LINE
  8
0
  6
DASHED
 62
     2
 10
212.491257
 20
17.921844
 11
214.991257
 21
17.921844
  0
LINE
  8
0
  6
DASHED
 62
     2
 10
207.791260
 20
17.921844
 11
207.791260
 21
13.421844
  0
LINE
  8
0
  6
DASHED
 62
     2
 10
214.491257
 20
41.171860
 11
214.491257
 21
24.171860
  0
LINE
  8
0
  6
DASHED
 62
     2
 10
214.991257
 20
41.671848
 11
214.491257
 21
41.171844
  0
LINE
  8
0
  6
DASHED
 62
     2
 10
214.991257
 20
23.671848
 11
214.491257
 21
24.171850
  0
LINE
  8
0
  6
DASHED
 62
     2
 10
209.441254
 20
11.421844
 11
209.441254
 21
19.921844
  0
LINE
  8
0
  6
DASHED
 62
     2
 10
209.441254
 20
45.421860
 11
209.441254
 21
53.921860
  0
LINE
  8
0
 10
197.141266
 20
51.131851
 11
197.141266
 21
41.211853
  0
LINE
  8
0
 10
195.841263
 20
51.131851
 11
195.841263
 21
41.211853
  0
LINE
  8
0
 62
     4
 10
196.491257
 20
4.571854
 11
196.491257
 21
5.021851
  0
LINE
  8
0
 62
     4
 10
199.491257
 20
4.571854
 11
199.491257
 21
5.021851
  0
LINE
  8
0
  6
CENTER
 62
     1
 10
197.991257
 20
3.808105
 11
197.991257
 21
9.814896
  0
LINE
  8
0
  6
CENTER
 62
     1
 10
198.726547
 20
6.421860
 11
197.238846
 21
6.421860
  0
LINE
  8
0
  6
CENTER
 62
     1
 10
198.726547
 20
7.321854
 11
197.238846
 21
7.321854
  0
LINE
  8
0
  6
CENTER
 62
     1
 10
199.637695
 20
6.871857
 11
196.348267
 21
6.871857
  0
LINE
  8
0
 10
206.491257
 20
9.671844
 11
195.491257
 21
9.671844
  0
LINE
  8
0
 10
196.391266
 20
4.671844
 11
184.991257
 21
4.671844
  0
LINE
  8
0
 10
214.991257
 20
4.671844
 11
199.591263
 21
4.671844
  0
LINE
  8
0
 62
     4
 10
195.941269
 20
5.621857
 11
195.941269
 21
7.071854
  0
LINE
  8
0
 62
     4
 10
195.941254
 20
5.621854
 11
196.491241
 21
5.071856
  0
LINE
  8
0
 62
     4
 10
196.491257
 20
4.521851
 11
196.491257
 21
5.071854
  0
LINE
  8
0
 62
     4
 10
196.491257
 20
4.521851
 11
199.491257
 21
4.521851
  0
LINE
  8
0
 62
     4
 10
199.491257
 20
4.521851
 11
199.491257
 21
5.071854
  0
LINE
  8
0
 62
     4
 10
200.041245
 20
5.621850
 11
199.491257
 21
5.071852
  0
LINE
  8
0
 62
     4
 10
196.991257
 20
4.101852
 11
198.991257
 21
4.101852
  0
LINE
  8
0
 62
     4
 10
199.241257
 20
4.351855
 11
198.991257
 21
4.101863
  0
LINE
  8
0
 62
     4
 10
199.241257
 20
4.351852
 11
199.241257
 21
4.521851
  0
LINE
  8
0
 62
     4
 10
196.741257
 20
4.351857
 11
196.991257
 21
4.101854
  0
LINE
  8
0
 62
     4
 10
196.741257
 20
4.351852
 11
196.741257
 21
4.521851
  0
LINE
  8
0
 62
     1
 10
198.991257
 20
4.101852
 11
198.991257
 21
4.521851
  0
LINE
  8
0
 62
     1
 10
196.991257
 20
4.101852
 11
196.991257
 21
4.521851
  0
LINE
  8
0
 62
     4
 10
196.991257
 20
9.101852
 11
197.741028
 21
9.101852
  0
LINE
  8
0
 62
     4
 10
198.991257
 20
9.101848
 11
199.241257
 21
8.851839
  0
LINE
  8
0
 62
     4
 10
196.991241
 20
9.101854
 11
196.741257
 21
8.851866
  0
LINE
  8
0
 62
     4
 10
196.741257
 20
8.691849
 11
196.741257
 21
8.851852
  0
LINE
  8
0
 62
     1
 10
196.991257
 20
8.856567
 11
196.991257
 21
9.101852
  0
LINE
  8
0
 62
     1
 10
198.991257
 20
8.856232
 11
198.991257
 21
9.101852
  0
LINE
  8
0
 62
     4
 10
199.241257
 20
8.691391
 11
199.241257
 21
8.851852
  0
LINE
  8
0
 62
     4
 10
200.041260
 20
5.621857
 11
200.041260
 21
7.071854
  0
LINE
  8
0
 62
     4
 10
198.241501
 20
9.101852
 11
198.991257
 21
9.101852
  0
LINE
  8
0
  6
CENTER
 62
     2
 10
210.991257
 20
88.171844
 11
218.991257
 21
88.171844
  0
LINE
  8
0
 10
-215.848724
 20
51.131851
 11
-215.848724
 21
41.211853
  0
LINE
  8
0
 10
-217.148727
 20
51.131851
 11
-217.148727
 21
41.211853
  0
LINE
  8
0
  6
DASHED
 62
     2
 10
-229.448715
 20
45.421860
 11
-229.448715
 21
53.921860
  0
LINE
  8
0
  6
DASHED
 62
     2
 10
-229.448715
 20
11.421860
 11
-229.448715
 21
19.921860
  0
LINE
  8
0
  6
DASHED
 62
     2
 10
-234.998718
 20
23.671848
 11
-234.498718
 21
24.171850
  0
LINE
  8
0
  6
DASHED
 62
     2
 10
-234.998718
 20
41.671848
 11
-234.498718
 21
41.171844
  0
LINE
  8
0
  6
DASHED
 62
     2
 10
-234.498718
 20
41.171860
 11
-234.498718
 21
24.171860
  0
LINE
  8
0
  6
DASHED
 62
     2
 10
-227.798721
 20
17.921860
 11
-227.798721
 21
13.421860
  0
LINE
  8
0
  6
DASHED
 62
     2
 10
-232.498718
 20
17.921860
 11
-234.998718
 21
17.921860
  0
LINE
  8
0
  6
DASHED
 62
     2
 10
-228.798721
 20
19.921860
 11
-232.498718
 21
19.921860
  0
LINE
  8
0
  6
DASHED
 62
     2
 10
-228.798721
 20
19.921860
 11
-228.798721
 21
17.921860
  0
LINE
  8
0
  6
DASHED
 62
     2
 10
-227.798721
 20
17.921860
 11
-228.798721
 21
17.921860
  0
LINE
  8
0
  6
DASHED
 62
     2
 10
-227.798721
 20
13.421860
 11
-228.798721
 21
13.421860
  0
LINE
  8
0
  6
DASHED
 62
     2
 10
-228.798721
 20
11.421860
 11
-228.798721
 21
13.421860
  0
LINE
  8
0
  6
DASHED
 62
     2
 10
-228.798721
 20
11.421860
 11
-232.498718
 21
11.421860
  0
LINE
  8
0
  6
DASHED
 62
     2
 10
-232.498718
 20
19.921860
 11
-232.498718
 21
11.421860
  0
LINE
  8
0
  6
DASHED
 62
     2
 10
-232.498718
 20
13.421860
 11
-234.998718
 21
13.421860
  0
LINE
  8
0
  6
CENTER
 62
     2
 10
-225.918716
 20
15.671860
 11
-237.538712
 21
15.671860
  0
LINE
  8
0
  6
DASHED
 62
     2
 10
-227.798721
 20
51.921860
 11
-227.798721
 21
47.421860
  0
LINE
  8
0
  6
DASHED
 62
     2
 10
-232.498718
 20
51.921860
 11
-234.998718
 21
51.921860
  0
LINE
  8
0
  6
DASHED
 62
     2
 10
-228.798721
 20
53.921860
 11
-232.498718
 21
53.921860
  0
LINE
  8
0
  6
DASHED
 62
     2
 10
-228.798721
 20
53.921860
 11
-228.798721
 21
51.921860
  0
LINE
  8
0
  6
DASHED
 62
     2
 10
-227.798721
 20
51.921860
 11
-228.798721
 21
51.921860
  0
LINE
  8
0
  6
DASHED
 62
     2
 10
-227.798721
 20
47.421860
 11
-228.798721
 21
47.421860
  0
LINE
  8
0
  6
DASHED
 62
     2
 10
-228.798721
 20
45.421860
 11
-228.798721
 21
47.421860
  0
LINE
  8
0
  6
DASHED
 62
     2
 10
-228.798721
 20
45.421860
 11
-232.498718
 21
45.421860
  0
LINE
  8
0
  6
DASHED
 62
     2
 10
-232.498718
 20
53.921860
 11
-232.498718
 21
45.421860
  0
LINE
  8
0
  6
DASHED
 62
     2
 10
-232.498718
 20
47.421860
 11
-234.998718
 21
47.421860
  0
LINE
  8
0
  6
CENTER
 62
     2
 10
-225.518723
 20
49.671860
 11
-237.538712
 21
49.671860
  0
LINE
  8
0
 10
-225.498718
 20
92.671844
 11
-225.498718
 21
96.671844
  0
LINE
  8
0
 10
-225.498718
 20
92.671844
 11
-218.498718
 21
92.671844
  0
LINE
  8
0
 10
-218.498718
 20
96.671844
 11
-218.498718
 21
92.671844
  0
LINE
  8
0
  6
CENTER
 62
     2
 10
-216.498718
 20
55.321854
 11
-216.498718
 21
37.171860
  0
LINE
  8
0
 10
-204.998718
 20
67.671860
 11
-206.998718
 21
67.671860
  0
LINE
  8
0
 10
-226.498718
 20
9.671844
 11
-226.498718
 21
4.671844
  0
LINE
  8
0
 10
-222.228714
 20
9.271851
 11
-224.598724
 21
9.271851
  0
LINE
  8
0
 10
-222.978714
 20
6.471848
 11
-224.598724
 21
6.471848
  0
LINE
  8
0
  6
CENTER
 62
     2
 10
-229.498718
 20
54.171860
 11
-220.498718
 21
54.171860
  0
LINE
  8
0
  6
CENTER
 62
     2
 10
-224.998718
 20
58.671860
 11
-224.998718
 21
47.971848
  0
LINE
  8
0
 10
-206.998718
 20
96.671844
 11
-206.998718
 21
4.671844
  0
LINE
  8
0
 10
-223.698715
 20
96.671844
 11
-234.998718
 21
96.671844
  0
LINE
  8
0
 10
-223.698715
 20
96.671844
 11
-223.698715
 21
95.671844
  0
LINE
  8
0
 10
-224.998718
 20
95.671844
 11
-223.698715
 21
95.671844
  0
LINE
  8
0
 10
-224.998718
 20
95.671844
 11
-224.998718
 21
94.171844
  0
LINE
  8
0
 10
-224.998718
 20
94.171844
 11
-224.288712
 21
93.461838
  0
LINE
  8
0
 10
-220.408722
 20
93.171844
 11
-223.578720
 21
93.171844
  0
LINE
  8
0
 10
-218.998703
 20
94.171844
 11
-219.708725
 21
93.461845
  0
LINE
  8
0
 10
-218.998718
 20
95.671844
 11
-218.998718
 21
94.171844
  0
LINE
  8
0
 10
-218.998718
 20
95.671844
 11
-220.298721
 21
95.671844
  0
LINE
  8
0
 10
-220.298721
 20
96.671844
 11
-220.298721
 21
95.671844
  0
LINE
  8
0
  6
CENTER
 62
     2
 10
-228.498718
 20
80.171844
 11
-215.498718
 21
80.171844
  0
LINE
  8
0
  6
CENTER
 62
     2
 10
-221.998718
 20
86.671844
 11
-221.998718
 21
72.801842
  0
LINE
  8
0
  6
CENTER
 62
     2
 10
-225.958725
 20
46.171860
 11
-203.918732
 21
46.171860
  0
LINE
  8
0
 10
-226.498718
 20
9.671844
 11
-215.498718
 21
9.671844
  0
LINE
  8
0
 10
-216.398727
 20
4.671844
 11
-204.998718
 21
4.671844
  0
LINE
  8
0
 10
-206.998718
 20
96.671844
 11
-220.298721
 21
96.671844
  0
LINE
  8
0
 10
-234.998718
 20
4.671844
 11
-234.998718
 21
96.671844
  0
LINE
  8
0
 10
-234.998718
 20
4.671844
 11
-219.598724
 21
4.671844
  0
LINE
  8
0
 10
-204.998718
 20
67.671860
 11
-204.998718
 21
4.671844
  0
LINE
  8
0
 10
-220.848724
 20
8.471855
 11
-222.228729
 21
9.271858
  0
LINE
  8
0
 10
-221.598709
 20
5.671850
 11
-222.978714
 21
6.471853
  0
LINE
  8
0
 10
-215.498718
 20
9.671844
 11
-215.498718
 21
4.671844
  0
LINE
  8
0
  6
CENTER
 62
     1
 10
-217.998718
 20
10.451859
 11
-217.998718
 21
2.521851
  0
LINE
  8
0
 10
-216.398727
 20
5.171844
 11
-216.398727
 21
4.671844
  0
LINE
  8
0
 10
-215.898727
 20
5.671860
 11
-216.398727
 21
5.171859
  0
LINE
  8
0
 10
-215.898727
 20
5.671844
 11
-215.898727
 21
7.271851
  0
LINE
  8
0
 10
-220.098724
 20
5.671844
 11
-221.598724
 21
5.671844
  0
LINE
  8
0
 10
-220.098724
 20
5.671846
 11
-219.598724
 21
5.171845
  0
LINE
  8
0
 10
-219.598724
 20
5.171844
 11
-219.598724
 21
4.671844
  0
LINE
  8
0
 10
-219.718719
 20
8.471848
 11
-220.848724
 21
8.471848
  0
LINE
  8
0
 62
     4
 10
-216.498718
 20
4.521851
 11
-219.498718
 21
4.521851
  0
LINE
  8
0
 62
     4
 10
-220.048721
 20
5.621857
 11
-220.048721
 21
7.067184
  0
LINE
  8
0
 62
     4
 10
-215.948730
 20
5.621857
 11
-215.948730
 21
7.071854
  0
LINE
  8
0
 62
     4
 10
-216.498718
 20
4.521851
 11
-216.498718
 21
5.071854
  0
LINE
  8
0
 62
     4
 10
-219.498718
 20
4.521851
 11
-219.498718
 21
5.071854
  0
LINE
  8
0
 62
     4
 10
-215.948715
 20
5.621850
 11
-216.498718
 21
5.071852
  0
LINE
  8
0
 62
     4
 10
-220.048721
 20
5.621854
 11
-219.498718
 21
5.071856
  0
LINE
  8
0
 62
     4
 10
-215.948730
 20
6.321854
 11
-220.048721
 21
6.321854
  0
LINE
  8
0
 62
     4
 10
-216.098724
 20
6.421860
 11
-219.898712
 21
6.421860
  0
LINE
  8
0
 62
     4
 10
-219.998718
 20
6.521851
 11
-219.998718
 21
7.021851
  0
LINE
  8
0
 62
     4
 10
-215.998718
 20
6.521851
 11
-215.998718
 21
7.021851
  0
LINE
  8
0
 62
     4
 10
-216.098724
 20
7.121857
 11
-219.898712
 21
7.121857
  0
LINE
  8
0
 62
     1
 10
-218.998718
 20
4.101852
 11
-218.998718
 21
4.521851
  0
LINE
  8
0
 62
     1
 10
-216.998718
 20
4.101852
 11
-216.998718
 21
4.521851
  0
LINE
  8
0
 62
     4
 10
-216.998718
 20
4.101852
 11
-218.998718
 21
4.101852
  0
LINE
  8
0
 62
     4
 10
-216.998718
 20
9.101852
 11
-218.998718
 21
9.101852
  0
LINE
  8
0
 62
     4
 10
-216.748718
 20
4.351851
 11
-216.998718
 21
4.101859
  0
LINE
  8
0
 62
     4
 10
-218.998718
 20
9.101856
 11
-219.248718
 21
8.851848
  0
LINE
  8
0
 62
     4
 10
-219.248718
 20
4.351851
 11
-218.998718
 21
4.101858
  0
LINE
  8
0
 62
     4
 10
-216.998688
 20
9.101854
 11
-216.748718
 21
8.851865
  0
LINE
  8
0
 62
     4
 10
-216.748718
 20
7.121857
 11
-216.748718
 21
8.851852
  0
LINE
  8
0
 62
     1
 10
-216.998718
 20
7.121857
 11
-216.998718
 21
9.101852
  0
LINE
  8
0
 62
     1
 10
-218.998718
 20
7.121857
 11
-218.998718
 21
9.101852
  0
LINE
  8
0
 62
     4
 10
-219.248718
 20
7.121857
 11
-219.248718
 21
8.851852
  0
LINE
  8
0
 62
     4
 10
-216.748718
 20
4.351852
 11
-216.748718
 21
4.521851
  0
LINE
  8
0
 62
     1
 10
-216.998718
 20
6.321854
 11
-216.998718
 21
6.421860
  0
LINE
  8
0
 62
     1
 10
-218.998718
 20
6.321854
 11
-218.998718
 21
6.421860
  0
LINE
  8
0
 62
     4
 10
-219.248718
 20
4.351852
 11
-219.248718
 21
4.521851
  0
LINE
  8
0
 62
     4
 10
-216.748718
 20
6.321854
 11
-216.748718
 21
6.421860
  0
LINE
  8
0
 62
     4
 10
-219.248718
 20
6.321854
 11
-219.248718
 21
6.421860
  0
LINE
  8
0
  6
CENTER
 62
     2
 10
-238.998718
 20
88.171844
 11
-230.998718
 21
88.171844
  0
LINE
  8
0
 10
87.491272
 20
41.921860
 11
83.991272
 21
41.921860
  0
LINE
  8
0
 10
87.491272
 20
50.421860
 11
83.991272
 21
50.421860
  0
LINE
  8
0
  6
DASHED
 10
133.991272
 20
46.821854
 11
133.991272
 21
50.421860
  0
LINE
  8
0
 10
73.991272
 20
44.671860
 11
73.991272
 21
47.671860
  0
LINE
  8
0
 10
83.991272
 20
41.921860
 11
83.991272
 21
50.421860
  0
LINE
  8
0
 62
     4
 10
-83.008728
 20
56.671860
 11
-83.008728
 21
54.671860
  0
LINE
  8
0
 62
     4
 10
-87.008728
 20
56.671860
 11
-87.008728
 21
54.671860
  0
LINE
  8
0
  6
CENTER
 62
     1
 10
-88.558731
 20
54.671860
 11
-81.548721
 21
54.671860
  0
LINE
  8
0
  6
CENTER
 62
     1
 10
-88.498718
 20
56.671860
 11
-81.458725
 21
56.671860
  0
LINE
  8
0
 10
122.998901
 20
55.316994
 11
124.498756
 21
54.447071
  0
LINE
  8
0
 10
124.498856
 20
57.907013
 11
125.998932
 21
57.036968
  0
LINE
  8
0
 10
124.498947
 20
54.446945
 11
125.998947
 21
55.316944
  0
LINE
  8
0
 10
122.998955
 20
57.036953
 11
124.498947
 21
57.906952
  0
LINE
  8
0
 10
125.998840
 20
57.036957
 11
125.998840
 21
55.316956
  0
LINE
  8
0
 10
122.998840
 20
57.036957
 11
122.998840
 21
55.316956
  0
LINE
  8
0
 10
127.498787
 20
35.817043
 11
128.998871
 21
34.946999
  0
LINE
  8
0
 10
128.998749
 20
38.407074
 11
130.498840
 21
37.537029
  0
LINE
  8
0
 10
128.998962
 20
34.946945
 11
130.498947
 21
35.816952
  0
LINE
  8
0
 10
127.498955
 20
37.536949
 11
128.998947
 21
38.406948
  0
LINE
  8
0
 10
130.498840
 20
37.536957
 11
130.498840
 21
35.816956
  0
LINE
  8
0
 10
127.498840
 20
37.536957
 11
127.498840
 21
35.816956
  0
LINE
  8
0
 10
118.498909
 20
35.816990
 11
119.998772
 21
34.947067
  0
LINE
  8
0
 10
119.998856
 20
38.407009
 11
121.498940
 21
37.536964
  0
LINE
  8
0
 10
119.998947
 20
34.946938
 11
121.498955
 21
35.816940
  0
LINE
  8
0
 10
118.498947
 20
37.536945
 11
119.998947
 21
38.406944
  0
LINE
  8
0
 10
121.498840
 20
37.536957
 11
121.498840
 21
35.816956
  0
LINE
  8
0
 10
118.498840
 20
37.536957
 11
118.498840
 21
35.816956
  0
LINE
  8
0
 10
-146.001038
 20
55.316956
 11
-144.501038
 21
54.446957
  0
LINE
  8
0
 10
-144.501022
 20
57.906956
 11
-143.001053
 21
57.036964
  0
LINE
  8
0
 10
-144.501038
 20
54.446953
 11
-143.001038
 21
55.316956
  0
LINE
  8
0
 10
-146.001038
 20
57.036961
 11
-144.501038
 21
57.906960
  0
LINE
  8
0
 10
-143.001053
 20
57.036957
 11
-143.001053
 21
55.316956
  0
LINE
  8
0
 10
-146.001038
 20
57.036957
 11
-146.001038
 21
55.316956
  0
LINE
  8
0
 10
-141.501038
 20
35.816963
 11
-140.001038
 21
34.946968
  0
LINE
  8
0
 10
-140.001053
 20
38.406960
 11
-138.501053
 21
37.536961
  0
LINE
  8
0
 10
-140.001038
 20
34.946949
 11
-138.501038
 21
35.816956
  0
LINE
  8
0
 10
-141.501038
 20
37.536957
 11
-140.001038
 21
38.406956
  0
LINE
  8
0
 10
-138.501053
 20
37.536957
 11
-138.501053
 21
35.816956
  0
LINE
  8
0
 10
-141.501053
 20
37.536957
 11
-141.501053
 21
35.816956
  0
LINE
  8
0
 10
-150.501038
 20
35.816952
 11
-149.001038
 21
34.946957
  0
LINE
  8
0
 10
-149.001038
 20
38.406963
 11
-147.501038
 21
37.536964
  0
LINE
  8
0
 10
-149.001038
 20
34.946960
 11
-147.501038
 21
35.816959
  0
LINE
  8
0
 10
-150.501038
 20
37.536964
 11
-149.001038
 21
38.406960
  0
LINE
  8
0
 10
-147.501038
 20
37.536957
 11
-147.501038
 21
35.816956
  0
LINE
  8
0
 10
-150.501038
 20
37.536957
 11
-150.501038
 21
35.816956
  0
LINE
  8
0
  6
DASHED
 10
133.991272
 20
41.921860
 11
133.991272
 21
45.521851
  0
LINE
  8
0
 10
117.991272
 20
66.471848
 11
117.991272
 21
69.671860
  0
LINE
  8
0
 10
-137.998718
 20
66.471848
 11
-137.998718
 21
69.671860
  0
LINE
  8
0
 62
     2
 10
121.041077
 20
66.471848
 11
121.041077
 21
65.271851
  0
LINE
  8
0
 62
     2
 10
122.541077
 20
66.471848
 11
122.541077
 21
65.271851
  0
LINE
  8
0
 10
123.041077
 20
65.271851
 11
120.541077
 21
65.271851
  0
LINE
  8
0
 10
120.541077
 20
66.471848
 11
120.541077
 21
65.271851
  0
LINE
  8
0
 10
123.041077
 20
66.471848
 11
123.041077
 21
65.271851
  0
LINE
  8
0
 10
128.541077
 20
63.971848
 11
124.041077
 21
63.971848
  0
LINE
  8
0
 10
124.041077
 20
66.471848
 11
124.041077
 21
63.971848
  0
LINE
  8
0
 10
128.541077
 20
66.471848
 11
128.541077
 21
63.971848
  0
LINE
  8
0
  6
CENTER
 62
     2
 10
121.791077
 20
69.271851
 11
121.791077
 21
64.271851
  0
LINE
  8
0
  6
CENTER
 62
     2
 10
126.291077
 20
69.271851
 11
126.291077
 21
63.441849
  0
LINE
  8
0
 10
117.991272
 20
66.471848
 11
133.991272
 21
66.471848
  0
LINE
  8
0
 10
-140.548721
 20
65.271851
 11
-143.048721
 21
65.271851
  0
LINE
  8
0
 62
     2
 10
-142.548721
 20
66.471848
 11
-142.548721
 21
65.271851
  0
LINE
  8
0
 62
     2
 10
-141.048721
 20
66.471848
 11
-141.048721
 21
65.271851
  0
LINE
  8
0
 10
-143.048721
 20
66.471848
 11
-143.048721
 21
65.271851
  0
LINE
  8
0
 10
-140.548721
 20
66.471848
 11
-140.548721
 21
65.271851
  0
LINE
  8
0
  6
CENTER
 62
     2
 10
-141.798721
 20
69.271851
 11
-141.798721
 21
63.501846
  0
LINE
  8
0
 10
-144.048721
 20
63.971848
 11
-148.548721
 21
63.971848
  0
LINE
  8
0
 10
-148.548721
 20
66.471848
 11
-148.548721
 21
63.971848
  0
LINE
  8
0
 10
-144.048721
 20
66.471848
 11
-144.048721
 21
63.971848
  0
LINE
  8
0
  6
CENTER
 62
     2
 10
-146.298721
 20
70.941849
 11
-146.298721
 21
63.181854
  0
LINE
  8
0
 10
-137.998718
 20
66.471848
 11
-153.998718
 21
66.471848
  0
LINE
  8
0
 10
133.991272
 20
96.671844
 11
144.991272
 21
96.671844
  0
LINE
  8
0
 10
-153.998718
 20
96.671844
 11
-164.998718
 21
96.671844
  0
LINE
  8
0
 10
132.991272
 20
72.171844
 11
133.991272
 21
72.171844
  0
LINE
  8
0
 10
-152.998718
 20
72.171844
 11
-153.998718
 21
72.171844
  0
LINE
  8
0
  6
CENTER
 62
     2
 10
-123.728729
 20
55.671860
 11
-45.508728
 21
55.671860
  0
LINE
  8
0
  6
CENTER
 62
     2
 10
-50.008728
 20
60.171860
 11
-50.008728
 21
5.815735
  0
LINE
  8
0
 10
-47.008728
 20
67.671860
 11
-47.008728
 21
69.671860
  0
LINE
  8
0
 10
-123.008728
 20
67.671860
 11
-123.008728
 21
69.671860
  0
LINE
  8
0
  6
CENTER
 62
     2
 10
-45.548721
 20
9.671844
 11
-124.508728
 21
9.671844
  0
LINE
  8
0
  6
CENTER
 62
     2
 10
-120.008728
 20
60.171860
 11
-120.008728
 21
5.815735
  0
LINE
  8
0
 10
-130.008728
 20
67.671860
 11
-40.008728
 21
67.671860
  0
LINE
  8
0
 10
-153.998718
 20
92.171844
 11
-152.998718
 21
92.171844
  0
LINE
  8
0
 10
132.991272
 20
92.171844
 11
133.991272
 21
92.171844
  0
LINE
  8
0
 10
-153.998718
 20
69.671860
 11
133.991272
 21
69.671860
  0
LINE
  8
0
 10
-135.008728
 20
57.671860
 11
-130.008728
 21
57.671860
  0
LINE
  8
0
 10
-40.008728
 20
57.671860
 11
114.991272
 21
57.671860
  0
LINE
  8
0
 10
132.991272
 20
96.621841
 11
132.991272
 21
69.671860
  0
LINE
  8
0
 10
-153.998718
 20
72.921844
 11
-153.998718
 21
69.671860
  0
LINE
  8
0
 10
-152.998718
 20
96.671844
 11
-152.998718
 21
69.671860
  0
LINE
  8
0
  6
CENTER
 62
     2
 10
145.991272
 20
22.171844
 11
133.991272
 21
22.171844
  0
LINE
  8
0
  6
CENTER
 62
     2
 10
145.991272
 20
88.171844
 11
133.991272
 21
88.171844
  0
LINE
  8
0
  6
CENTER
 62
     2
 10
139.991272
 20
96.171844
 11
139.991272
 21
14.408371
  0
LINE
  8
0
  6
CENTER
 62
     2
 10
-165.998718
 20
22.171844
 11
-153.998718
 21
22.171844
  0
LINE
  8
0
  6
CENTER
 62
     2
 10
-165.998718
 20
88.171844
 11
-153.998718
 21
88.171844
  0
LINE
  8
0
  6
CENTER
 62
     2
 10
-159.998718
 20
94.171844
 11
-159.998718
 21
13.864380
  0
LINE
  8
0
 10
-135.008728
 20
34.421860
 11
-130.008728
 21
34.421860
  0
LINE
  8
0
 10
-135.008728
 20
38.921860
 11
-130.008728
 21
38.921860
  0
LINE
  8
0
 10
114.991272
 20
34.421860
 11
-40.008728
 21
34.421860
  0
LINE
  8
0
 10
114.991272
 20
38.921860
 11
-40.008728
 21
38.921860
  0
LINE
  8
0
 10
-40.008728
 20
40.571854
 11
114.991272
 21
40.571854
  0
LINE
  8
0
 10
-40.008728
 20
43.071854
 11
83.991272
 21
43.071854
  0
LINE
  8
0
 10
-40.008728
 20
49.271851
 11
83.991272
 21
49.271851
  0
LINE
  8
0
 10
-40.008728
 20
51.771851
 11
114.991272
 21
51.771851
  0
LINE
  8
0
 10
-152.998718
 20
73.401848
 11
132.991272
 21
73.401848
  0
LINE
  8
0
 10
-152.998718
 20
75.321846
 11
132.991272
 21
75.321846
  0
LINE
  8
0
 10
-152.998718
 20
88.021843
 11
132.991272
 21
88.021843
  0
LINE
  8
0
 10
-152.998718
 20
89.941841
 11
132.991272
 21
89.941841
  0
LINE
  8
0
  6
CENTER
 62
     2
 10
64.991272
 20
-0.048141
 11
64.991272
 21
100.441841
  0
LINE
  8
0
 10
-152.998718
 20
93.671844
 11
132.991272
 21
93.671844
  0
LINE
  8
0
 10
-40.008728
 20
11.171844
 11
133.991272
 21
11.171844
  0
LINE
  8
0
 10
-153.998718
 20
11.171844
 11
-130.008728
 21
11.171844
  0
LINE
  8
0
 10
73.991272
 20
44.671860
 11
83.991272
 21
44.671860
  0
LINE
  8
0
 10
73.991272
 20
47.671860
 11
83.991272
 21
47.671860
  0
LINE
  8
0
 10
87.491272
 20
41.921860
 11
87.491272
 21
50.421860
  0
LINE
  8
0
 10
114.991272
 20
20.171844
 11
-40.008728
 21
20.171844
  0
LINE
  8
0
 10
114.991272
 20
32.171860
 11
-40.008728
 21
32.171860
  0
LINE
  8
0
 10
87.491264
 20
41.921844
 11
88.241272
 21
41.171837
  0
LINE
  8
0
 10
88.241272
 20
51.171860
 11
88.241272
 21
41.171860
  0
LINE
  8
0
 10
87.491264
 20
50.421841
 11
88.241272
 21
51.171848
  0
LINE
  8
0
 10
133.991272
 20
52.171860
 11
114.991272
 21
52.171860
  0
LINE
  8
0
  6
CENTER
 62
     2
 10
139.841125
 20
46.171860
 11
71.771271
 21
46.171860
  0
LINE
  8
0
 10
133.991272
 20
17.171844
 11
114.991272
 21
17.171844
  0
LINE
  8
0
 10
114.991272
 20
60.171860
 11
114.991272
 21
17.171844
  0
LINE
  8
0
 10
114.991272
 20
60.171860
 11
133.991272
 21
60.171860
  0
LINE
  8
0
 10
114.991272
 20
41.171860
 11
88.241272
 21
41.171860
  0
LINE
  8
0
 62
     2
 10
114.991272
 20
41.921860
 11
87.491272
 21
41.921860
  0
LINE
  8
0
 10
114.991272
 20
51.171860
 11
88.241272
 21
51.171860
  0
LINE
  8
0
 62
     2
 10
114.991272
 20
50.421860
 11
87.491272
 21
50.421860
  0
LINE
  8
0
 10
-135.008728
 20
41.171860
 11
-130.008728
 21
41.171860
  0
LINE
  8
0
 62
     2
 10
-135.008728
 20
41.921860
 11
-130.008728
 21
41.921860
  0
LINE
  8
0
 62
     2
 10
-135.008728
 20
50.421860
 11
-130.008728
 21
50.421860
  0
LINE
  8
0
 10
-135.008728
 20
51.171860
 11
-130.008728
 21
51.171860
  0
LINE
  8
0
 10
-153.998718
 20
52.171860
 11
-135.008728
 21
52.171860
  0
LINE
  8
0
 10
-135.008728
 20
20.171844
 11
-130.008728
 21
20.171844
  0
LINE
  8
0
 10
-135.008728
 20
32.171860
 11
-130.008728
 21
32.171860
  0
LINE
  8
0
 10
-135.008728
 20
60.171860
 11
-153.998718
 21
60.171860
  0
LINE
  8
0
 10
-135.008728
 20
60.171860
 11
-135.008728
 21
17.171844
  0
LINE
  8
0
 10
-153.998718
 20
17.171844
 11
-135.008728
 21
17.171844
  0
LINE
  8
0
 10
-40.008728
 20
4.671844
 11
-40.008728
 21
67.671860
  0
LINE
  8
0
 10
-130.008728
 20
4.671844
 11
-130.008728
 21
67.671860
  0
LINE
  8
0
 10
133.991272
 20
4.671844
 11
133.991272
 21
96.671844
  0
LINE
  8
0
 10
-153.998718
 20
4.671844
 11
-153.998718
 21
96.671844
  0
LINE
  8
0
 10
144.991272
 20
4.671844
 11
144.991272
 21
96.671844
  0
LINE
  8
0
 10
-152.998718
 20
96.671844
 11
132.991272
 21
96.671844
  0
LINE
  8
0
 10
-164.998718
 20
4.671844
 11
144.991272
 21
4.671844
  0
LINE
  8
0
 10
-164.998718
 20
4.671844
 11
-164.998718
 21
96.671844
  0
LINE
  8
0
  6
CENTER
 62
     2
 10
-85.008728
 20
-0.749268
 11
-85.008728
 21
99.281845
  0
LINE
  8
0
  6
PHANTOM
 62
     3
 10
6.490662
 20
-26.064209
 11
6.490662
 21
99.281845
  0
LINE
  8
0
 10
-261.250000
 20
-159.000000
 11
-35.250000
 21
-159.000000
  0
LINE
  8
0
 10
-145.250000
 20
-159.000000
 11
-145.250000
 21
-175.000000
  0
LINE
  8
0
 10
-167.250000
 20
-159.000000
 11
-167.250000
 21
-175.000000
  0
LINE
  8
0
 10
-189.250000
 20
-159.000000
 11
-189.250000
 21
-175.000000
  0
LINE
  8
0
 10
-211.250000
 20
-159.000000
 11
-211.250000
 21
-175.000000
  0
LINE
  8
0
 10
-261.250000
 20
-167.000000
 11
-35.250000
 21
-167.000000
  0
LINE
  8
0
 10
-261.250000
 20
-175.000000
 11
-35.250000
 21
-175.000000
  0
LINE
  8
0
 10
-261.250000
 20
-159.000000
 11
-261.250000
 21
-175.000000
  0
LINE
  8
0
 10
-123.250000
 20
-159.000000
 11
-123.250000
 21
-175.000000
  0
LINE
  8
0
 10
-101.250000
 20
-159.000000
 11
-101.250000
 21
-175.000000
  0
LINE
  8
0
 10
-79.250000
 20
-159.000000
 11
-79.250000
 21
-175.000000
  0
LINE
  8
0
 10
-57.250000
 20
-159.000000
 11
-57.250000
 21
-175.000000
  0
LINE
  8
0
 10
-35.250000
 20
-159.000000
 11
-35.250000
 21
-175.000000
  0
LINE
  8
0
 10
-281.250000
 20
195.500000
 11
282.099854
 21
195.500000
  0
LINE
  8
0
 10
-281.250000
 20
195.500000
 11
-281.250000
 21
-195.000000
  0
LINE
  8
0
 10
282.099854
 20
195.500000
 11
282.099854
 21
-195.000000
  0
LINE
  8
0
 10
-281.250000
 20
-195.000000
 11
282.099854
 21
-195.000000
  0
LINE
  8
0
 10
162.099976
 20
-175.000000
 11
162.099976
 21
-195.000000
  0
LINE
  8
0
 10
162.099976
 20
-175.000000
 11
282.099854
 21
-175.000000
  0
LINE
  8
0
 10
162.099976
 20
175.500000
 11
282.099854
 21
175.500000
  0
LINE
  8
0
 10
-281.250000
 20
175.500000
 11
-161.250000
 21
175.500000
  0
LINE
  8
0
 10
162.099976
 20
195.500000
 11
162.099976
 21
175.500000
  0
LINE
  8
0
 10
-161.250000
 20
195.500000
 11
-161.250000
 21
175.500000
  0
ARC
  8
0
 62
     1
 10
-57.209488
 20
-78.918030
 40
0.968370
 50
322.089050
 51
37.910954
  0
ARC
  8
0
 62
     1
 10
-55.687988
 20
-77.728027
 40
0.963223
 50
141.850220
 51
218.149780
  0
ARC
  8
0
 62
     1
 10
92.790512
 20
-78.918030
 40
0.968373
 50
322.089172
 51
37.910812
  0
ARC
  8
0
 62
     1
 10
94.312012
 20
-77.728027
 40
0.963219
 50
141.438004
 51
218.149780
  0
CIRCLE
  8
0
 62
     4
 10
67.998947
 20
-78.323029
 40
1.500000
  0
CIRCLE
  8
0
 62
     4
 10
-82.001053
 20
-78.323029
 40
1.500000
  0
ARC
  8
0
 10
197.988632
 20
7.275406
 40
2.097373
 50
34.781559
 51
180.097061
  0
CIRCLE
  8
0
 10
196.493591
 20
46.176956
 40
5.000000
  0
CIRCLE
  8
0
 62
     2
 10
196.493591
 20
46.176956
 40
4.250000
  0
CIRCLE
  8
0
 10
196.493591
 20
46.176956
 40
6.500000
  0
ARC
  8
0
 10
200.407623
 20
94.177025
 40
1.005199
 50
225.355469
 51
269.637329
  0
ARC
  8
0
 10
203.575577
 20
94.175415
 40
1.003580
 50
269.753479
 51
314.681824
  0
ARC
  8
0
 10
204.591263
 20
7.871857
 40
1.400002
 50
270.000000
 51
90.000000
  0
CIRCLE
  8
0
 62
     4
 10
197.991257
 20
6.421860
 40
0.250000
  0
CIRCLE
  8
0
 62
     4
 10
197.991257
 20
7.321854
 40
0.250000
  0
CIRCLE
  8
0
 62
     4
 10
197.991257
 20
6.871857
 40
1.299999
  0
CIRCLE
  8
0
 62
     4
 10
197.991257
 20
6.421860
 40
0.450000
  0
CIRCLE
  8
0
 62
     4
 10
197.991257
 20
7.321854
 40
0.450000
  0
ARC
  8
0
 62
     4
 10
197.991257
 20
7.067184
 40
2.050003
 50
0.000000
 51
179.999954
  0
CIRCLE
  8
0
 10
-224.998718
 20
54.171860
 40
2.066999
  0
CIRCLE
  8
0
 10
-221.998718
 20
80.171844
 40
2.066999
  0
ARC
  8
0
 10
-224.598724
 20
7.871857
 40
1.400002
 50
90.000000
 51
270.000000
  0
CIRCLE
  8
0
 62
     2
 10
-225.001038
 20
54.176956
 40
2.500000
  0
ARC
  8
0
 10
-223.583038
 20
94.175415
 40
1.003582
 50
225.318161
 51
270.246521
  0
ARC
  8
0
 10
-220.415085
 20
94.177025
 40
1.005201
 50
270.362671
 51
314.644531
  0
CIRCLE
  8
0
 10
-216.501053
 20
46.176956
 40
6.500000
  0
CIRCLE
  8
0
 62
     2
 10
-216.501053
 20
46.176956
 40
4.250000
  0
CIRCLE
  8
0
 10
-216.501053
 20
46.176956
 40
5.000000
  0
CIRCLE
  8
0
 62
     2
 10
-222.001038
 20
80.176956
 40
2.500000
  0
ARC
  8
0
 10
-217.996094
 20
7.275406
 40
2.097369
 50
359.902893
 51
145.218399
  0
ARC
  8
0
 62
     4
 10
-219.900223
 20
7.023361
 40
0.098505
 50
89.121307
 51
180.876450
  0
ARC
  8
0
 62
     4
 10
-219.899521
 20
6.521042
 40
0.099201
 50
179.532623
 51
270.467133
  0
ARC
  8
0
 62
     4
 10
-216.100250
 20
6.523376
 40
0.101531
 50
270.861115
 51
359.142365
  0
ARC
  8
0
 62
     4
 10
-216.099564
 20
7.021011
 40
0.100849
 50
0.475991
 51
89.523163
  0
ARC
  8
0
 62
     4
 10
-217.998718
 20
7.067184
 40
2.050003
 50
0.000000
 51
52.428123
  0
ARC
  8
0
 62
     4
 10
-217.998718
 20
7.067184
 40
2.050000
 50
127.571877
 51
179.999954
  0
CIRCLE
  8
0
 10
-50.008728
 20
9.671844
 40
1.620999
  0
CIRCLE
  8
0
 10
-120.008728
 20
9.671844
 40
1.620999
  0
CIRCLE
  8
0
 10
-120.008728
 20
55.671860
 40
1.620999
  0
CIRCLE
  8
0
 10
-50.008728
 20
55.671860
 40
1.620999
  0
ARC
  8
0
 62
     4
 10
-85.008728
 20
54.671860
 40
2.000008
 50
180.000000
 51
0.000000
  0
ARC
  8
0
 62
     4
 10
-85.008728
 20
56.671860
 40
2.000008
 50
0.000000
 51
180.000000
  0
CIRCLE
  8
0
 62
     4
 10
-85.001053
 20
9.676956
 40
2.000000
  0
CIRCLE
  8
0
 10
124.498840
 20
56.176956
 40
2.980385
  0
CIRCLE
  8
0
 10
124.498840
 20
56.176956
 40
3.500000
  0
CIRCLE
  8
0
 10
128.998840
 20
36.676956
 40
2.980385
  0
CIRCLE
  8
0
 10
128.998840
 20
36.676956
 40
3.500000
  0
CIRCLE
  8
0
 10
119.998840
 20
36.676956
 40
2.980385
  0
CIRCLE
  8
0
 10
119.998840
 20
36.676956
 40
3.500000
  0
CIRCLE
  8
0
 10
-144.501038
 20
56.176956
 40
2.980385
  0
CIRCLE
  8
0
 10
-144.501038
 20
56.176956
 40
3.500000
  0
CIRCLE
  8
0
 10
-140.001053
 20
36.676956
 40
2.980385
  0
CIRCLE
  8
0
 10
-140.001053
 20
36.676956
 40
3.500000
  0
CIRCLE
  8
0
 10
-149.001038
 20
36.676956
 40
2.980385
  0
CIRCLE
  8
0
 10
-149.001038
 20
36.676956
 40
3.500000
  0
CIRCLE
  8
0
 62
     2
 10
-50.001053
 20
55.676956
 40
2.000000
  0
CIRCLE
  8
0
 10
-160.001038
 20
22.176956
 40
2.400000
  0
CIRCLE
  8
0
 10
139.998840
 20
22.176956
 40
2.400000
  0
CIRCLE
  8
0
 10
139.998840
 20
88.176949
 40
2.400000
  0
CIRCLE
  8
0
 10
-160.001038
 20
88.176949
 40
2.400000
  0
CIRCLE
  8
0
 10
139.998840
 20
22.176956
 40
4.000000
  0
CIRCLE
  8
0
 10
139.998840
 20
88.176949
 40
4.000000
  0
CIRCLE
  8
0
 10
-160.001038
 20
22.176956
 40
4.000000
  0
CIRCLE
  8
0
 10
-160.001038
 20
88.176949
 40
4.000000
  0
CIRCLE
  8
0
 62
     2
 10
-120.001053
 20
9.676956
 40
2.000000
  0
CIRCLE
  8
0
 62
     2
 10
-50.001053
 20
9.676956
 40
2.000000
  0
CIRCLE
  8
0
 62
     2
 10
-120.001053
 20
55.676956
 40
2.000000
  0
TEXT
  8
0
 10
-55.642658
 20
-157.050003
 40
4.500000
  1
（ｍｍ）
 50
0.000000
 41
0.833333
 51
0.000000
  7
STANDARD
  0
TEXT
  8
0
 10
-269.839050
 20
146.380005
 40
6.300000
  1
(WITH SENSOR SWITCH)
 50
0.000000
 41
1.052632
 51
0.000000
  7
STANDARD
  0
TEXT
  8
0
 10
-252.392654
 20
-174.050003
 40
4.500000
  1
STRETCH
 50
0.000000
 41
1.052632
 51
0.000000
  7
STANDARD
  0
TEXT
  8
0
 62
     3
 10
-20.235823
 20
105.454651
 40
4.500000
  1
STRETCH LINE
 50
0.000000
 41
1.052632
 51
0.000000
  7
STANDARD
  0
TEXT
  8
0
 10
-163.392654
 20
-174.050003
 40
4.500000
  1
100
 50
0.000000
 41
1.052632
 51
0.000000
  7
STANDARD
  0
TEXT
  8
0
 10
-183.142654
 20
-174.050003
 40
4.500000
  1
50
 50
0.000000
 41
1.052632
 51
0.000000
  7
STANDARD
  0
TEXT
  8
0
 10
-202.892654
 20
-174.050003
 40
4.500000
  1
0
 50
0.000000
 41
1.052632
 51
0.000000
  7
STANDARD
  0
TEXT
  8
0
 10
-163.392654
 20
-166.050003
 40
4.500000
  1
250
 50
0.000000
 41
1.052632
 51
0.000000
  7
STANDARD
  0
TEXT
  8
0
 10
-185.392654
 20
-166.050003
 40
4.500000
  1
200
 50
0.000000
 41
1.052632
 51
0.000000
  7
STANDARD
  0
TEXT
  8
0
 10
-207.392654
 20
-166.050003
 40
4.500000
  1
150
 50
0.000000
 41
1.052632
 51
0.000000
  7
STANDARD
  0
TEXT
  8
0
 10
-175.642654
 20
-157.050003
 40
4.500000
  1
STRETCH LIST
 50
0.000000
 41
1.052632
 51
0.000000
  7
STANDARD
  0
TEXT
  8
0
 10
-250.142654
 20
-166.050003
 40
4.500000
  1
STROKE
 50
0.000000
 41
1.052632
 51
0.000000
  7
STANDARD
  0
TEXT
  8
0
 10
-141.392654
 20
-166.050003
 40
4.500000
  1
300
 50
0.000000
 41
1.052632
 51
0.000000
  7
STANDARD
  0
TEXT
  8
0
 10
-141.392654
 20
-174.050003
 40
4.500000
  1
150
 50
0.000000
 41
1.052632
 51
0.000000
  7
STANDARD
  0
TEXT
  8
0
 10
-119.392654
 20
-166.050003
 40
4.500000
  1
350
 50
0.000000
 41
1.052632
 51
0.000000
  7
STANDARD
  0
TEXT
  8
0
 10
-119.392654
 20
-174.050003
 40
4.500000
  1
200
 50
0.000000
 41
1.052632
 51
0.000000
  7
STANDARD
  0
TEXT
  8
0
 10
-97.392654
 20
-166.050003
 40
4.500000
  1
400
 50
0.000000
 41
1.052632
 51
0.000000
  7
STANDARD
  0
TEXT
  8
0
 10
-97.392654
 20
-174.050003
 40
4.500000
  1
250
 50
0.000000
 41
1.052632
 51
0.000000
  7
STANDARD
  0
TEXT
  8
0
 10
-75.392654
 20
-166.050003
 40
4.500000
  1
500
 50
0.000000
 41
1.052632
 51
0.000000
  7
STANDARD
  0
TEXT
  8
0
 10
-75.392654
 20
-174.050003
 40
4.500000
  1
350
 50
0.000000
 41
1.052632
 51
0.000000
  7
STANDARD
  0
TEXT
  8
0
 10
-53.392658
 20
-166.050003
 40
4.500000
  1
600
 50
0.000000
 41
1.052632
 51
0.000000
  7
STANDARD
  0
TEXT
  8
0
 10
-53.392658
 20
-174.050003
 40
4.500000
  1
450
 50
0.000000
 41
1.052632
 51
0.000000
  7
STANDARD
  0
TEXT
  8
0
 10
-272.299713
 20
180.830002
 40
6.300000
  1
RODLESS CYLINDER
 50
0.000000
 41
1.052632
 51
0.000000
  7
STANDARD
  0
TEXT
  8
0
 10
196.250259
 20
180.830002
 40
6.300000
  1
Ｖｅｒ．　１．０
 50
0.000000
 41
0.833333
 51
0.000000
  7
STANDARD
  0
TEXT
  8
0
 10
167.564667
 20
-192.100006
 40
9.000000
  1
KOGANEI CORP.
 50
0.000000
 41
1.052632
 51
0.000000
  7
STANDARD
  0
TEXT
  8
0
 10
-270.049713
 20
155.830002
 40
6.300000
  1
MODEL:ORS16*ST(150)
 50
0.000000
 41
1.052632
 51
0.000000
  7
STANDARD
  0
ENDSEC
  0
EOF
