  0
SECTION
  2
HEADER
  0
ENDSEC
  0
SECTION
  2
TABLES
  0
TABLE
  2
LTYPE
 70
     4
  0
LTYPE
  2
CONTINUOUS
 70
    64
  3
Solid line
 72
    65
 73
     0
 40
0.000000
  0
LTYPE
  2
DASHED
 70
    64
  3
__ __ __ __ __ __ __ __ __ __ __ __ __ __ __
 72
    65
 73
     2
 40
3.500000
 49
2.000000
 49
-1.500000
  0
LTYPE
  2
CENTER
 70
    64
  3
____ _ ____ _ ____ _ ____ _ ____ _ ____ _ ____
 72
    65
 73
     4
 40
17.500000
 49
13.000000
 49
-1.500000
 49
1.500000
 49
-1.500000
  0
LTYPE
  2
PHANTOM
 70
    64
  3
_____ _ _ _____ _ _ _____ _ _ _____ _ _ ____  
 72
    65
 73
     6
 40
15.500000
 49
8.000000
 49
-1.500000
 49
1.500000
 49
-1.500000
 49
1.500000
 49
-1.500000
  0
LTYPE
  2
DASHED1
 70
    64
  3
__ __ __ __ __ __ __ __ __ __ __ __ __ __ __
 72
    65
 73
     2
 40
1.500000
 49
1.000000
 49
-0.500000
  0
LTYPE
  2
DASHED2
 70
    64
  3
__ __ __ __ __ __ __ __ __ __ __ __ __ __ __
 72
    65
 73
     2
 40
3.500000
 49
2.500000
 49
-1.000000
  0
LTYPE
  2
DASHED3
 70
    64
  3
__ __ __ __ __ __ __ __ __ __ __ __ __ __ __
 72
    65
 73
     2
 40
6.000000
 49
4.000000
 49
-2.000000
  0
LTYPE
  2
DASHED4
 70
    64
  3
__ __ __ __ __ __ __ __ __ __ __ __ __ __ __
 72
    65
 73
     2
 40
12.000000
 49
10.000000
 49
-2.000000
  0
LTYPE
  2
DASHED5
 70
    64
  3
__ __ __ __ __ __ __ __ __ __ __ __ __ __ __
 72
    65
 73
     2
 40
17.000000
 49
15.000000
 49
-2.000000
  0
LTYPE
  2
DASHED6
 70
    64
  3
__ __ __ __ __ __ __ __ __ __ __ __ __ __ __
 72
    65
 73
     2
 40
29.000000
 49
27.000000
 49
-2.000000
  0
LTYPE
  2
PHANTOM1
 70
    64
  3
_____ _ _ _____ _ _ _____ _ _ _____ _ _ ____  
 72
    65
 73
     6
 40
31.000000
 49
25.000000
 49
-1.500000
 49
1.000000
 49
-1.000000
 49
1.000000
 49
-1.500000
  0
LTYPE
  2
PHANTOM2
 70
    64
  3
_____ _ _ _____ _ _ _____ _ _ _____ _ _ ____  
 72
    65
 73
     6
 40
36.000000
 49
27.000000
 49
-1.500000
 49
2.500000
 49
-1.000000
 49
2.500000
 49
-1.500000
  0
LTYPE
  2
PHANTOM3
 70
    64
  3
_____ _ _ _____ _ _ _____ _ _ _____ _ _ ____  
 72
    65
 73
     6
 40
78.000000
 49
64.000000
 49
-2.000000
 49
4.000000
 49
-2.000000
 49
4.000000
 49
-2.000000
  0
LTYPE
  2
CENTER1
 70
    64
  3
____ _ ____ _ ____ _ ____ _ ____ _ ____ _ ____
 72
    65
 73
     4
 40
19.000000
 49
14.000000
 49
-1.000000
 49
3.000000
 49
-1.000000
  0
LTYPE
  2
CENTER2
 70
    64
  3
____ _ ____ _ ____ _ ____ _ ____ _ ____ _ ____
 72
    65
 73
     4
 40
28.500000
 49
25.000000
 49
-1.000000
 49
1.500000
 49
-1.000000
  0
LTYPE
  2
CENTER3
 70
    64
  3
____ _ ____ _ ____ _ ____ _ ____ _ ____ _ ____
 72
    65
 73
     4
 40
31.500000
 49
27.000000
 49
-1.000000
 49
2.500000
 49
-1.000000
  0
LTYPE
  2
CENTER4
 70
    64
  3
____ _ ____ _ ____ _ ____ _ ____ _ ____ _ ____
 72
    65
 73
     4
 40
50.000000
 49
45.000000
 49
-1.000000
 49
3.000000
 49
-1.000000
  0
LTYPE
  2
CENTER5
 70
    64
  3
____ _ ____ _ ____ _ ____ _ ____ _ ____ _ ____
 72
    65
 73
     4
 40
100.000000
 49
92.000000
 49
-2.000000
 49
4.000000
 49
-2.000000
  0
LTYPE
  2
SBK1
 70
    64
  3
______ _ _ _ ______ _ _ _ ______ _ _ _ _____  
 72
    65
 73
     8
 40
60.500000
 49
45.000000
 49
-2.000000
 49
2.500000
 49
-2.000000
 49
2.500000
 49
-2.000000
 49
2.500000
 49
-2.000000
  0
LTYPE
  2
SBK2
 70
    64
  3
______ _ _ _ ______ _ _ _ ______ _ _ _ _____  
 72
    65
 73
     8
 40
84.000000
 49
64.000000
 49
-2.000000
 49
4.000000
 49
-2.000000
 49
4.000000
 49
-2.000000
 49
4.000000
 49
-2.000000
  0
LTYPE
  2
STCH
 70
    64
  3
__ __ __ __ __ __ __ __ __ __ __ __ __ __ __
 72
    65
 73
     2
 40
3.000000
 49
1.000000
 49
-2.000000
  0
LTYPE
  2
MTCH
 70
    64
  3
_____ _ _ _____ _ _ _____ _ _ _____ _ _ ____  
 72
    65
 73
     6
 40
80.000000
 49
66.000000
 49
-2.000000
 49
4.000000
 49
-2.000000
 49
4.000000
 49
-2.000000
  0
ENDTAB
  0
TABLE
  2
LAYER
 70
     1
  0
LAYER
  2
0
 70
     0
 62
     7
  6
CONTINUOUS
  0
ENDTAB
  0
TABLE
  2
STYLE
 70
     1
  0
STYLE
  2
STANDARD
 70
     0
 40
0.000000
 41
1.000000
 50
0.000000
 71
     0
 42
0.200000
  3
txt
  4
BIGFONT
  0
ENDTAB
  0
TABLE
  2
VIEW
 70
     0
  0
ENDTAB
  0
ENDSEC
  0
SECTION
  2
BLOCKS
  0
ENDSEC
  0
SECTION
  2
ENTITIES
  0
LINE
  8
0
 62
     4
 10
130.413620
 20
-142.421143
 11
131.963684
 21
-143.961197
  0
LINE
  8
0
 62
     4
 10
130.413666
 20
-143.960999
 11
131.963562
 21
-142.421112
  0
LINE
  8
0
 62
     4
 10
150.693848
 20
-142.001144
 11
156.749268
 21
-142.001144
  0
LINE
  8
0
 62
     4
 10
150.693848
 20
-144.381149
 11
156.749268
 21
-144.381149
  0
LINE
  8
0
 62
     4
 10
149.193863
 20
-141.591141
 11
150.693787
 21
-142.001114
  0
LINE
  8
0
 62
     4
 10
149.193771
 20
-144.791153
 11
150.693680
 21
-144.381180
  0
LINE
  8
0
 62
     4
 10
150.693848
 20
-144.381149
 11
150.693848
 21
-142.001144
  0
LINE
  8
0
 62
     4
 10
149.193848
 20
-144.791153
 11
149.193848
 21
-141.591141
  0
LINE
  8
0
 62
     4
 10
134.193848
 20
-144.791153
 11
134.193848
 21
-141.591141
  0
LINE
  8
0
 62
     4
 10
128.193848
 20
-144.791153
 11
128.193848
 21
-141.591141
  0
LINE
  8
0
 62
     4
 10
-159.586151
 20
-136.421143
 11
-158.036148
 21
-137.961136
  0
LINE
  8
0
 62
     4
 10
-159.586151
 20
-137.961136
 11
-158.036148
 21
-136.421143
  0
LINE
  8
0
 62
     4
 10
-139.306137
 20
-136.001144
 11
-133.250565
 21
-136.001144
  0
LINE
  8
0
 62
     4
 10
-139.306137
 20
-138.381149
 11
-133.250565
 21
-138.381149
  0
LINE
  8
0
 62
     4
 10
-140.806137
 20
-135.591141
 11
-139.306137
 21
-136.001144
  0
LINE
  8
0
 62
     4
 10
-140.806152
 20
-138.791138
 11
-139.306137
 21
-138.381149
  0
LINE
  8
0
 62
     4
 10
-139.306137
 20
-138.381149
 11
-139.306137
 21
-136.001144
  0
LINE
  8
0
 62
     4
 10
-140.806137
 20
-138.791153
 11
-140.806137
 21
-135.591141
  0
LINE
  8
0
 62
     4
 10
-155.806137
 20
-138.791153
 11
-155.806137
 21
-135.591141
  0
LINE
  8
0
 62
     4
 10
-161.806137
 20
-138.791153
 11
-161.806137
 21
-135.591141
  0
LINE
  8
0
 10
271.190918
 20
-175.685181
 11
271.190918
 21
-116.685181
  0
LINE
  8
0
 10
236.190918
 20
-121.185181
 11
236.190918
 21
-132.685181
  0
LINE
  8
0
 10
194.190918
 20
-130.435181
 11
194.190918
 21
-132.685181
  0
LINE
  8
0
 10
-311.799072
 20
-116.685181
 11
-294.799072
 21
-116.685181
  0
LINE
  8
0
 10
271.190918
 20
-116.685181
 11
288.190918
 21
-116.685181
  0
LINE
  8
0
 10
271.190918
 20
-151.685181
 11
288.190918
 21
-151.685181
  0
LINE
  8
0
 10
-294.799072
 20
-151.685181
 11
-311.799072
 21
-151.685181
  0
LINE
  8
0
 10
-294.799072
 20
-135.585190
 11
271.190918
 21
-135.585190
  0
LINE
  8
0
 10
-294.799072
 20
-138.785187
 11
271.190918
 21
-138.785187
  0
LINE
  8
0
 10
198.690918
 20
-130.435181
 11
194.190918
 21
-130.435181
  0
LINE
  8
0
 10
199.440918
 20
-129.685181
 11
199.440918
 21
-132.685181
  0
LINE
  8
0
 10
198.690918
 20
-130.435181
 11
198.690918
 21
-132.685181
  0
LINE
  8
0
 10
198.690750
 20
-130.435181
 11
199.440674
 21
-129.685257
  0
LINE
  8
0
 62
     2
 10
236.190918
 20
-130.435181
 11
198.690918
 21
-130.435181
  0
LINE
  8
0
 10
236.190918
 20
-129.685181
 11
199.440918
 21
-129.685181
  0
LINE
  8
0
 10
236.190918
 20
-121.185181
 11
271.190918
 21
-121.185181
  0
LINE
  8
0
 62
     2
 10
-259.799072
 20
-130.435181
 11
-254.799072
 21
-130.435181
  0
LINE
  8
0
 10
-259.799072
 20
-129.685181
 11
-254.799072
 21
-129.685181
  0
LINE
  8
0
 10
-259.799072
 20
-121.185181
 11
-259.799072
 21
-132.685181
  0
LINE
  8
0
 10
-294.799072
 20
-121.185181
 11
-259.799072
 21
-121.185181
  0
LINE
  8
0
 10
-68.809082
 20
-117.685181
 11
271.190918
 21
-117.685181
  0
LINE
  8
0
 10
-294.799072
 20
-117.685181
 11
-254.799072
 21
-117.685181
  0
LINE
  8
0
 10
-71.809082
 20
-131.685181
 11
-71.809082
 21
-132.685181
  0
LINE
  8
0
 10
-154.809082
 20
-131.685181
 11
-154.809082
 21
-132.685181
  0
LINE
  8
0
 10
-251.799072
 20
-131.685181
 11
-251.799072
 21
-132.685181
  0
LINE
  8
0
 10
-168.809082
 20
-131.685181
 11
-168.809082
 21
-132.685181
  0
LINE
  8
0
 10
-294.799072
 20
-134.685181
 11
-311.799072
 21
-134.685181
  0
LINE
  8
0
 10
271.190918
 20
-134.685181
 11
288.190918
 21
-134.685181
  0
LINE
  8
0
 10
-294.799072
 20
-144.785187
 11
271.190918
 21
-144.785187
  0
LINE
  8
0
 10
-294.799072
 20
-141.585190
 11
271.190918
 21
-141.585190
  0
LINE
  8
0
 10
-68.809082
 20
-131.685181
 11
-254.799072
 21
-131.685181
  0
LINE
  8
0
 10
-254.799072
 20
-115.685181
 11
-254.799072
 21
-131.685181
  0
LINE
  8
0
 10
-68.809082
 20
-115.685181
 11
-68.809082
 21
-131.685181
  0
LINE
  8
0
 10
-254.799072
 20
-115.685181
 11
-68.809082
 21
-115.685181
  0
LINE
  8
0
  6
CENTER
 62
     2
 10
-161.809082
 20
-181.515182
 11
-161.809082
 21
-111.615189
  0
LINE
  8
0
 10
-294.799072
 20
-132.685181
 11
271.190918
 21
-132.685181
  0
LINE
  8
0
 10
288.190918
 20
-175.685181
 11
288.190918
 21
-116.685181
  0
LINE
  8
0
 10
-294.799072
 20
-116.685181
 11
-294.799072
 21
-175.685181
  0
LINE
  8
0
 10
-311.799072
 20
-175.685181
 11
288.190918
 21
-175.685181
  0
LINE
  8
0
 10
-311.799072
 20
-175.685181
 11
-311.799072
 21
-116.685181
  0
LINE
  8
0
  6
CENTER
 62
     2
 10
-303.799072
 20
-179.685181
 11
-303.799072
 21
-171.685181
  0
LINE
  8
0
  6
PHANTOM
 62
     3
 10
35.622559
 20
-209.060257
 11
35.622559
 21
-70.883331
  0
LINE
  8
0
  6
CENTER
 62
     2
 10
355.260681
 20
58.304810
 11
371.500671
 21
58.304810
  0
LINE
  8
0
  6
DASHED
 62
     2
 10
365.190674
 20
54.054810
 11
369.190674
 21
54.054810
  0
LINE
  8
0
  6
DASHED
 62
     2
 10
365.190674
 20
65.554810
 11
365.190674
 21
51.054810
  0
LINE
  8
0
  6
DASHED
 62
     2
 10
358.690674
 20
51.054810
 11
365.190674
 21
51.054810
  0
LINE
  8
0
  6
DASHED
 62
     2
 10
358.690674
 20
65.554810
 11
365.190674
 21
65.554810
  0
LINE
  8
0
  6
DASHED
 62
     2
 10
365.190674
 20
62.554810
 11
369.190674
 21
62.554810
  0
LINE
  8
0
  6
DASHED
 62
     2
 10
358.690674
 20
51.054810
 11
358.690674
 21
54.054810
  0
LINE
  8
0
  6
DASHED
 62
     2
 10
357.690674
 20
54.054810
 11
358.690674
 21
54.054810
  0
LINE
  8
0
  6
DASHED
 62
     2
 10
357.690674
 20
54.054810
 11
357.690674
 21
62.554810
  0
LINE
  8
0
  6
DASHED
 62
     2
 10
357.690674
 20
62.554810
 11
358.690674
 21
62.554810
  0
LINE
  8
0
  6
DASHED
 62
     2
 10
358.690674
 20
62.554810
 11
358.690674
 21
65.554810
  0
LINE
  8
0
  6
DASHED
 62
     2
 10
359.340668
 20
51.054810
 11
359.340668
 21
65.554810
  0
LINE
  8
0
  6
CENTER
 62
     2
 10
355.260681
 20
-1.695206
 11
371.500671
 21
-1.695206
  0
LINE
  8
0
  6
DASHED
 62
     2
 10
365.190674
 20
-5.945206
 11
369.190674
 21
-5.945206
  0
LINE
  8
0
  6
DASHED
 62
     2
 10
365.190674
 20
5.554794
 11
365.190674
 21
-8.945206
  0
LINE
  8
0
  6
DASHED
 62
     2
 10
358.690674
 20
-8.945206
 11
365.190674
 21
-8.945206
  0
LINE
  8
0
  6
DASHED
 62
     2
 10
358.690674
 20
5.554794
 11
365.190674
 21
5.554794
  0
LINE
  8
0
  6
DASHED
 62
     2
 10
365.190674
 20
2.554794
 11
369.190674
 21
2.554794
  0
LINE
  8
0
  6
DASHED
 62
     2
 10
358.690674
 20
-8.945206
 11
358.690674
 21
-5.945206
  0
LINE
  8
0
  6
DASHED
 62
     2
 10
357.690674
 20
-5.945206
 11
358.690674
 21
-5.945206
  0
LINE
  8
0
  6
DASHED
 62
     2
 10
357.690674
 20
-5.945206
 11
357.690674
 21
2.554794
  0
LINE
  8
0
  6
DASHED
 62
     2
 10
357.690674
 20
2.554794
 11
358.690674
 21
2.554794
  0
LINE
  8
0
  6
DASHED
 62
     2
 10
358.690674
 20
2.554794
 11
358.690674
 21
5.554794
  0
LINE
  8
0
  6
DASHED
 62
     2
 10
359.340668
 20
-8.945206
 11
359.340668
 21
5.554794
  0
LINE
  8
0
  6
DASHED
 62
     2
 10
368.540680
 20
8.954803
 11
368.540680
 21
47.654800
  0
LINE
  8
0
  6
DASHED
 62
     2
 10
369.190674
 20
48.304813
 11
368.540680
 21
47.654804
  0
LINE
  8
0
  6
DASHED
 62
     2
 10
369.190674
 20
8.304789
 11
368.540680
 21
8.954804
  0
LINE
  8
0
 10
309.190674
 20
88.304810
 11
309.190674
 21
-13.695206
  0
LINE
  8
0
 10
369.190674
 20
-13.695206
 11
338.290680
 21
-13.695206
  0
LINE
  8
0
 10
369.190674
 20
159.304794
 11
369.190674
 21
-13.695206
  0
LINE
  8
0
 10
309.190674
 20
88.304810
 11
310.190674
 21
88.304810
  0
LINE
  8
0
  6
CENTER
 62
     2
 10
346.190674
 20
51.304810
 11
316.750671
 21
51.304810
  0
LINE
  8
0
 10
335.090698
 20
-13.195206
 11
335.090698
 21
-13.695206
  0
LINE
  8
0
 10
334.590668
 20
-12.695197
 11
335.090668
 21
-13.195197
  0
LINE
  8
0
 10
334.590698
 20
-12.695206
 11
334.590698
 21
-11.095200
  0
LINE
  8
0
 10
338.790680
 20
-12.695203
 11
338.290680
 21
-13.195188
  0
LINE
  8
0
 10
338.290680
 20
-13.195206
 11
338.290680
 21
-13.695206
  0
LINE
  8
0
 10
328.190674
 20
-8.195206
 11
328.190674
 21
-13.695206
  0
LINE
  8
0
 10
333.690674
 20
152.304794
 11
345.690674
 21
152.304794
  0
LINE
  8
0
 10
328.590698
 20
-12.695206
 11
328.590698
 21
-11.095200
  0
LINE
  8
0
 10
328.590668
 20
-12.695192
 11
329.090668
 21
-13.195193
  0
LINE
  8
0
 10
329.090698
 20
-13.195206
 11
329.090698
 21
-13.695206
  0
LINE
  8
0
 10
332.290680
 20
-13.195206
 11
332.290680
 21
-13.695206
  0
LINE
  8
0
 10
332.790680
 20
-12.695188
 11
332.290680
 21
-13.195189
  0
LINE
  8
0
 10
332.790680
 20
-12.695206
 11
332.790680
 21
-11.095200
  0
LINE
  8
0
 10
338.790680
 20
-12.695206
 11
340.290680
 21
-12.695206
  0
LINE
  8
0
 10
338.420685
 20
-9.895203
 11
339.540680
 21
-9.895203
  0
LINE
  8
0
 10
343.290680
 20
-11.895203
 11
341.680664
 21
-11.895203
  0
LINE
  8
0
 10
343.290680
 20
-9.095200
 11
340.930664
 21
-9.095200
  0
LINE
  8
0
 10
340.290680
 20
-12.695207
 11
341.680664
 21
-11.895209
  0
LINE
  8
0
 10
339.540680
 20
-9.895198
 11
340.930695
 21
-9.095192
  0
LINE
  8
0
 10
345.190674
 20
-8.195206
 11
345.190674
 21
-13.695206
  0
LINE
  8
0
 10
342.940674
 20
159.304794
 11
369.190674
 21
159.304794
  0
LINE
  8
0
 10
342.940674
 20
159.304794
 11
342.940674
 21
157.304794
  0
LINE
  8
0
 10
344.940674
 20
157.304794
 11
342.940674
 21
157.304794
  0
LINE
  8
0
 10
344.940674
 20
157.304794
 11
344.940674
 21
154.004791
  0
LINE
  8
0
 10
335.440674
 20
153.004791
 11
343.940674
 21
153.004791
  0
LINE
  8
0
 10
334.440674
 20
157.304794
 11
334.440674
 21
154.004791
  0
LINE
  8
0
 10
334.440674
 20
157.304794
 11
336.440674
 21
157.304794
  0
LINE
  8
0
 10
336.440674
 20
159.304794
 11
336.440674
 21
157.304794
  0
LINE
  8
0
 10
310.190674
 20
159.304794
 11
336.440674
 21
159.304794
  0
LINE
  8
0
 10
345.190674
 20
-8.195206
 11
328.190674
 21
-8.195206
  0
LINE
  8
0
 10
335.090698
 20
-13.695206
 11
332.290680
 21
-13.695206
  0
LINE
  8
0
 10
329.090698
 20
-13.695206
 11
309.190674
 21
-13.695206
  0
LINE
  8
0
 10
333.690674
 20
159.304794
 11
333.690674
 21
152.304794
  0
LINE
  8
0
 10
345.690674
 20
159.304794
 11
345.690674
 21
152.304794
  0
LINE
  8
0
 10
331.540680
 20
61.284805
 11
331.540680
 21
41.324799
  0
LINE
  8
0
 10
332.840698
 20
61.284805
 11
332.840698
 21
41.324799
  0
LINE
  8
0
 10
310.190674
 20
159.304794
 11
310.190674
 21
-13.695206
  0
LINE
  8
0
  6
CENTER
 62
     2
 10
332.193695
 20
37.315903
 11
332.193695
 21
66.755905
  0
LINE
  8
0
  6
CENTER
 62
     2
 10
365.190674
 20
144.304794
 11
373.190674
 21
144.304794
  0
LINE
  8
0
  6
CENTER
 62
     1
 10
336.690674
 20
-6.622894
 11
336.690674
 21
-14.885193
  0
LINE
  8
0
 62
     4
 10
334.640656
 20
-12.725201
 11
335.190674
 21
-13.275202
  0
LINE
  8
0
 62
     4
 10
335.190674
 20
-13.775192
 11
335.190674
 21
-13.325195
  0
LINE
  8
0
 62
     4
 10
338.190674
 20
-13.775192
 11
338.190674
 21
-13.325195
  0
LINE
  8
0
  6
CENTER
 62
     1
 10
337.425964
 20
-11.925201
 11
335.938263
 21
-11.925201
  0
LINE
  8
0
  6
CENTER
 62
     1
 10
337.425964
 20
-11.025192
 11
335.938263
 21
-11.025192
  0
LINE
  8
0
  6
CENTER
 62
     1
 10
338.337128
 20
-11.475204
 11
335.047668
 21
-11.475204
  0
LINE
  8
0
 62
     4
 10
335.190674
 20
-13.825195
 11
335.190674
 21
-13.275192
  0
LINE
  8
0
 62
     4
 10
335.190674
 20
-13.825195
 11
338.190674
 21
-13.825195
  0
LINE
  8
0
 62
     4
 10
338.190674
 20
-13.825195
 11
338.190674
 21
-13.275192
  0
LINE
  8
0
 62
     4
 10
338.740662
 20
-12.725194
 11
338.190674
 21
-13.275200
  0
LINE
  8
0
 62
     4
 10
335.690674
 20
-14.245193
 11
337.690674
 21
-14.245193
  0
LINE
  8
0
 62
     4
 10
337.940674
 20
-13.995185
 11
337.690674
 21
-14.245188
  0
LINE
  8
0
 62
     4
 10
337.940674
 20
-13.995193
 11
337.940674
 21
-13.825195
  0
LINE
  8
0
 62
     4
 10
335.440674
 20
-13.995201
 11
335.690674
 21
-14.245205
  0
LINE
  8
0
 62
     4
 10
335.440674
 20
-13.995193
 11
335.440674
 21
-13.825195
  0
LINE
  8
0
 62
     1
 10
337.690674
 20
-14.245193
 11
337.690674
 21
-13.825195
  0
LINE
  8
0
 62
     1
 10
335.690674
 20
-14.245193
 11
335.690674
 21
-13.825195
  0
LINE
  8
0
 62
     4
 10
335.690674
 20
-9.245193
 11
336.440430
 21
-9.245193
  0
LINE
  8
0
 62
     4
 10
337.690674
 20
-9.245190
 11
337.940674
 21
-9.495198
  0
LINE
  8
0
 62
     4
 10
335.690674
 20
-9.245185
 11
335.440674
 21
-9.495193
  0
LINE
  8
0
 62
     4
 10
335.440674
 20
-9.655197
 11
335.440674
 21
-9.495193
  0
LINE
  8
0
 62
     1
 10
335.690674
 20
-9.490479
 11
335.690674
 21
-9.245193
  0
LINE
  8
0
 62
     1
 10
337.690674
 20
-9.490814
 11
337.690674
 21
-9.245193
  0
LINE
  8
0
 62
     4
 10
337.940674
 20
-9.655655
 11
337.940674
 21
-9.495193
  0
LINE
  8
0
 62
     4
 10
338.740662
 20
-12.725204
 11
338.740662
 21
-11.275192
  0
LINE
  8
0
 62
     4
 10
336.940918
 20
-9.245193
 11
337.690674
 21
-9.245193
  0
LINE
  8
0
  6
CENTER
 62
     1
 10
330.690674
 20
-6.622894
 11
330.690674
 21
-14.885193
  0
LINE
  8
0
 62
     4
 10
328.640686
 20
-12.725193
 11
329.190674
 21
-13.275187
  0
LINE
  8
0
 62
     4
 10
332.740662
 20
-12.725204
 11
332.740662
 21
-11.275192
  0
LINE
  8
0
 62
     1
 10
331.690674
 20
-14.245193
 11
331.690674
 21
-13.825195
  0
LINE
  8
0
 62
     4
 10
331.940674
 20
-13.995193
 11
331.940674
 21
-13.825195
  0
LINE
  8
0
 62
     4
 10
331.940674
 20
-13.995185
 11
331.690674
 21
-14.245182
  0
LINE
  8
0
 62
     4
 10
332.190674
 20
-13.825195
 11
332.190674
 21
-13.275192
  0
LINE
  8
0
 62
     4
 10
332.190674
 20
-13.775192
 11
332.190674
 21
-13.325195
  0
LINE
  8
0
 62
     4
 10
332.740662
 20
-12.725192
 11
332.190674
 21
-13.275187
  0
LINE
  8
0
 62
     1
 10
329.690674
 20
-14.245193
 11
329.690674
 21
-13.825195
  0
LINE
  8
0
 62
     4
 10
329.440674
 20
-13.995193
 11
329.440674
 21
-13.825195
  0
LINE
  8
0
 62
     4
 10
329.440674
 20
-13.995203
 11
329.690674
 21
-14.245212
  0
LINE
  8
0
 62
     4
 10
329.190674
 20
-13.825195
 11
329.190674
 21
-13.275192
  0
LINE
  8
0
 62
     4
 10
329.190674
 20
-13.775192
 11
329.190674
 21
-13.325195
  0
LINE
  8
0
 62
     1
 10
329.690674
 20
-9.490479
 11
329.690674
 21
-9.245193
  0
LINE
  8
0
 62
     4
 10
329.440674
 20
-9.655197
 11
329.440674
 21
-9.495193
  0
LINE
  8
0
 62
     4
 10
329.690674
 20
-9.245193
 11
329.440674
 21
-9.495196
  0
LINE
  8
0
 62
     4
 10
331.940674
 20
-9.655655
 11
331.940674
 21
-9.495193
  0
LINE
  8
0
 62
     4
 10
331.690674
 20
-9.245205
 11
331.940674
 21
-9.495197
  0
LINE
  8
0
 62
     1
 10
331.690674
 20
-9.490814
 11
331.690674
 21
-9.245193
  0
LINE
  8
0
 62
     4
 10
330.940918
 20
-9.245193
 11
331.690674
 21
-9.245193
  0
LINE
  8
0
  6
CENTER
 62
     1
 10
331.425964
 20
-11.925201
 11
329.938263
 21
-11.925201
  0
LINE
  8
0
  6
CENTER
 62
     1
 10
331.425964
 20
-11.025192
 11
329.938263
 21
-11.025192
  0
LINE
  8
0
  6
CENTER
 62
     1
 10
332.337128
 20
-11.475204
 11
329.047668
 21
-11.475204
  0
LINE
  8
0
 62
     4
 10
329.190674
 20
-13.825195
 11
332.190674
 21
-13.825195
  0
LINE
  8
0
 62
     4
 10
329.690674
 20
-14.245193
 11
331.690674
 21
-14.245193
  0
LINE
  8
0
 62
     4
 10
329.690674
 20
-9.245193
 11
330.440430
 21
-9.245193
  0
LINE
  8
0
 62
     4
 10
328.640686
 20
-12.725204
 11
328.640686
 21
-11.275192
  0
LINE
  8
0
 62
     4
 10
334.640686
 20
-12.725204
 11
334.640686
 21
-11.275192
  0
LINE
  8
0
  6
CENTER
 62
     2
 10
-346.802094
 20
37.315903
 11
-346.802094
 21
66.755905
  0
LINE
  8
0
 62
     4
 10
-346.549072
 20
-12.025192
 11
-346.549072
 21
-11.925201
  0
LINE
  8
0
 62
     4
 10
-344.049072
 20
-12.025192
 11
-344.049072
 21
-11.925201
  0
LINE
  8
0
 62
     4
 10
-346.549072
 20
-13.995193
 11
-346.549072
 21
-13.825195
  0
LINE
  8
0
 62
     1
 10
-346.299072
 20
-12.025192
 11
-346.299072
 21
-11.925201
  0
LINE
  8
0
 62
     1
 10
-344.299072
 20
-12.025192
 11
-344.299072
 21
-11.925201
  0
LINE
  8
0
 62
     4
 10
-344.049072
 20
-13.995193
 11
-344.049072
 21
-13.825195
  0
LINE
  8
0
 62
     4
 10
-346.549072
 20
-11.225204
 11
-346.549072
 21
-9.495193
  0
LINE
  8
0
 62
     1
 10
-346.299072
 20
-11.225204
 11
-346.299072
 21
-9.245193
  0
LINE
  8
0
 62
     1
 10
-344.299072
 20
-11.225204
 11
-344.299072
 21
-9.245193
  0
LINE
  8
0
 62
     4
 10
-344.049072
 20
-11.225204
 11
-344.049072
 21
-9.495193
  0
LINE
  8
0
 62
     4
 10
-344.299072
 20
-9.245192
 11
-344.049072
 21
-9.495184
  0
LINE
  8
0
 62
     4
 10
-346.549072
 20
-13.995179
 11
-346.299072
 21
-14.245188
  0
LINE
  8
0
 62
     4
 10
-346.299072
 20
-9.245195
 11
-346.549072
 21
-9.495188
  0
LINE
  8
0
 62
     4
 10
-344.049072
 20
-13.995209
 11
-344.299072
 21
-14.245207
  0
LINE
  8
0
 62
     4
 10
-344.299072
 20
-9.245193
 11
-346.299072
 21
-9.245193
  0
LINE
  8
0
 62
     4
 10
-344.299072
 20
-14.245193
 11
-346.299072
 21
-14.245193
  0
LINE
  8
0
 62
     1
 10
-344.299072
 20
-14.245193
 11
-344.299072
 21
-13.825195
  0
LINE
  8
0
 62
     1
 10
-346.299072
 20
-14.245193
 11
-346.299072
 21
-13.825195
  0
LINE
  8
0
 62
     4
 10
-343.399078
 20
-11.225204
 11
-347.199097
 21
-11.225204
  0
LINE
  8
0
 62
     4
 10
-343.299072
 20
-11.825195
 11
-343.299072
 21
-11.325195
  0
LINE
  8
0
 62
     4
 10
-347.299072
 20
-11.825195
 11
-347.299072
 21
-11.325195
  0
LINE
  8
0
 62
     4
 10
-343.399078
 20
-11.925201
 11
-347.199097
 21
-11.925201
  0
LINE
  8
0
 62
     4
 10
-343.249084
 20
-12.025192
 11
-347.349060
 21
-12.025192
  0
LINE
  8
0
 62
     4
 10
-347.349060
 20
-12.725202
 11
-346.799103
 21
-13.275196
  0
LINE
  8
0
 62
     4
 10
-343.249084
 20
-12.725196
 11
-343.799072
 21
-13.275202
  0
LINE
  8
0
 62
     4
 10
-346.799072
 20
-13.825195
 11
-346.799072
 21
-13.275192
  0
LINE
  8
0
 62
     4
 10
-343.799072
 20
-13.825195
 11
-343.799072
 21
-13.275192
  0
LINE
  8
0
 62
     4
 10
-343.249084
 20
-12.725204
 11
-343.249084
 21
-11.275192
  0
LINE
  8
0
 62
     4
 10
-347.349060
 20
-12.725204
 11
-347.349060
 21
-11.275192
  0
LINE
  8
0
 62
     4
 10
-343.799072
 20
-13.825195
 11
-346.799072
 21
-13.825195
  0
LINE
  8
0
 62
     4
 10
-352.549072
 20
-12.025192
 11
-352.549072
 21
-11.925201
  0
LINE
  8
0
 62
     4
 10
-350.049072
 20
-12.025192
 11
-350.049072
 21
-11.925201
  0
LINE
  8
0
 62
     4
 10
-352.549072
 20
-13.995193
 11
-352.549072
 21
-13.825195
  0
LINE
  8
0
 62
     1
 10
-352.299072
 20
-12.025192
 11
-352.299072
 21
-11.925201
  0
LINE
  8
0
 62
     1
 10
-350.299072
 20
-12.025192
 11
-350.299072
 21
-11.925201
  0
LINE
  8
0
 62
     4
 10
-350.049072
 20
-13.995193
 11
-350.049072
 21
-13.825195
  0
LINE
  8
0
 62
     4
 10
-352.549072
 20
-11.225204
 11
-352.549072
 21
-9.495193
  0
LINE
  8
0
 62
     1
 10
-352.299072
 20
-11.225204
 11
-352.299072
 21
-9.245193
  0
LINE
  8
0
 62
     1
 10
-350.299072
 20
-11.225204
 11
-350.299072
 21
-9.245193
  0
LINE
  8
0
 62
     4
 10
-350.049072
 20
-11.225204
 11
-350.049072
 21
-9.495193
  0
LINE
  8
0
 62
     4
 10
-350.299072
 20
-9.245191
 11
-350.049072
 21
-9.495198
  0
LINE
  8
0
 62
     4
 10
-352.549072
 20
-13.995194
 11
-352.299072
 21
-14.245187
  0
LINE
  8
0
 62
     4
 10
-352.299072
 20
-9.245195
 11
-352.549072
 21
-9.495204
  0
LINE
  8
0
 62
     4
 10
-350.049072
 20
-13.995202
 11
-350.299072
 21
-14.245194
  0
LINE
  8
0
 62
     4
 10
-350.299072
 20
-9.245193
 11
-352.299072
 21
-9.245193
  0
LINE
  8
0
 62
     4
 10
-350.299072
 20
-14.245193
 11
-352.299072
 21
-14.245193
  0
LINE
  8
0
 62
     1
 10
-350.299072
 20
-14.245193
 11
-350.299072
 21
-13.825195
  0
LINE
  8
0
 62
     1
 10
-352.299072
 20
-14.245193
 11
-352.299072
 21
-13.825195
  0
LINE
  8
0
 62
     4
 10
-349.399078
 20
-11.225204
 11
-353.199097
 21
-11.225204
  0
LINE
  8
0
 62
     4
 10
-349.299072
 20
-11.825195
 11
-349.299072
 21
-11.325195
  0
LINE
  8
0
 62
     4
 10
-353.299072
 20
-11.825195
 11
-353.299072
 21
-11.325195
  0
LINE
  8
0
 62
     4
 10
-349.399078
 20
-11.925201
 11
-353.199097
 21
-11.925201
  0
LINE
  8
0
 62
     4
 10
-349.249084
 20
-12.025192
 11
-353.349060
 21
-12.025192
  0
LINE
  8
0
 62
     4
 10
-353.349091
 20
-12.725204
 11
-352.799072
 21
-13.275209
  0
LINE
  8
0
 62
     4
 10
-349.249054
 20
-12.725206
 11
-349.799072
 21
-13.275197
  0
LINE
  8
0
 62
     4
 10
-352.799072
 20
-13.825195
 11
-352.799072
 21
-13.275192
  0
LINE
  8
0
 62
     4
 10
-349.799072
 20
-13.825195
 11
-349.799072
 21
-13.275192
  0
LINE
  8
0
 62
     4
 10
-349.249084
 20
-12.725204
 11
-349.249084
 21
-11.275192
  0
LINE
  8
0
 62
     4
 10
-353.349060
 20
-12.725204
 11
-353.349060
 21
-11.275192
  0
LINE
  8
0
 62
     4
 10
-349.799072
 20
-13.825195
 11
-352.799072
 21
-13.825195
  0
LINE
  8
0
 10
-324.799072
 20
159.304794
 11
-324.799072
 21
-13.695206
  0
LINE
  8
0
 10
-347.449097
 20
61.284805
 11
-347.449097
 21
41.324799
  0
LINE
  8
0
 10
-346.149078
 20
61.284805
 11
-346.149078
 21
41.324799
  0
LINE
  8
0
 10
-360.299072
 20
159.304794
 11
-360.299072
 21
152.304794
  0
LINE
  8
0
 10
-348.299072
 20
159.304794
 11
-348.299072
 21
152.304794
  0
LINE
  8
0
 10
-343.699097
 20
-13.695206
 11
-323.799072
 21
-13.695206
  0
LINE
  8
0
 10
-349.699097
 20
-13.695206
 11
-346.899078
 21
-13.695206
  0
LINE
  8
0
 10
-359.799072
 20
-8.195206
 11
-342.799072
 21
-8.195206
  0
LINE
  8
0
  6
CENTER
 62
     2
 10
-365.299072
 20
71.304810
 11
-365.299072
 21
49.744797
  0
LINE
  8
0
 10
-324.799072
 20
159.304794
 11
-351.049072
 21
159.304794
  0
LINE
  8
0
 10
-351.049072
 20
159.304794
 11
-351.049072
 21
157.304794
  0
LINE
  8
0
 10
-349.049072
 20
157.304794
 11
-351.049072
 21
157.304794
  0
LINE
  8
0
 10
-349.049072
 20
157.304794
 11
-349.049072
 21
154.004791
  0
LINE
  8
0
 10
-350.049072
 20
153.004791
 11
-358.549072
 21
153.004791
  0
LINE
  8
0
 10
-359.549072
 20
157.304794
 11
-359.549072
 21
154.004791
  0
LINE
  8
0
 10
-359.549072
 20
157.304794
 11
-357.549072
 21
157.304794
  0
LINE
  8
0
 10
-357.549072
 20
159.304794
 11
-357.549072
 21
157.304794
  0
LINE
  8
0
 10
-357.549072
 20
159.304794
 11
-383.799072
 21
159.304794
  0
LINE
  8
0
 10
-359.799072
 20
-8.195206
 11
-359.799072
 21
-13.695206
  0
LINE
  8
0
 10
-354.149078
 20
-9.895199
 11
-355.539093
 21
-9.095193
  0
LINE
  8
0
 10
-354.899078
 20
-12.695198
 11
-356.289062
 21
-11.895200
  0
LINE
  8
0
 10
-357.899078
 20
-9.095200
 11
-355.539062
 21
-9.095200
  0
LINE
  8
0
 10
-357.899078
 20
-11.895203
 11
-356.289062
 21
-11.895203
  0
LINE
  8
0
 10
-353.029083
 20
-9.895203
 11
-354.149078
 21
-9.895203
  0
LINE
  8
0
 10
-353.399078
 20
-12.695206
 11
-354.899078
 21
-12.695206
  0
LINE
  8
0
 10
-347.399078
 20
-12.695206
 11
-347.399078
 21
-11.095200
  0
LINE
  8
0
 10
-347.399078
 20
-12.695185
 11
-346.899078
 21
-13.195186
  0
LINE
  8
0
 10
-346.899078
 20
-13.195206
 11
-346.899078
 21
-13.695206
  0
LINE
  8
0
 10
-343.699097
 20
-13.195206
 11
-343.699097
 21
-13.695206
  0
LINE
  8
0
 10
-343.199066
 20
-12.695196
 11
-343.699066
 21
-13.195197
  0
LINE
  8
0
 10
-343.199097
 20
-12.695206
 11
-343.199097
 21
-11.095200
  0
LINE
  8
0
  6
CENTER
 62
     1
 10
-345.299072
 20
-7.055191
 11
-345.299072
 21
-15.865204
  0
LINE
  8
0
 10
-348.299072
 20
152.304794
 11
-360.299072
 21
152.304794
  0
LINE
  8
0
  6
CENTER
 62
     2
 10
-373.799072
 20
62.304810
 11
-356.799072
 21
62.304810
  0
LINE
  8
0
  6
CENTER
 62
     2
 10
-388.457733
 20
144.304794
 11
-376.598297
 21
144.304794
  0
LINE
  8
0
 10
-342.799072
 20
-8.195206
 11
-342.799072
 21
-13.695206
  0
LINE
  8
0
  6
CENTER
 62
     1
 10
-351.299072
 20
-7.055191
 11
-351.299072
 21
-15.865204
  0
LINE
  8
0
 10
-352.899078
 20
-13.195206
 11
-352.899078
 21
-13.695206
  0
LINE
  8
0
 10
-353.399109
 20
-12.695216
 11
-352.899109
 21
-13.195201
  0
LINE
  8
0
 10
-349.199097
 20
-12.695206
 11
-349.199097
 21
-11.095200
  0
LINE
  8
0
 10
-349.199066
 20
-12.695197
 11
-349.699066
 21
-13.195209
  0
LINE
  8
0
 10
-349.699097
 20
-13.195206
 11
-349.699097
 21
-13.695206
  0
LINE
  8
0
  6
CENTER
 62
     2
 10
-360.799072
 20
51.304810
 11
-331.359070
 21
51.304810
  0
LINE
  8
0
  6
CENTER
 62
     2
 10
-354.299072
 20
130.304794
 11
-354.299072
 21
106.584808
  0
LINE
  8
0
  6
CENTER
 62
     2
 10
-366.596985
 20
121.304794
 11
-340.279083
 21
121.304794
  0
LINE
  8
0
 10
-323.799072
 20
88.304810
 11
-324.799072
 21
88.304810
  0
LINE
  8
0
 10
-383.799072
 20
159.304794
 11
-383.799072
 21
-13.695206
  0
LINE
  8
0
 10
-383.799072
 20
-13.695206
 11
-352.899078
 21
-13.695206
  0
LINE
  8
0
 10
-323.799072
 20
88.304810
 11
-323.799072
 21
-13.695206
  0
LINE
  8
0
  6
DASHED
 62
     2
 10
-383.799103
 20
8.304801
 11
-383.149109
 21
8.954816
  0
LINE
  8
0
  6
DASHED
 62
     2
 10
-383.799072
 20
48.304802
 11
-383.149078
 21
47.654816
  0
LINE
  8
0
  6
DASHED
 62
     2
 10
-383.149078
 20
8.954803
 11
-383.149078
 21
47.654800
  0
LINE
  8
0
  6
DASHED
 62
     2
 10
-373.949066
 20
-8.945206
 11
-373.949066
 21
5.554794
  0
LINE
  8
0
  6
DASHED
 62
     2
 10
-373.299072
 20
2.554794
 11
-373.299072
 21
5.554794
  0
LINE
  8
0
  6
DASHED
 62
     2
 10
-372.299072
 20
2.554794
 11
-373.299072
 21
2.554794
  0
LINE
  8
0
  6
DASHED
 62
     2
 10
-372.299072
 20
-5.945206
 11
-372.299072
 21
2.554794
  0
LINE
  8
0
  6
DASHED
 62
     2
 10
-372.299072
 20
-5.945206
 11
-373.299072
 21
-5.945206
  0
LINE
  8
0
  6
DASHED
 62
     2
 10
-373.299072
 20
-8.945206
 11
-373.299072
 21
-5.945206
  0
LINE
  8
0
  6
DASHED
 62
     2
 10
-379.799072
 20
2.554794
 11
-383.799072
 21
2.554794
  0
LINE
  8
0
  6
DASHED
 62
     2
 10
-373.299072
 20
5.554794
 11
-379.799072
 21
5.554794
  0
LINE
  8
0
  6
DASHED
 62
     2
 10
-373.299072
 20
-8.945206
 11
-379.799072
 21
-8.945206
  0
LINE
  8
0
  6
DASHED
 62
     2
 10
-379.799072
 20
5.554794
 11
-379.799072
 21
-8.945206
  0
LINE
  8
0
  6
DASHED
 62
     2
 10
-379.799072
 20
-5.945206
 11
-383.799072
 21
-5.945206
  0
LINE
  8
0
  6
CENTER
 62
     2
 10
-369.869080
 20
-1.695206
 11
-386.109070
 21
-1.695206
  0
LINE
  8
0
  6
DASHED
 62
     2
 10
-373.949066
 20
51.054810
 11
-373.949066
 21
65.554810
  0
LINE
  8
0
  6
DASHED
 62
     2
 10
-373.299072
 20
62.554810
 11
-373.299072
 21
65.554810
  0
LINE
  8
0
  6
DASHED
 62
     2
 10
-372.299072
 20
62.554810
 11
-373.299072
 21
62.554810
  0
LINE
  8
0
  6
DASHED
 62
     2
 10
-372.299072
 20
54.054810
 11
-372.299072
 21
62.554810
  0
LINE
  8
0
  6
DASHED
 62
     2
 10
-372.299072
 20
54.054810
 11
-373.299072
 21
54.054810
  0
LINE
  8
0
  6
DASHED
 62
     2
 10
-373.299072
 20
51.054810
 11
-373.299072
 21
54.054810
  0
LINE
  8
0
  6
DASHED
 62
     2
 10
-379.799072
 20
62.554810
 11
-383.799072
 21
62.554810
  0
LINE
  8
0
  6
DASHED
 62
     2
 10
-373.299072
 20
65.554810
 11
-379.799072
 21
65.554810
  0
LINE
  8
0
  6
DASHED
 62
     2
 10
-373.299072
 20
51.054810
 11
-379.799072
 21
51.054810
  0
LINE
  8
0
  6
DASHED
 62
     2
 10
-379.799072
 20
65.554810
 11
-379.799072
 21
51.054810
  0
LINE
  8
0
  6
DASHED
 62
     2
 10
-379.799072
 20
54.054810
 11
-383.799072
 21
54.054810
  0
LINE
  8
0
  6
CENTER
 62
     2
 10
-369.869080
 20
58.304810
 11
-386.109070
 21
58.304810
  0
LINE
  8
0
 10
178.190918
 20
48.308853
 11
194.190918
 21
48.308853
  0
LINE
  8
0
 10
178.190918
 20
54.308853
 11
194.190918
 21
54.308853
  0
LINE
  8
0
 10
178.190918
 20
54.308853
 11
178.190918
 21
48.308853
  0
LINE
  8
0
 62
     4
 10
-157.809082
 20
79.308853
 11
-157.809082
 21
77.308853
  0
LINE
  8
0
 62
     4
 10
-165.809082
 20
79.308853
 11
-165.809082
 21
77.308853
  0
LINE
  8
0
  6
CENTER
 62
     1
 10
-167.749084
 20
77.308853
 11
-156.039078
 21
77.308853
  0
LINE
  8
0
  6
CENTER
 62
     1
 10
-167.819077
 20
79.308853
 11
-156.039078
 21
79.308853
  0
LINE
  8
0
 10
-68.809082
 20
-7.191162
 11
271.190918
 21
-7.191162
  0
LINE
  8
0
 10
259.193512
 20
33.582962
 11
262.193542
 21
31.852932
  0
LINE
  8
0
 10
262.193451
 20
38.772976
 11
265.193512
 21
37.042953
  0
LINE
  8
0
 10
262.193542
 20
31.853001
 11
265.193390
 21
33.582905
  0
LINE
  8
0
 10
259.193420
 20
37.042866
 11
262.193451
 21
38.772896
  0
LINE
  8
0
 10
265.193604
 20
37.042892
 11
265.193604
 21
33.582886
  0
LINE
  8
0
 10
259.193604
 20
37.042892
 11
259.193604
 21
33.582886
  0
LINE
  8
0
 10
242.193481
 20
33.582958
 11
245.193527
 21
31.852934
  0
LINE
  8
0
 10
245.193451
 20
38.773003
 11
248.193497
 21
37.042969
  0
LINE
  8
0
 10
245.193558
 20
31.852982
 11
248.193375
 21
33.582886
  0
LINE
  8
0
 10
242.193405
 20
37.042835
 11
245.193451
 21
38.772858
  0
LINE
  8
0
 10
248.193604
 20
37.042892
 11
248.193604
 21
33.582886
  0
LINE
  8
0
 10
242.193604
 20
37.042892
 11
242.193604
 21
33.582886
  0
LINE
  8
0
 10
250.693619
 20
67.582893
 11
253.693466
 21
65.852982
  0
LINE
  8
0
 10
253.693588
 20
72.772919
 11
256.693634
 21
71.042885
  0
LINE
  8
0
 10
253.693466
 20
65.852829
 11
256.693512
 21
67.582870
  0
LINE
  8
0
 10
250.693527
 20
71.042824
 11
253.693573
 21
72.772850
  0
LINE
  8
0
 10
256.693604
 20
71.042892
 11
256.693604
 21
67.582886
  0
LINE
  8
0
 10
250.693604
 20
71.042892
 11
250.693604
 21
67.582886
  0
LINE
  8
0
 10
-271.806122
 20
33.582897
 11
-268.806122
 21
31.852900
  0
LINE
  8
0
 10
-268.806122
 20
38.772896
 11
-265.806122
 21
37.042896
  0
LINE
  8
0
 10
-268.806122
 20
31.852884
 11
-265.806122
 21
33.582882
  0
LINE
  8
0
 10
-271.806122
 20
37.042885
 11
-268.806122
 21
38.772884
  0
LINE
  8
0
 10
-265.806152
 20
37.042892
 11
-265.806152
 21
33.582886
  0
LINE
  8
0
 10
-271.806152
 20
37.042892
 11
-271.806152
 21
33.582886
  0
LINE
  8
0
 10
-288.806122
 20
33.582897
 11
-285.806091
 21
31.852884
  0
LINE
  8
0
 10
-285.806152
 20
38.772892
 11
-282.806152
 21
37.042892
  0
LINE
  8
0
 10
-285.806122
 20
31.852879
 11
-282.806122
 21
33.582878
  0
LINE
  8
0
 10
-288.806122
 20
37.042885
 11
-285.806122
 21
38.772884
  0
LINE
  8
0
 10
-282.806152
 20
37.042892
 11
-282.806152
 21
33.582886
  0
LINE
  8
0
 10
-288.806122
 20
37.042892
 11
-288.806122
 21
33.582886
  0
LINE
  8
0
 10
-280.306152
 20
67.582893
 11
-277.306152
 21
65.852890
  0
LINE
  8
0
 10
-277.306122
 20
72.772896
 11
-274.306122
 21
71.042900
  0
LINE
  8
0
 10
-277.306122
 20
65.852890
 11
-274.306122
 21
67.582878
  0
LINE
  8
0
 10
-280.306122
 20
71.042900
 11
-277.306152
 21
72.772903
  0
LINE
  8
0
 10
-274.306152
 20
71.042892
 11
-274.306152
 21
67.582886
  0
LINE
  8
0
 10
-280.306152
 20
71.042892
 11
-280.306152
 21
67.582886
  0
LINE
  8
0
 10
236.190918
 20
61.808853
 11
271.190918
 21
61.808853
  0
LINE
  8
0
 10
-259.799072
 20
61.808853
 11
-294.799072
 21
61.808853
  0
LINE
  8
0
 10
271.190918
 20
159.308838
 11
288.190918
 21
159.308838
  0
LINE
  8
0
 10
-311.799072
 20
159.308838
 11
-294.799072
 21
159.308838
  0
LINE
  8
0
 10
236.190918
 20
76.808853
 11
236.190918
 21
1.308838
  0
LINE
  8
0
 10
266.690918
 20
86.308853
 11
259.690918
 21
86.308853
  0
LINE
  8
0
 10
259.690918
 20
90.308853
 11
259.690918
 21
86.308853
  0
LINE
  8
0
 10
266.690918
 20
90.308853
 11
266.690918
 21
86.308853
  0
LINE
  8
0
  6
CENTER
 62
     2
 10
263.190918
 20
93.818848
 11
263.190918
 21
84.308853
  0
LINE
  8
0
 10
249.690918
 20
96.308838
 11
249.690918
 21
90.308853
  0
LINE
  8
0
 10
-259.799072
 20
76.808853
 11
-259.799072
 21
1.308838
  0
LINE
  8
0
 10
-273.299072
 20
96.308838
 11
-273.299072
 21
90.308853
  0
LINE
  8
0
 10
-290.299072
 20
86.308853
 11
-283.299072
 21
86.308853
  0
LINE
  8
0
 10
-283.299072
 20
90.308853
 11
-283.299072
 21
86.308853
  0
LINE
  8
0
 10
-290.299072
 20
90.308853
 11
-290.299072
 21
86.308853
  0
LINE
  8
0
  6
CENTER
 62
     2
 10
-286.799072
 20
94.568848
 11
-286.799072
 21
84.308853
  0
LINE
  8
0
 10
-236.799072
 20
88.308853
 11
-236.799072
 21
89.848846
  0
LINE
  8
0
 10
-294.799072
 20
96.308838
 11
271.190918
 21
96.308838
  0
LINE
  8
0
 10
-232.969086
 20
90.608841
 11
-90.649078
 21
90.608841
  0
LINE
  8
0
 10
-294.799072
 20
102.308838
 11
-293.799072
 21
102.308838
  0
LINE
  8
0
 10
-294.799072
 20
144.808838
 11
-293.799072
 21
144.808838
  0
LINE
  8
0
 10
-293.799072
 20
159.308838
 11
-293.799072
 21
96.308838
  0
LINE
  8
0
 10
249.690918
 20
90.308853
 11
271.190918
 21
90.308853
  0
LINE
  8
0
 10
-273.299072
 20
90.308853
 11
-294.799072
 21
90.308853
  0
LINE
  8
0
 10
-254.799072
 20
88.308853
 11
-68.809082
 21
88.308853
  0
LINE
  8
0
 10
-238.799072
 20
88.308853
 11
-235.799072
 21
88.308853
  0
LINE
  8
0
 10
-68.809082
 20
53.808853
 11
178.190918
 21
53.808853
  0
LINE
  8
0
 10
-68.809082
 20
59.808853
 11
194.190918
 21
59.808853
  0
LINE
  8
0
 10
-68.809082
 20
78.308853
 11
271.190918
 21
78.308853
  0
LINE
  8
0
 10
-294.799072
 20
78.308853
 11
-254.799072
 21
78.308853
  0
LINE
  8
0
 62
     2
 10
199.190918
 20
60.558853
 11
236.190918
 21
60.558853
  0
LINE
  8
0
 62
     2
 10
199.190918
 20
42.058853
 11
236.190918
 21
42.058853
  0
LINE
  8
0
 10
199.440918
 20
41.308853
 11
236.190918
 21
41.308853
  0
LINE
  8
0
 10
198.690750
 20
42.058704
 11
199.440674
 21
41.308784
  0
LINE
  8
0
 10
199.440918
 20
61.308853
 11
199.440918
 21
41.308853
  0
LINE
  8
0
 10
198.690750
 20
60.558807
 11
199.440842
 21
61.308899
  0
LINE
  8
0
 10
199.440918
 20
61.308853
 11
236.190918
 21
61.308853
  0
LINE
  8
0
 10
198.690918
 20
60.558853
 11
198.690918
 21
42.058853
  0
LINE
  8
0
 10
194.190918
 20
42.058853
 11
199.190918
 21
42.058853
  0
LINE
  8
0
 10
194.190918
 20
60.558853
 11
199.190918
 21
60.558853
  0
LINE
  8
0
 10
194.190918
 20
60.558853
 11
194.190918
 21
42.058853
  0
LINE
  8
0
 10
-87.809082
 20
88.308853
 11
-84.809082
 21
88.308853
  0
LINE
  8
0
 10
-78.109077
 20
96.308838
 11
-84.709091
 21
95.148834
  0
LINE
  8
0
 10
-77.979080
 20
95.518829
 11
-83.439087
 21
94.558830
  0
LINE
  8
0
 10
-78.109077
 20
96.308838
 11
-77.979080
 21
95.518845
  0
LINE
  8
0
 10
-245.499069
 20
96.308838
 11
-245.639069
 21
95.518845
  0
LINE
  8
0
 10
-245.499069
 20
96.308853
 11
-238.899078
 21
95.148849
  0
LINE
  8
0
 10
-245.639099
 20
95.518860
 11
-240.169098
 21
94.558861
  0
LINE
  8
0
 10
-86.809082
 20
88.308853
 11
-86.809082
 21
89.848846
  0
LINE
  8
0
 10
-259.799072
 20
41.308853
 11
-254.799072
 21
41.308853
  0
LINE
  8
0
 62
     2
 10
-259.799072
 20
42.058853
 11
-254.799072
 21
42.058853
  0
LINE
  8
0
 10
-259.799072
 20
61.308853
 11
-254.799072
 21
61.308853
  0
LINE
  8
0
 62
     2
 10
-259.799072
 20
60.558853
 11
-254.799072
 21
60.558853
  0
LINE
  8
0
 10
271.190918
 20
144.808838
 11
270.190918
 21
144.808838
  0
LINE
  8
0
 10
-294.799072
 20
144.808838
 11
-293.799072
 21
144.808838
  0
LINE
  8
0
 10
271.190918
 20
159.308838
 11
271.190918
 21
-13.691162
  0
LINE
  8
0
 10
-293.799072
 20
159.308838
 11
270.190918
 21
159.308838
  0
LINE
  8
0
  6
CENTER
 62
     2
 10
272.190918
 20
144.308838
 11
288.056641
 21
144.308838
  0
LINE
  8
0
 10
270.190918
 20
159.308838
 11
270.190918
 21
96.308838
  0
LINE
  8
0
 10
271.190918
 20
102.308838
 11
270.190918
 21
102.308838
  0
LINE
  8
0
  6
CENTER
 62
     2
 10
168.830811
 20
51.308853
 11
291.210693
 21
51.308853
  0
LINE
  8
0
  6
CENTER
 62
     2
 10
289.190918
 20
6.308838
 11
271.190918
 21
6.308838
  0
LINE
  8
0
  6
CENTER
 62
     2
 10
280.190918
 20
153.308838
 11
280.190918
 21
-6.298004
  0
LINE
  8
0
  6
CENTER
 62
     2
 10
-312.799072
 20
6.308838
 11
-294.799072
 21
6.308838
  0
LINE
  8
0
  6
CENTER
 62
     2
 10
-303.799072
 20
153.778839
 11
-303.799072
 21
-5.774246
  0
LINE
  8
0
  6
CENTER
 62
     2
 10
138.190918
 20
-21.221161
 11
138.190918
 21
170.988831
  0
LINE
  8
0
 10
-254.799072
 20
31.058853
 11
-259.799072
 21
31.058853
  0
LINE
  8
0
 10
-254.799072
 20
39.558853
 11
-259.799072
 21
39.558853
  0
LINE
  8
0
 10
236.190918
 20
31.058853
 11
-68.809082
 21
31.058853
  0
LINE
  8
0
 10
236.190918
 20
39.558853
 11
-68.809082
 21
39.558853
  0
LINE
  8
0
 10
-68.809082
 20
69.308853
 11
236.190918
 21
69.308853
  0
LINE
  8
0
 10
-259.799072
 20
69.308853
 11
-254.799072
 21
69.308853
  0
LINE
  8
0
  6
DASHED
 10
271.190918
 20
6.308838
 11
271.190918
 21
26.308853
  0
LINE
  8
0
 10
236.190918
 20
76.808853
 11
271.190918
 21
76.808853
  0
LINE
  8
0
 10
236.190918
 20
1.308838
 11
271.190918
 21
1.308838
  0
LINE
  8
0
  6
CENTER
 62
     2
 10
-81.809082
 20
84.808853
 11
-81.809082
 21
-10.487991
  0
LINE
  8
0
  6
CENTER
 62
     2
 10
-241.799072
 20
84.808853
 11
-241.799072
 21
-10.749878
  0
LINE
  8
0
  6
CENTER
 62
     2
 10
-75.309082
 20
-3.691162
 11
-249.499084
 21
-3.691162
  0
LINE
  8
0
  6
CENTER
 62
     2
 10
-75.309082
 20
78.308853
 11
-249.739075
 21
78.308853
  0
LINE
  8
0
 10
-293.799072
 20
136.808838
 11
270.190918
 21
136.808838
  0
LINE
  8
0
 10
-293.799072
 20
134.308838
 11
270.190918
 21
134.308838
  0
LINE
  8
0
 10
-293.799072
 20
111.808838
 11
270.190918
 21
111.808838
  0
LINE
  8
0
 10
-293.799072
 20
114.308838
 11
270.190918
 21
114.308838
  0
LINE
  8
0
 10
-293.799072
 20
154.308838
 11
270.190918
 21
154.308838
  0
LINE
  8
0
 10
-259.799072
 20
76.808853
 11
-294.799072
 21
76.808853
  0
LINE
  8
0
 10
-259.799072
 20
1.308838
 11
-294.799072
 21
1.308838
  0
LINE
  8
0
 10
-254.799072
 20
6.308838
 11
-259.799072
 21
6.308838
  0
LINE
  8
0
 10
236.190918
 20
6.308838
 11
-68.809082
 21
6.308838
  0
LINE
  8
0
 10
-254.799072
 20
26.308853
 11
-259.799072
 21
26.308853
  0
LINE
  8
0
 10
236.190918
 20
26.308853
 11
-68.809082
 21
26.308853
  0
LINE
  8
0
 10
-294.799072
 20
-7.191162
 11
-254.799072
 21
-7.191162
  0
LINE
  8
0
 10
-254.799072
 20
-13.691162
 11
-254.799072
 21
88.308853
  0
LINE
  8
0
 10
-68.809082
 20
-13.691162
 11
-68.809082
 21
88.308853
  0
LINE
  8
0
  6
CENTER
 62
     2
 10
-161.809082
 20
-21.221161
 11
-161.809082
 21
167.978836
  0
LINE
  8
0
 10
-294.799072
 20
-13.691162
 11
-294.799072
 21
159.308838
  0
LINE
  8
0
 10
288.190918
 20
159.308838
 11
288.190918
 21
-13.691162
  0
LINE
  8
0
 10
-311.799072
 20
-13.691162
 11
288.190918
 21
-13.691162
  0
LINE
  8
0
 10
-311.799072
 20
-13.691162
 11
-311.799072
 21
159.308838
  0
LINE
  8
0
  6
CENTER
 62
     2
 10
-315.135925
 20
144.308838
 11
-294.799072
 21
144.308838
  0
LINE
  8
0
  6
PHANTOM
 62
     3
 10
35.622559
 20
-70.879288
 11
35.622559
 21
176.135635
  0
LINE
  8
0
 10
-231.250000
 20
-236.750000
 11
-231.250000
 21
-256.750000
  0
LINE
  8
0
 10
-259.250000
 20
-236.750000
 11
-259.250000
 21
-256.750000
  0
LINE
  8
0
 10
-287.250000
 20
-236.750000
 11
-287.250000
 21
-256.750000
  0
LINE
  8
0
 10
-315.250000
 20
-236.750000
 11
-315.250000
 21
-256.750000
  0
LINE
  8
0
 10
-379.250000
 20
-236.750000
 11
-379.250000
 21
-256.750000
  0
LINE
  8
0
 10
-203.250000
 20
-236.750000
 11
-203.250000
 21
-256.750000
  0
LINE
  8
0
 10
-175.250000
 20
-236.750000
 11
-175.250000
 21
-256.750000
  0
LINE
  8
0
 10
-147.250000
 20
-236.750000
 11
-147.250000
 21
-256.750000
  0
LINE
  8
0
 10
-118.250000
 20
-236.750000
 11
-118.250000
 21
-256.750000
  0
LINE
  8
0
 10
-90.250000
 20
-256.750000
 11
-90.250000
 21
-236.750000
  0
LINE
  8
0
 10
-379.250000
 20
-246.750000
 11
-90.250000
 21
-246.750000
  0
LINE
  8
0
 10
-379.250000
 20
-236.750000
 11
-90.250000
 21
-236.750000
  0
LINE
  8
0
 10
-379.250000
 20
-256.750000
 11
-90.250000
 21
-256.750000
  0
LINE
  8
0
 10
399.799805
 20
276.250000
 11
399.799805
 21
-276.750000
  0
LINE
  8
0
 10
-399.250000
 20
276.250000
 11
-399.250000
 21
-276.750000
  0
LINE
  8
0
 10
-399.250000
 20
276.250000
 11
399.799805
 21
276.250000
  0
LINE
  8
0
 10
-399.250000
 20
-276.750000
 11
399.799805
 21
-276.750000
  0
LINE
  8
0
 10
239.799988
 20
-251.750000
 11
399.799805
 21
-251.750000
  0
LINE
  8
0
 10
239.799988
 20
251.250000
 11
399.799805
 21
251.250000
  0
LINE
  8
0
 10
-399.250000
 20
251.250000
 11
-239.250000
 21
251.250000
  0
LINE
  8
0
 10
239.799988
 20
-251.750000
 11
239.799988
 21
-276.750000
  0
LINE
  8
0
 10
239.799988
 20
251.250000
 11
239.799988
 21
276.250000
  0
LINE
  8
0
 10
-239.250000
 20
276.250000
 11
-239.250000
 21
251.250000
  0
ARC
  8
0
 62
     1
 10
-134.008041
 20
-137.786148
 40
0.963223
 50
321.850220
 51
38.149784
  0
ARC
  8
0
 62
     1
 10
-132.493088
 20
-136.596146
 40
0.963223
 50
141.850220
 51
218.149780
  0
ARC
  8
0
 62
     1
 10
155.991943
 20
-143.786148
 40
0.963223
 50
321.850220
 51
38.149784
  0
ARC
  8
0
 62
     1
 10
157.509521
 20
-142.596146
 40
0.965360
 50
141.949799
 51
218.050201
  0
CIRCLE
  8
0
 62
     4
 10
131.193848
 20
-143.191147
 40
1.500000
  0
CIRCLE
  8
0
 62
     4
 10
-158.806137
 20
-137.191147
 40
1.500000
  0
ARC
  8
0
 10
336.692871
 20
-11.092682
 40
2.102211
 50
34.724255
 51
180.068695
  0
CIRCLE
  8
0
 10
332.197754
 20
51.308838
 40
10.000000
  0
CIRCLE
  8
0
 62
     2
 10
332.197754
 20
51.308838
 40
9.250000
  0
CIRCLE
  8
0
 10
332.197754
 20
51.308838
 40
11.500000
  0
ARC
  8
0
 10
330.690674
 20
-11.095200
 40
2.100006
 50
0.000000
 51
179.999969
  0
ARC
  8
0
 10
343.297729
 20
-10.495193
 40
1.400017
 50
269.710236
 51
90.289757
  0
ARC
  8
0
 10
343.942169
 20
154.003311
 40
0.998506
 50
269.914185
 51
0.085806
  0
ARC
  8
0
 10
335.446228
 20
154.010345
 40
1.005570
 50
180.316467
 51
269.683533
  0
ARC
  8
0
 62
     4
 10
336.690674
 20
-11.279861
 40
2.049988
 50
0.000000
 51
179.999969
  0
CIRCLE
  8
0
 62
     4
 10
336.690674
 20
-11.925201
 40
0.250000
  0
CIRCLE
  8
0
 62
     4
 10
336.690674
 20
-11.025192
 40
0.250000
  0
CIRCLE
  8
0
 62
     4
 10
336.690674
 20
-11.475204
 40
1.299999
  0
CIRCLE
  8
0
 62
     4
 10
336.690674
 20
-11.925201
 40
0.450000
  0
CIRCLE
  8
0
 62
     4
 10
336.690674
 20
-11.025192
 40
0.450000
  0
ARC
  8
0
 62
     4
 10
330.690674
 20
-11.279861
 40
2.049988
 50
0.000000
 51
179.999969
  0
CIRCLE
  8
0
 62
     4
 10
330.690674
 20
-11.925201
 40
0.250000
  0
CIRCLE
  8
0
 62
     4
 10
330.690674
 20
-11.025192
 40
0.250000
  0
CIRCLE
  8
0
 62
     4
 10
330.690674
 20
-11.475204
 40
1.299999
  0
CIRCLE
  8
0
 62
     4
 10
330.690674
 20
-11.925201
 40
0.450000
  0
CIRCLE
  8
0
 62
     4
 10
330.690674
 20
-11.025192
 40
0.450000
  0
ARC
  8
0
 62
     4
 10
-343.400757
 20
-11.326859
 40
0.101668
 50
0.937359
 51
89.054131
  0
ARC
  8
0
 62
     4
 10
-343.404663
 20
-11.819611
 40
0.105735
 50
273.027679
 51
356.971405
  0
ARC
  8
0
 62
     4
 10
-345.301270
 20
-11.281097
 40
2.052194
 50
0.164655
 51
52.398060
  0
ARC
  8
0
 62
     4
 10
-345.308289
 20
-11.275467
 40
2.040789
 50
127.444473
 51
179.992416
  0
ARC
  8
0
 62
     4
 10
-347.200439
 20
-11.826538
 40
0.098673
 50
179.218063
 51
270.779816
  0
ARC
  8
0
 62
     4
 10
-347.204651
 20
-11.319641
 40
0.094606
 50
86.634285
 51
183.367676
  0
ARC
  8
0
 62
     4
 10
-349.400757
 20
-11.326859
 40
0.101668
 50
0.937359
 51
89.054131
  0
ARC
  8
0
 62
     4
 10
-349.404663
 20
-11.819611
 40
0.105735
 50
273.027679
 51
356.971405
  0
ARC
  8
0
 62
     4
 10
-351.301270
 20
-11.281097
 40
2.052194
 50
0.164655
 51
52.398060
  0
ARC
  8
0
 62
     4
 10
-351.308289
 20
-11.275467
 40
2.040789
 50
127.444473
 51
179.992416
  0
ARC
  8
0
 62
     4
 10
-353.200439
 20
-11.826538
 40
0.098673
 50
179.218063
 51
270.779816
  0
ARC
  8
0
 62
     4
 10
-353.204651
 20
-11.319641
 40
0.094606
 50
86.634285
 51
183.367676
  0
ARC
  8
0
 10
-350.054626
 20
154.010345
 40
1.005570
 50
270.316467
 51
359.683533
  0
ARC
  8
0
 10
-358.550568
 20
154.003311
 40
0.998506
 50
179.914200
 51
270.085815
  0
ARC
  8
0
 10
-357.906128
 20
-10.495193
 40
1.400017
 50
89.710243
 51
270.289764
  0
ARC
  8
0
 10
-345.299072
 20
-11.095200
 40
2.100006
 50
0.000000
 51
179.999969
  0
CIRCLE
  8
0
 10
-346.806152
 20
51.308838
 40
11.500000
  0
CIRCLE
  8
0
 62
     2
 10
-346.806152
 20
51.308838
 40
9.250000
  0
CIRCLE
  8
0
 10
-346.806152
 20
51.308838
 40
10.000000
  0
CIRCLE
  8
0
 62
     2
 10
-365.306152
 20
62.308838
 40
6.500000
  0
CIRCLE
  8
0
 10
-365.306152
 20
62.308838
 40
5.500000
  0
ARC
  8
0
 10
-351.301270
 20
-11.092682
 40
2.102205
 50
359.931244
 51
145.275726
  0
CIRCLE
  8
0
 10
-354.306152
 20
121.308838
 40
5.500000
  0
CIRCLE
  8
0
 62
     2
 10
-354.306152
 20
121.308838
 40
6.500000
  0
CIRCLE
  8
0
 10
-81.809082
 20
-3.691162
 40
3.323500
  0
CIRCLE
  8
0
 10
-241.799072
 20
-3.691162
 40
3.323500
  0
CIRCLE
  8
0
 10
-241.799072
 20
78.308853
 40
3.323500
  0
CIRCLE
  8
0
 10
-81.809082
 20
78.308853
 40
3.323500
  0
CIRCLE
  8
0
 62
     4
 10
-161.806137
 20
-3.687119
 40
4.000000
  0
ARC
  8
0
 62
     4
 10
-161.809082
 20
77.308853
 40
4.000000
 50
180.000000
 51
0.000000
  0
ARC
  8
0
 62
     4
 10
-161.809082
 20
79.308853
 40
4.000000
 50
0.000000
 51
180.000000
  0
CIRCLE
  8
0
 10
262.193604
 20
35.312881
 40
5.460770
  0
CIRCLE
  8
0
 10
262.193604
 20
35.312881
 40
6.500000
  0
CIRCLE
  8
0
 10
245.193604
 20
35.312881
 40
5.460770
  0
CIRCLE
  8
0
 10
245.193604
 20
35.312881
 40
6.500000
  0
CIRCLE
  8
0
 10
253.693604
 20
69.312881
 40
5.460770
  0
CIRCLE
  8
0
 10
253.693604
 20
69.312881
 40
6.500000
  0
CIRCLE
  8
0
 10
-268.806152
 20
35.312881
 40
5.460770
  0
CIRCLE
  8
0
 10
-268.806152
 20
35.312881
 40
6.500000
  0
CIRCLE
  8
0
 10
-285.806152
 20
35.312881
 40
5.460770
  0
CIRCLE
  8
0
 10
-285.806152
 20
35.312881
 40
6.500000
  0
CIRCLE
  8
0
 10
-277.306152
 20
69.312881
 40
5.460770
  0
CIRCLE
  8
0
 10
-277.306152
 20
69.312881
 40
6.500000
  0
ARC
  8
0
 10
-90.642548
 20
80.613174
 40
15.695679
 50
58.660389
 51
90.023811
  0
ARC
  8
0
 10
-232.975189
 20
80.611633
 40
15.697206
 50
89.977669
 51
121.337997
  0
ARC
  8
0
 10
-232.967728
 20
80.613739
 40
9.995110
 50
90.007782
 51
121.358414
  0
ARC
  8
0
 10
-90.640747
 20
80.612671
 40
9.996184
 50
58.643238
 51
90.047752
  0
ARC
  8
0
 10
-83.959076
 20
91.583847
 40
2.849491
 50
238.708694
 51
58.708561
  0
CIRCLE
  8
0
 10
280.193604
 20
6.312881
 40
4.500000
  0
CIRCLE
  8
0
 10
280.193604
 20
6.312881
 40
7.000000
  0
CIRCLE
  8
0
 10
280.193604
 20
144.312881
 40
4.500000
  0
CIRCLE
  8
0
 10
280.193604
 20
144.312881
 40
7.000000
  0
CIRCLE
  8
0
 10
-303.806122
 20
6.312881
 40
4.500000
  0
CIRCLE
  8
0
 10
-303.806122
 20
6.312881
 40
7.000000
  0
CIRCLE
  8
0
 10
-303.806122
 20
144.312881
 40
7.000000
  0
CIRCLE
  8
0
 10
-303.806122
 20
144.312881
 40
4.500000
  0
CIRCLE
  8
0
 10
253.693604
 20
69.312881
 40
6.500000
  0
CIRCLE
  8
0
 10
-277.306152
 20
69.312881
 40
6.500000
  0
CIRCLE
  8
0
 62
     2
 10
-81.806137
 20
-3.687119
 40
4.000000
  0
CIRCLE
  8
0
 62
     2
 10
-241.806137
 20
-3.687119
 40
4.000000
  0
CIRCLE
  8
0
 62
     2
 10
-81.806137
 20
78.312881
 40
4.000000
  0
CIRCLE
  8
0
 62
     2
 10
-241.806137
 20
78.312881
 40
4.000000
  0
ARC
  8
0
 10
-239.654083
 20
91.583847
 40
2.852094
 50
121.377228
 51
301.377228
  0
TEXT
  8
0
 10
-117.499718
 20
-234.419998
 40
6.300000
  1
（ｍｍ）
 50
0.000000
 41
0.833333
 51
0.000000
  7
STANDARD
  0
TEXT
  8
0
 10
-384.484375
 20
210.649994
 40
9.000000
  1
(WITH SENSOR SWITCH)
 50
0.000000
 41
1.052632
 51
0.000000
  7
STANDARD
  0
TEXT
  8
0
 10
-117.499718
 20
-246.419998
 40
6.300000
  1
1000
 50
0.000000
 41
1.052632
 51
0.000000
  7
STANDARD
  0
TEXT
  8
0
 10
-273.199707
 20
-234.419998
 40
6.300000
  1
STRETCH LIST
 50
0.000000
 41
1.052632
 51
0.000000
  7
STANDARD
  0
TEXT
  8
0
 10
-255.349716
 20
-256.420013
 40
6.300000
  1
200
 50
0.000000
 41
1.052632
 51
0.000000
  7
STANDARD
  0
TEXT
  8
0
 10
-283.349731
 20
-256.420013
 40
6.300000
  1
100
 50
0.000000
 41
1.052632
 51
0.000000
  7
STANDARD
  0
TEXT
  8
0
 10
-305.049713
 20
-256.420013
 40
6.300000
  1
0
 50
0.000000
 41
1.052632
 51
0.000000
  7
STANDARD
  0
TEXT
  8
0
 10
-255.349716
 20
-246.419998
 40
6.300000
  1
500
 50
0.000000
 41
1.052632
 51
0.000000
  7
STANDARD
  0
TEXT
  8
0
 10
-283.349731
 20
-246.419998
 40
6.300000
  1
400
 50
0.000000
 41
1.052632
 51
0.000000
  7
STANDARD
  0
TEXT
  8
0
 10
-311.349731
 20
-246.419998
 40
6.300000
  1
300
 50
0.000000
 41
1.052632
 51
0.000000
  7
STANDARD
  0
TEXT
  8
0
 10
-364.799713
 20
-246.419998
 40
6.300000
  1
STROKE
 50
0.000000
 41
1.052632
 51
0.000000
  7
STANDARD
  0
TEXT
  8
0
 10
-227.349716
 20
-246.419998
 40
6.300000
  1
600
 50
0.000000
 41
1.052632
 51
0.000000
  7
STANDARD
  0
TEXT
  8
0
 10
-227.349716
 20
-256.420013
 40
6.300000
  1
300
 50
0.000000
 41
1.052632
 51
0.000000
  7
STANDARD
  0
TEXT
  8
0
 10
-199.349716
 20
-246.419998
 40
6.300000
  1
700
 50
0.000000
 41
1.052632
 51
0.000000
  7
STANDARD
  0
TEXT
  8
0
 10
-199.349716
 20
-256.420013
 40
6.300000
  1
400
 50
0.000000
 41
1.052632
 51
0.000000
  7
STANDARD
  0
TEXT
  8
0
 10
-171.349716
 20
-246.419998
 40
6.300000
  1
800
 50
0.000000
 41
1.052632
 51
0.000000
  7
STANDARD
  0
TEXT
  8
0
 10
-171.349716
 20
-256.420013
 40
6.300000
  1
500
 50
0.000000
 41
1.052632
 51
0.000000
  7
STANDARD
  0
TEXT
  8
0
 10
-142.349716
 20
-246.419998
 40
6.300000
  1
900
 50
0.000000
 41
1.052632
 51
0.000000
  7
STANDARD
  0
TEXT
  8
0
 10
-142.349716
 20
-256.420013
 40
6.300000
  1
600
 50
0.000000
 41
1.052632
 51
0.000000
  7
STANDARD
  0
TEXT
  8
0
 10
-114.349716
 20
-256.420013
 40
6.300000
  1
700
 50
0.000000
 41
1.052632
 51
0.000000
  7
STANDARD
  0
TEXT
  8
0
 10
-367.949707
 20
-256.420013
 40
6.300000
  1
STRETCH
 50
0.000000
 41
1.052632
 51
0.000000
  7
STANDARD
  0
TEXT
  8
0
 62
     3
 10
-1.452006
 20
180.925781
 40
6.300000
  1
STRETCH LINE
 50
0.000000
 41
1.052632
 51
0.000000
  7
STANDARD
  0
TEXT
  8
0
 10
-392.285309
 20
256.649994
 40
9.000000
  1
RODLESS CYLINDER
 50
0.000000
 41
1.052632
 51
0.000000
  7
STANDARD
  0
TEXT
  8
0
 10
242.014633
 20
-274.500000
 40
12.500000
  1
KOGANEI CORP.
 50
0.000000
 41
1.052632
 51
0.000000
  7
STANDARD
  0
TEXT
  8
0
 10
282.764496
 20
256.649994
 40
9.000000
  1
Ｖｅｒ．　１．０
 50
0.000000
 41
0.833333
 51
0.000000
  7
STANDARD
  0
TEXT
  8
0
 10
-384.785309
 20
224.149994
 40
9.000000
  1
MODEL:ORS40*ST(300)
 50
0.000000
 41
1.052632
 51
0.000000
  7
STANDARD
  0
ENDSEC
  0
EOF
