  0
SECTION
  2
HEADER
  0
ENDSEC
  0
SECTION
  2
TABLES
  0
TABLE
  2
LTYPE
 70
     4
  0
LTYPE
  2
CONTINUOUS
 70
    64
  3
Solid line
 72
    65
 73
     0
 40
0.000000
  0
LTYPE
  2
DASHED
 70
    64
  3
__ __ __ __ __ __ __ __ __ __ __ __ __ __ __
 72
    65
 73
     2
 40
3.500000
 49
2.000000
 49
-1.500000
  0
LTYPE
  2
CENTER
 70
    64
  3
____ _ ____ _ ____ _ ____ _ ____ _ ____ _ ____
 72
    65
 73
     4
 40
17.500000
 49
13.000000
 49
-1.500000
 49
1.500000
 49
-1.500000
  0
LTYPE
  2
PHANTOM
 70
    64
  3
_____ _ _ _____ _ _ _____ _ _ _____ _ _ ____  
 72
    65
 73
     6
 40
15.500000
 49
8.000000
 49
-1.500000
 49
1.500000
 49
-1.500000
 49
1.500000
 49
-1.500000
  0
LTYPE
  2
DASHED1
 70
    64
  3
__ __ __ __ __ __ __ __ __ __ __ __ __ __ __
 72
    65
 73
     2
 40
1.500000
 49
1.000000
 49
-0.500000
  0
LTYPE
  2
DASHED2
 70
    64
  3
__ __ __ __ __ __ __ __ __ __ __ __ __ __ __
 72
    65
 73
     2
 40
3.500000
 49
2.500000
 49
-1.000000
  0
LTYPE
  2
DASHED3
 70
    64
  3
__ __ __ __ __ __ __ __ __ __ __ __ __ __ __
 72
    65
 73
     2
 40
6.000000
 49
4.000000
 49
-2.000000
  0
LTYPE
  2
DASHED4
 70
    64
  3
__ __ __ __ __ __ __ __ __ __ __ __ __ __ __
 72
    65
 73
     2
 40
12.000000
 49
10.000000
 49
-2.000000
  0
LTYPE
  2
DASHED5
 70
    64
  3
__ __ __ __ __ __ __ __ __ __ __ __ __ __ __
 72
    65
 73
     2
 40
17.000000
 49
15.000000
 49
-2.000000
  0
LTYPE
  2
DASHED6
 70
    64
  3
__ __ __ __ __ __ __ __ __ __ __ __ __ __ __
 72
    65
 73
     2
 40
29.000000
 49
27.000000
 49
-2.000000
  0
LTYPE
  2
PHANTOM1
 70
    64
  3
_____ _ _ _____ _ _ _____ _ _ _____ _ _ ____  
 72
    65
 73
     6
 40
31.000000
 49
25.000000
 49
-1.500000
 49
1.000000
 49
-1.000000
 49
1.000000
 49
-1.500000
  0
LTYPE
  2
PHANTOM2
 70
    64
  3
_____ _ _ _____ _ _ _____ _ _ _____ _ _ ____  
 72
    65
 73
     6
 40
36.000000
 49
27.000000
 49
-1.500000
 49
2.500000
 49
-1.000000
 49
2.500000
 49
-1.500000
  0
LTYPE
  2
PHANTOM3
 70
    64
  3
_____ _ _ _____ _ _ _____ _ _ _____ _ _ ____  
 72
    65
 73
     6
 40
78.000000
 49
64.000000
 49
-2.000000
 49
4.000000
 49
-2.000000
 49
4.000000
 49
-2.000000
  0
LTYPE
  2
CENTER1
 70
    64
  3
____ _ ____ _ ____ _ ____ _ ____ _ ____ _ ____
 72
    65
 73
     4
 40
19.000000
 49
14.000000
 49
-1.000000
 49
3.000000
 49
-1.000000
  0
LTYPE
  2
CENTER2
 70
    64
  3
____ _ ____ _ ____ _ ____ _ ____ _ ____ _ ____
 72
    65
 73
     4
 40
28.500000
 49
25.000000
 49
-1.000000
 49
1.500000
 49
-1.000000
  0
LTYPE
  2
CENTER3
 70
    64
  3
____ _ ____ _ ____ _ ____ _ ____ _ ____ _ ____
 72
    65
 73
     4
 40
31.500000
 49
27.000000
 49
-1.000000
 49
2.500000
 49
-1.000000
  0
LTYPE
  2
CENTER4
 70
    64
  3
____ _ ____ _ ____ _ ____ _ ____ _ ____ _ ____
 72
    65
 73
     4
 40
50.000000
 49
45.000000
 49
-1.000000
 49
3.000000
 49
-1.000000
  0
LTYPE
  2
CENTER5
 70
    64
  3
____ _ ____ _ ____ _ ____ _ ____ _ ____ _ ____
 72
    65
 73
     4
 40
100.000000
 49
92.000000
 49
-2.000000
 49
4.000000
 49
-2.000000
  0
LTYPE
  2
SBK1
 70
    64
  3
______ _ _ _ ______ _ _ _ ______ _ _ _ _____  
 72
    65
 73
     8
 40
60.500000
 49
45.000000
 49
-2.000000
 49
2.500000
 49
-2.000000
 49
2.500000
 49
-2.000000
 49
2.500000
 49
-2.000000
  0
LTYPE
  2
SBK2
 70
    64
  3
______ _ _ _ ______ _ _ _ ______ _ _ _ _____  
 72
    65
 73
     8
 40
84.000000
 49
64.000000
 49
-2.000000
 49
4.000000
 49
-2.000000
 49
4.000000
 49
-2.000000
 49
4.000000
 49
-2.000000
  0
LTYPE
  2
STCH
 70
    64
  3
__ __ __ __ __ __ __ __ __ __ __ __ __ __ __
 72
    65
 73
     2
 40
3.000000
 49
1.000000
 49
-2.000000
  0
LTYPE
  2
MTCH
 70
    64
  3
_____ _ _ _____ _ _ _____ _ _ _____ _ _ ____  
 72
    65
 73
     6
 40
80.000000
 49
66.000000
 49
-2.000000
 49
4.000000
 49
-2.000000
 49
4.000000
 49
-2.000000
  0
ENDTAB
  0
TABLE
  2
LAYER
 70
     1
  0
LAYER
  2
0
 70
     0
 62
     7
  6
CONTINUOUS
  0
ENDTAB
  0
TABLE
  2
STYLE
 70
     1
  0
STYLE
  2
STANDARD
 70
     0
 40
0.000000
 41
1.000000
 50
0.000000
 71
     0
 42
0.200000
  3
txt
  4
BIGFONT
  0
ENDTAB
  0
TABLE
  2
VIEW
 70
     0
  0
ENDTAB
  0
ENDSEC
  0
SECTION
  2
BLOCKS
  0
ENDSEC
  0
SECTION
  2
ENTITIES
  0
LINE
  8
0
  6
DASHED
 62
     1
 10
192.495071
 20
-101.105072
 11
192.495071
 21
-106.105072
  0
LINE
  8
0
  6
DASHED
 62
     1
 10
195.895081
 20
-101.105072
 11
195.895081
 21
-106.105072
  0
LINE
  8
0
  6
CENTER
 62
     1
 10
194.195068
 20
-98.939751
 11
194.195068
 21
-108.490089
  0
LINE
  8
0
 62
     4
 10
197.695068
 20
-106.105072
 11
190.695068
 21
-106.105072
  0
LINE
  8
0
 62
     4
 10
197.695084
 20
-101.105072
 11
190.995071
 21
-101.105072
  0
LINE
  8
0
 62
     4
 10
190.695068
 20
-101.405075
 11
190.695068
 21
-106.105072
  0
LINE
  8
0
 62
     4
 10
237.695068
 20
-106.105072
 11
244.695068
 21
-106.105072
  0
LINE
  8
0
  6
DASHED
 62
     1
 10
239.495056
 20
-101.105072
 11
239.495056
 21
-106.105072
  0
LINE
  8
0
  6
DASHED
 62
     1
 10
242.895065
 20
-101.105072
 11
242.895065
 21
-106.105072
  0
LINE
  8
0
  6
CENTER
 62
     1
 10
241.195068
 20
-98.939751
 11
241.195068
 21
-108.490089
  0
LINE
  8
0
 62
     4
 10
237.695068
 20
-101.105072
 11
244.395065
 21
-101.105072
  0
LINE
  8
0
 62
     4
 10
244.695068
 20
-101.405075
 11
244.695068
 21
-106.105072
  0
LINE
  8
0
  6
CENTER
 62
     1
 10
115.695068
 20
-98.575073
 11
115.695068
 21
-108.855072
  0
LINE
  8
0
  6
CENTER
 62
     1
 10
101.695068
 20
-98.575073
 11
101.695068
 21
-108.490089
  0
LINE
  8
0
  6
DASHED
 62
     1
 10
99.995071
 20
-101.105072
 11
99.995071
 21
-106.105072
  0
LINE
  8
0
  6
CENTER
 62
     1
 10
129.695068
 20
-98.575073
 11
129.695068
 21
-108.490089
  0
LINE
  8
0
  6
DASHED
 62
     1
 10
131.395065
 20
-101.105072
 11
131.395065
 21
-106.105072
  0
LINE
  8
0
  6
DASHED
 62
     1
 10
127.995071
 20
-101.105072
 11
127.995071
 21
-106.105072
  0
LINE
  8
0
 62
     4
 10
95.695068
 20
-101.105072
 11
135.695068
 21
-101.105072
  0
LINE
  8
0
 62
     4
 10
95.695068
 20
-101.105072
 11
95.695068
 21
-106.105072
  0
LINE
  8
0
 62
     4
 10
135.695068
 20
-101.105072
 11
135.695068
 21
-106.105072
  0
LINE
  8
0
  6
DASHED
 62
     1
 10
103.395065
 20
-101.105072
 11
103.395065
 21
-106.105072
  0
LINE
  8
0
  6
CENTER
 62
     1
 10
218.941193
 20
72.541901
 11
252.837112
 21
72.541901
  0
LINE
  8
0
 62
     4
 10
228.077118
 20
95.541901
 11
228.077118
 21
90.786896
  0
LINE
  8
0
  6
CENTER
 62
     1
 10
240.077118
 20
49.276367
 11
240.077118
 21
95.593079
  0
LINE
  8
0
 62
     4
 10
222.077118
 20
95.541901
 11
228.077118
 21
95.541901
  0
LINE
  8
0
 62
     4
 10
222.077118
 20
49.541901
 11
228.077118
 21
49.541901
  0
LINE
  8
0
 62
     4
 10
222.077118
 20
95.541901
 11
222.077118
 21
49.541901
  0
LINE
  8
0
 10
233.077118
 20
52.541901
 11
251.077118
 21
52.541901
  0
LINE
  8
0
 10
251.077118
 20
71.041901
 11
251.077118
 21
52.541901
  0
LINE
  8
0
 10
250.077118
 20
74.041901
 11
250.077118
 21
71.041901
  0
LINE
  8
0
 10
250.077118
 20
71.041901
 11
251.077118
 21
71.041901
  0
LINE
  8
0
 10
251.077118
 20
92.541901
 11
251.077118
 21
74.041901
  0
LINE
  8
0
 10
250.077118
 20
74.041901
 11
251.077118
 21
74.041901
  0
LINE
  8
0
 62
     4
 10
234.577133
 20
57.461914
 11
233.577118
 21
56.881912
  0
LINE
  8
0
 62
     4
 10
234.577118
 20
57.461899
 11
234.577118
 21
58.611900
  0
LINE
  8
0
 62
     4
 10
234.577133
 20
58.611900
 11
233.577118
 21
59.191906
  0
LINE
  8
0
 62
     4
 10
233.577133
 20
59.191906
 11
232.577118
 21
58.611904
  0
LINE
  8
0
 62
     4
 10
232.577118
 20
57.461899
 11
232.577118
 21
58.611900
  0
LINE
  8
0
 62
     4
 10
233.577118
 20
56.881905
 11
232.577118
 21
57.461910
  0
LINE
  8
0
 62
     4
 10
248.577133
 20
86.961906
 11
247.577133
 21
86.381897
  0
LINE
  8
0
 62
     4
 10
248.577118
 20
86.961899
 11
248.577118
 21
88.111900
  0
LINE
  8
0
 62
     4
 10
248.577133
 20
88.111900
 11
247.577118
 21
88.691902
  0
LINE
  8
0
 62
     4
 10
247.577118
 20
88.691902
 11
246.577133
 21
88.111908
  0
LINE
  8
0
 62
     4
 10
246.577118
 20
86.961899
 11
246.577118
 21
88.111900
  0
LINE
  8
0
 62
     4
 10
247.577133
 20
86.381905
 11
246.577118
 21
86.961906
  0
LINE
  8
0
 62
     4
 10
234.577118
 20
86.461899
 11
233.577133
 21
85.881905
  0
LINE
  8
0
 62
     4
 10
234.577118
 20
86.461899
 11
234.577118
 21
87.611900
  0
LINE
  8
0
 62
     4
 10
234.577133
 20
87.611893
 11
233.577118
 21
88.191895
  0
LINE
  8
0
 62
     4
 10
233.577118
 20
88.191902
 11
232.577133
 21
87.611900
  0
LINE
  8
0
 62
     4
 10
232.577118
 20
86.461899
 11
232.577118
 21
87.611900
  0
LINE
  8
0
 62
     4
 10
233.577118
 20
85.881905
 11
232.577133
 21
86.461899
  0
LINE
  8
0
 10
238.077118
 20
87.341904
 11
242.077118
 21
87.341904
  0
LINE
  8
0
 10
228.327118
 20
70.541901
 11
228.327118
 21
66.841904
  0
LINE
  8
0
 10
225.077118
 20
70.541901
 11
228.327118
 21
70.541901
  0
LINE
  8
0
 10
225.077118
 20
74.541901
 11
228.327118
 21
74.541901
  0
LINE
  8
0
 10
225.077118
 20
84.541901
 11
225.077118
 21
60.541901
  0
LINE
  8
0
 10
228.627121
 20
66.541901
 11
237.527115
 21
66.541901
  0
LINE
  8
0
 10
228.327118
 20
78.241898
 11
228.327118
 21
74.541901
  0
LINE
  8
0
 10
228.627121
 20
78.541901
 11
237.527115
 21
78.541901
  0
LINE
  8
0
 10
237.827118
 20
78.241898
 11
237.827118
 21
66.841904
  0
LINE
  8
0
  6
CENTER
 62
     2
 10
233.577118
 20
91.541901
 11
233.577118
 21
82.541901
  0
LINE
  8
0
  6
CENTER
 62
     2
 10
229.077118
 20
87.041901
 11
238.077118
 21
87.041901
  0
LINE
  8
0
 10
240.177124
 20
92.541901
 11
251.077118
 21
92.541901
  0
LINE
  8
0
 10
240.177124
 20
92.541901
 11
240.177124
 21
92.041901
  0
LINE
  8
0
 10
240.677124
 20
91.541893
 11
240.177124
 21
92.041893
  0
LINE
  8
0
 10
242.177124
 20
91.541901
 11
240.677124
 21
91.541901
  0
LINE
  8
0
 10
242.177124
 20
88.741898
 11
240.297119
 21
88.741898
  0
LINE
  8
0
 10
236.477112
 20
91.541901
 11
236.477112
 21
89.711899
  0
LINE
  8
0
 10
236.477127
 20
91.541893
 11
236.977127
 21
92.041893
  0
LINE
  8
0
 10
236.977112
 20
92.541901
 11
236.977112
 21
92.041901
  0
LINE
  8
0
 10
236.077118
 20
92.541901
 11
236.077118
 21
89.341888
  0
LINE
  8
0
 10
244.077118
 20
92.541901
 11
244.077118
 21
89.341888
  0
LINE
  8
0
 10
250.137115
 20
89.541901
 11
251.077118
 21
89.541901
  0
LINE
  8
0
 10
250.137115
 20
85.541901
 11
251.077118
 21
85.541901
  0
LINE
  8
0
  6
CENTER
 62
     2
 10
243.077118
 20
87.541901
 11
252.077118
 21
87.541901
  0
LINE
  8
0
  6
CENTER
 62
     2
 10
247.577118
 20
83.041901
 11
247.577118
 21
92.041901
  0
LINE
  8
0
  6
CENTER
 62
     2
 10
229.077118
 20
58.041901
 11
238.077118
 21
58.041901
  0
LINE
  8
0
  6
CENTER
 62
     2
 10
233.577118
 20
62.541901
 11
233.577118
 21
53.541901
  0
LINE
  8
0
 10
233.077118
 20
92.541901
 11
236.977112
 21
92.541901
  0
LINE
  8
0
 62
     4
 10
228.077118
 20
54.296906
 11
228.077118
 21
49.541901
  0
LINE
  8
0
  6
CENTER
 62
     2
 10
172.077118
 20
59.354130
 11
172.077118
 21
65.987839
  0
LINE
  8
0
  6
CENTER
 62
     2
 10
172.077118
 20
85.571899
 11
172.077118
 21
79.481903
  0
LINE
  8
0
  6
CENTER
 62
     2
 10
175.783035
 20
82.541901
 11
168.289307
 21
82.541901
  0
LINE
  8
0
  6
CENTER
 62
     2
 10
175.791962
 20
62.541901
 11
168.249832
 21
62.541901
  0
LINE
  8
0
  6
CENTER
 62
     2
 10
132.077118
 20
59.511902
 11
132.077118
 21
65.591904
  0
LINE
  8
0
  6
CENTER
 62
     2
 10
128.729782
 20
62.541901
 11
135.550400
 21
62.541901
  0
LINE
  8
0
  6
CENTER
 62
     2
 10
128.729782
 20
82.541901
 11
135.550400
 21
82.541901
  0
LINE
  8
0
  6
CENTER
 62
     2
 10
132.077118
 20
85.571899
 11
132.077118
 21
79.481903
  0
LINE
  8
0
 10
123.577118
 20
66.541901
 11
180.577118
 21
66.541901
  0
LINE
  8
0
 10
123.577118
 20
78.541901
 11
180.577118
 21
78.541901
  0
LINE
  8
0
 10
181.577118
 20
77.541901
 11
181.577118
 21
67.541901
  0
LINE
  8
0
 10
122.577118
 20
77.541901
 11
122.577118
 21
67.541901
  0
LINE
  8
0
 10
124.077118
 20
57.541901
 11
180.077118
 21
57.541901
  0
LINE
  8
0
 10
124.077118
 20
87.541901
 11
180.077118
 21
87.541901
  0
LINE
  8
0
 10
111.077118
 20
55.041901
 11
114.577118
 21
55.041901
  0
LINE
  8
0
 10
111.077118
 20
90.041901
 11
114.577118
 21
90.041901
  0
LINE
  8
0
 62
     4
 10
189.577118
 20
60.071899
 11
189.577118
 21
52.541901
  0
LINE
  8
0
 62
     4
 10
189.577118
 20
78.071899
 11
189.577118
 21
67.001900
  0
LINE
  8
0
 62
     4
 10
189.577118
 20
92.541901
 11
189.577118
 21
85.001900
  0
LINE
  8
0
 62
     4
 10
114.577118
 20
60.071899
 11
114.577118
 21
52.541901
  0
LINE
  8
0
 62
     4
 10
114.577118
 20
78.071899
 11
114.577118
 21
67.001900
  0
LINE
  8
0
 62
     4
 10
114.577118
 20
92.541901
 11
114.577118
 21
85.001900
  0
LINE
  8
0
 62
     4
 10
186.577118
 20
49.541901
 11
117.577118
 21
49.541901
  0
LINE
  8
0
 62
     4
 10
186.577118
 20
95.541901
 11
117.577118
 21
95.541901
  0
LINE
  8
0
  6
CENTER
 62
     1
 10
93.092133
 20
72.541901
 11
205.382187
 21
72.541901
  0
LINE
  8
0
 10
185.077118
 20
64.541901
 11
185.077118
 21
62.541901
  0
LINE
  8
0
 10
185.577118
 20
64.541901
 11
185.077118
 21
64.541901
  0
LINE
  8
0
 10
185.077118
 20
80.541901
 11
185.077118
 21
82.541901
  0
LINE
  8
0
 10
185.577118
 20
80.541901
 11
185.077118
 21
80.541901
  0
LINE
  8
0
 62
     4
 10
185.577118
 20
83.541901
 11
185.577118
 21
61.541901
  0
LINE
  8
0
 10
118.577118
 20
64.541901
 11
119.077118
 21
64.541901
  0
LINE
  8
0
 10
119.077118
 20
64.541901
 11
119.077118
 21
62.541901
  0
LINE
  8
0
 10
119.077118
 20
80.541901
 11
119.077118
 21
82.541901
  0
LINE
  8
0
 10
118.577118
 20
80.541901
 11
118.769638
 21
80.541901
  0
LINE
  8
0
 10
118.577118
 20
80.541901
 11
118.577118
 21
64.541901
  0
LINE
  8
0
 10
189.577118
 20
68.041901
 11
203.697342
 21
68.041901
  0
LINE
  8
0
 10
189.577118
 20
77.041901
 11
202.110397
 21
77.041901
  0
LINE
  8
0
 10
97.077118
 20
52.541901
 11
114.577118
 21
52.541901
  0
LINE
  8
0
 10
97.077118
 20
92.541901
 11
114.577118
 21
92.541901
  0
LINE
  8
0
 10
114.577118
 20
77.041901
 11
111.077118
 21
77.041901
  0
LINE
  8
0
 62
     4
 10
123.277115
 20
56.541901
 11
180.577118
 21
56.541901
  0
LINE
  8
0
 62
     4
 10
118.277115
 20
80.541901
 11
118.577118
 21
80.541901
  0
LINE
  8
0
  6
CENTER
 62
     1
 10
116.077118
 20
91.541901
 11
122.077118
 21
91.541901
  0
LINE
  8
0
 62
     4
 10
118.277115
 20
83.541901
 11
118.277115
 21
80.541901
  0
LINE
  8
0
 10
114.577118
 20
68.041901
 11
111.077118
 21
68.041901
  0
LINE
  8
0
 10
189.577118
 20
90.041901
 11
199.818146
 21
90.041901
  0
LINE
  8
0
 10
189.577118
 20
52.541901
 11
206.430420
 21
52.541901
  0
LINE
  8
0
 62
     4
 10
118.277115
 20
64.541901
 11
118.277115
 21
61.541901
  0
LINE
  8
0
 10
189.577118
 20
55.041901
 11
205.989594
 21
55.041901
  0
LINE
  8
0
 62
     4
 10
118.277115
 20
64.541901
 11
118.577118
 21
64.541901
  0
LINE
  8
0
 62
     4
 10
123.277115
 20
88.541901
 11
180.577118
 21
88.541901
  0
LINE
  8
0
 10
189.577118
 20
92.541901
 11
199.377335
 21
92.541901
  0
LINE
  8
0
  6
CENTER
 62
     1
 10
119.077118
 20
94.541901
 11
119.077118
 21
88.541901
  0
LINE
  8
0
  6
CENTER
 62
     1
 10
116.077118
 20
53.541901
 11
122.077118
 21
53.541901
  0
LINE
  8
0
  6
CENTER
 62
     1
 10
119.077118
 20
50.541901
 11
119.077118
 21
56.541901
  0
LINE
  8
0
  6
CENTER
 62
     1
 10
185.077118
 20
94.541901
 11
185.077118
 21
88.541901
  0
LINE
  8
0
  6
CENTER
 62
     1
 10
188.069061
 20
91.541901
 11
182.077118
 21
91.541901
  0
LINE
  8
0
  6
CENTER
 62
     1
 10
188.069061
 20
53.541901
 11
182.077118
 21
53.541901
  0
LINE
  8
0
  6
CENTER
 62
     1
 10
185.077118
 20
50.541901
 11
185.077118
 21
56.541901
  0
LINE
  8
0
 10
96.077118
 20
91.541901
 11
96.077118
 21
53.541901
  0
LINE
  8
0
 10
96.077118
 20
70.541901
 11
111.077118
 21
70.541901
  0
LINE
  8
0
 10
96.077118
 20
74.541901
 11
111.077118
 21
74.541901
  0
LINE
  8
0
 10
111.077118
 20
60.541901
 11
111.077118
 21
52.541901
  0
LINE
  8
0
 10
111.077118
 20
78.541901
 11
111.077118
 21
66.541901
  0
LINE
  8
0
  6
CENTER
 62
     2
 10
102.577118
 20
63.541901
 11
111.577118
 21
63.541901
  0
LINE
  8
0
  6
CENTER
 62
     2
 10
107.077118
 20
59.041901
 11
107.077118
 21
68.041901
  0
LINE
  8
0
  6
CENTER
 62
     2
 10
107.077118
 20
86.041901
 11
107.077118
 21
77.041901
  0
LINE
  8
0
  6
CENTER
 62
     2
 10
102.577118
 20
81.541901
 11
111.577118
 21
81.541901
  0
LINE
  8
0
 10
111.077118
 20
92.541901
 11
111.077118
 21
84.541901
  0
LINE
  8
0
 10
118.769638
 20
80.541901
 11
119.077118
 21
80.541901
  0
LINE
  8
0
  6
PHANTOM
 62
     3
 10
207.555542
 20
46.160938
 11
198.391876
 21
98.130646
  0
LINE
  8
0
  6
PHANTOM
 62
     3
 10
-130.287338
 20
-83.355896
 11
-130.287338
 21
-13.321060
  0
LINE
  8
0
 10
-133.356750
 20
-49.279556
 11
-106.356750
 21
-49.279556
  0
LINE
  8
0
 10
-133.356750
 20
-39.279556
 11
-106.356750
 21
-39.279556
  0
LINE
  8
0
  6
CENTER
 62
     1
 10
-167.356750
 20
-20.279556
 11
-167.356750
 21
-71.184708
  0
LINE
  8
0
 10
-133.856750
 20
-49.279556
 11
-133.856750
 21
-52.279556
  0
LINE
  8
0
 62
     4
 10
-133.356750
 20
-39.279556
 11
-133.356750
 21
-49.279556
  0
LINE
  8
0
  6
CENTER
 62
     1
 10
-176.856750
 20
-54.279556
 11
-193.465927
 21
-54.279556
  0
LINE
  8
0
  6
CENTER
 62
     1
 10
-176.856750
 20
-34.279556
 11
-193.465927
 21
-34.279556
  0
LINE
  8
0
  6
CENTER
 62
     1
 10
-157.856750
 20
-34.279556
 11
-141.114319
 21
-34.279556
  0
LINE
  8
0
 62
     4
 10
-137.356750
 20
-59.279556
 11
-197.356750
 21
-59.279556
  0
LINE
  8
0
 62
     4
 10
-137.356750
 20
-29.279556
 11
-197.356750
 21
-29.279556
  0
LINE
  8
0
 10
-203.356750
 20
-64.279556
 11
-106.356750
 21
-64.279556
  0
LINE
  8
0
 10
-203.356750
 20
-24.279556
 11
-106.356750
 21
-24.279556
  0
LINE
  8
0
 10
-200.856750
 20
-36.279556
 11
-200.856750
 21
-52.279556
  0
LINE
  8
0
 10
-200.856750
 20
-36.279556
 11
-200.356750
 21
-36.279556
  0
LINE
  8
0
 10
-200.356750
 20
-36.279556
 11
-200.356750
 21
-34.279556
  0
LINE
  8
0
 10
-200.356750
 20
-52.279556
 11
-200.356750
 21
-54.279556
  0
LINE
  8
0
 10
-200.856750
 20
-52.279556
 11
-200.356750
 21
-52.279556
  0
LINE
  8
0
 10
-133.856750
 20
-36.279556
 11
-133.856750
 21
-39.279556
  0
LINE
  8
0
 10
-133.856750
 20
-36.279556
 11
-134.356750
 21
-36.279556
  0
LINE
  8
0
 10
-134.356750
 20
-36.279556
 11
-134.356750
 21
-34.279556
  0
LINE
  8
0
 10
-133.856750
 20
-52.279556
 11
-134.356750
 21
-52.279556
  0
LINE
  8
0
 10
-134.356750
 20
-52.279556
 11
-134.356750
 21
-54.279556
  0
LINE
  8
0
 10
-115.856750
 20
-24.279556
 11
-115.856750
 21
-26.779556
  0
LINE
  8
0
 10
-115.856750
 20
-64.279556
 11
-115.856750
 21
-61.779556
  0
LINE
  8
0
 62
     4
 10
-86.356750
 20
-25.279556
 11
-86.356750
 21
-63.279556
  0
LINE
  8
0
  6
CENTER
 62
     1
 10
-154.356750
 20
-54.279556
 11
-141.114319
 21
-54.279556
  0
LINE
  8
0
  6
CENTER
 62
     1
 10
-147.356750
 20
-60.634155
 11
-147.356750
 21
-48.184692
  0
LINE
  8
0
 10
-203.356750
 20
-26.779556
 11
-106.356750
 21
-26.779556
  0
LINE
  8
0
 10
-203.356750
 20
-61.779556
 11
-106.356750
 21
-61.779556
  0
LINE
  8
0
 10
-107.856758
 20
-38.029568
 11
-106.356750
 21
-38.299572
  0
LINE
  8
0
 10
-107.856750
 20
-35.779556
 11
-107.856750
 21
-38.029556
  0
LINE
  8
0
 10
-107.856750
 20
-50.529552
 11
-106.356766
 21
-50.269558
  0
LINE
  8
0
 10
-107.856750
 20
-52.779556
 11
-107.856750
 21
-50.529556
  0
LINE
  8
0
 62
     4
 10
-106.356750
 20
-17.279556
 11
-106.356750
 21
-71.279556
  0
LINE
  8
0
 62
     4
 10
-118.856750
 20
-42.779556
 11
-118.856750
 21
-45.779556
  0
LINE
  8
0
 62
     4
 10
-118.856750
 20
-45.779556
 11
-108.856750
 21
-45.779556
  0
LINE
  8
0
 62
     4
 10
-118.856750
 20
-42.779556
 11
-108.856750
 21
-42.779556
  0
LINE
  8
0
  6
DASHED
 62
     1
 10
-106.356750
 20
-49.279556
 11
-86.356750
 21
-49.279556
  0
LINE
  8
0
 62
     4
 10
-83.356750
 20
-49.279556
 11
-58.856750
 21
-49.279556
  0
LINE
  8
0
  6
DASHED
 62
     1
 10
-106.356750
 20
-48.779556
 11
-86.356750
 21
-48.779556
  0
LINE
  8
0
 62
     4
 10
-108.856750
 20
-48.779556
 11
-106.356750
 21
-48.779556
  0
LINE
  8
0
 62
     1
 10
-83.356750
 20
-48.779556
 11
-58.856750
 21
-48.779556
  0
LINE
  8
0
 62
     4
 10
-83.356750
 20
-39.279556
 11
-58.856750
 21
-39.279556
  0
LINE
  8
0
  6
DASHED
 62
     1
 10
-106.356750
 20
-39.279556
 11
-86.356750
 21
-39.279556
  0
LINE
  8
0
  6
DASHED
 62
     1
 10
-106.356750
 20
-39.779556
 11
-86.356750
 21
-39.779556
  0
LINE
  8
0
 62
     4
 10
-108.856750
 20
-39.779556
 11
-106.356750
 21
-39.779556
  0
LINE
  8
0
 62
     1
 10
-83.356750
 20
-39.779556
 11
-58.856750
 21
-39.779556
  0
LINE
  8
0
 10
-106.356750
 20
-35.779556
 11
-107.856750
 21
-35.779556
  0
LINE
  8
0
 10
-106.356750
 20
-52.779556
 11
-107.856750
 21
-52.779556
  0
LINE
  8
0
  6
DASHED
 62
     1
 10
-105.856750
 20
-39.279556
 11
-105.856750
 21
-49.279556
  0
LINE
  8
0
 62
     4
 10
-58.856750
 20
-39.279556
 11
-58.856750
 21
-49.279556
  0
LINE
  8
0
 62
     4
 10
-86.356750
 20
-25.279556
 11
-86.356750
 21
-17.279556
  0
LINE
  8
0
 62
     4
 10
-86.356750
 20
-71.279556
 11
-86.356750
 21
-63.279556
  0
LINE
  8
0
 62
     4
 10
-128.356750
 20
-23.279556
 11
-106.356750
 21
-23.279556
  0
LINE
  8
0
  6
CENTER
 62
     1
 10
-128.356750
 20
-20.279556
 11
-112.464508
 21
-20.279556
  0
LINE
  8
0
  6
CENTER
 62
     1
 10
-116.356750
 20
-16.582214
 11
-116.356750
 21
-23.604996
  0
LINE
  8
0
  6
CENTER
 62
     1
 10
-124.356750
 20
-16.582214
 11
-124.356750
 21
-23.604996
  0
LINE
  8
0
 62
     4
 10
-128.356750
 20
-17.279556
 11
-128.356750
 21
-23.279556
  0
LINE
  8
0
 62
     4
 10
-128.356750
 20
-65.279556
 11
-106.356750
 21
-65.279556
  0
LINE
  8
0
 62
     4
 10
-83.356750
 20
-37.779556
 11
-83.356750
 21
-50.779556
  0
LINE
  8
0
 62
     4
 10
-137.356750
 20
-29.279556
 11
-137.356750
 21
-59.279556
  0
LINE
  8
0
 62
     4
 10
-137.356750
 20
-39.279556
 11
-133.356750
 21
-39.279556
  0
LINE
  8
0
 62
     4
 10
-137.356750
 20
-49.279556
 11
-133.356750
 21
-49.279556
  0
LINE
  8
0
 62
     4
 10
-197.356750
 20
-29.279556
 11
-197.356750
 21
-59.279556
  0
LINE
  8
0
  6
CENTER
 62
     1
 10
-157.856750
 20
-54.279556
 11
-151.856750
 21
-54.279556
  0
LINE
  8
0
  6
CENTER
 62
     1
 10
-154.856750
 20
-57.279556
 11
-154.856750
 21
-51.279556
  0
LINE
  8
0
 62
     4
 10
-147.356750
 20
-52.549553
 11
-148.856750
 21
-53.419559
  0
LINE
  8
0
 62
     4
 10
-148.856750
 20
-53.419556
 11
-148.856750
 21
-55.149555
  0
LINE
  8
0
 62
     4
 10
-147.356750
 20
-56.019562
 11
-148.856750
 21
-55.149567
  0
LINE
  8
0
 62
     4
 10
-145.856766
 20
-55.149551
 11
-147.356766
 21
-56.019550
  0
LINE
  8
0
 62
     4
 10
-145.856750
 20
-53.419556
 11
-145.856750
 21
-55.149555
  0
LINE
  8
0
 62
     4
 10
-147.356766
 20
-52.549557
 11
-145.856766
 21
-53.419556
  0
LINE
  8
0
  6
CENTER
 62
     1
 10
-147.356750
 20
-28.180435
 11
-147.356750
 21
-39.778645
  0
LINE
  8
0
  6
CENTER
 62
     1
 10
-154.856750
 20
-31.279556
 11
-154.856750
 21
-37.279556
  0
LINE
  8
0
 62
     4
 10
-147.356750
 20
-36.019562
 11
-148.856750
 21
-35.149563
  0
LINE
  8
0
 62
     4
 10
-148.856750
 20
-35.149559
 11
-148.856750
 21
-33.419556
  0
LINE
  8
0
 62
     4
 10
-147.356766
 20
-32.549553
 11
-148.856750
 21
-33.419552
  0
LINE
  8
0
 62
     4
 10
-145.856766
 20
-33.419548
 11
-147.356766
 21
-32.549549
  0
LINE
  8
0
 62
     4
 10
-145.856750
 20
-35.149559
 11
-145.856750
 21
-33.419556
  0
LINE
  8
0
 62
     4
 10
-147.356766
 20
-36.019558
 11
-145.856766
 21
-35.149563
  0
LINE
  8
0
 62
     4
 10
-187.356750
 20
-36.019558
 11
-185.856750
 21
-35.149559
  0
LINE
  8
0
  6
CENTER
 62
     1
 10
-179.856750
 20
-31.279556
 11
-179.856750
 21
-37.279556
  0
LINE
  8
0
  6
CENTER
 62
     1
 10
-187.356750
 20
-60.634155
 11
-187.356750
 21
-48.184692
  0
LINE
  8
0
  6
CENTER
 62
     1
 10
-187.356750
 20
-27.861221
 11
-187.356750
 21
-39.778645
  0
LINE
  8
0
  6
CENTER
 62
     1
 10
-179.856750
 20
-57.279556
 11
-179.856750
 21
-51.279556
  0
LINE
  8
0
 62
     4
 10
-187.356766
 20
-32.549561
 11
-185.856766
 21
-33.419559
  0
LINE
  8
0
 62
     4
 10
-187.356766
 20
-52.549553
 11
-185.856750
 21
-53.419556
  0
LINE
  8
0
 62
     4
 10
-185.856750
 20
-35.149559
 11
-185.856750
 21
-33.419556
  0
LINE
  8
0
 62
     4
 10
-185.856750
 20
-53.419556
 11
-185.856750
 21
-55.149555
  0
LINE
  8
0
 62
     4
 10
-187.356735
 20
-56.019558
 11
-185.856766
 21
-55.149559
  0
LINE
  8
0
 62
     4
 10
-188.856766
 20
-55.149551
 11
-187.356766
 21
-56.019550
  0
LINE
  8
0
 62
     4
 10
-188.856750
 20
-53.419556
 11
-188.856750
 21
-55.149555
  0
LINE
  8
0
 62
     4
 10
-187.356750
 20
-52.549553
 11
-188.856766
 21
-53.419559
  0
LINE
  8
0
 62
     4
 10
-188.856766
 20
-33.419556
 11
-187.356750
 21
-32.549549
  0
LINE
  8
0
 62
     4
 10
-188.856750
 20
-35.149559
 11
-188.856750
 21
-33.419556
  0
LINE
  8
0
 62
     4
 10
-187.356766
 20
-36.019562
 11
-188.856766
 21
-35.149563
  0
LINE
  8
0
 62
     4
 10
-128.356750
 20
-17.279556
 11
-86.356750
 21
-17.279556
  0
LINE
  8
0
  6
CENTER
 62
     1
 10
-128.356750
 20
-68.279556
 11
-112.464508
 21
-68.279556
  0
LINE
  8
0
  6
CENTER
 62
     1
 10
-116.356750
 20
-72.019562
 11
-116.356750
 21
-64.571167
  0
LINE
  8
0
  6
CENTER
 62
     1
 10
-124.356750
 20
-72.019562
 11
-124.356750
 21
-64.571167
  0
LINE
  8
0
 62
     4
 10
-128.356750
 20
-71.279556
 11
-128.356750
 21
-65.279556
  0
LINE
  8
0
 62
     4
 10
-128.356750
 20
-71.279556
 11
-86.356750
 21
-71.279556
  0
LINE
  8
0
 62
     4
 10
-86.356750
 20
-50.779556
 11
-83.356750
 21
-50.779556
  0
LINE
  8
0
 62
     4
 10
-86.356750
 20
-37.779556
 11
-83.356750
 21
-37.779556
  0
LINE
  8
0
 62
     4
 10
-86.356750
 20
-38.559555
 11
-83.356750
 21
-38.559555
  0
LINE
  8
0
 62
     4
 10
-86.356750
 20
-50.009556
 11
-83.356750
 21
-50.009556
  0
LINE
  8
0
 62
     4
 10
-86.356750
 20
-43.509556
 11
-83.356750
 21
-43.509556
  0
LINE
  8
0
 62
     4
 10
-86.356750
 20
-45.059555
 11
-83.356750
 21
-45.059555
  0
LINE
  8
0
 62
     4
 10
-105.356750
 20
-58.079556
 11
-87.356750
 21
-58.079556
  0
LINE
  8
0
 62
     4
 10
-105.356750
 20
-30.489555
 11
-87.356750
 21
-30.489555
  0
LINE
  8
0
 62
     4
 10
-197.356750
 20
-49.279556
 11
-200.856750
 21
-49.279556
  0
LINE
  8
0
 62
     4
 10
-197.356750
 20
-39.279556
 11
-200.856750
 21
-39.279556
  0
LINE
  8
0
 62
     4
 10
-203.356750
 20
-17.279556
 11
-203.356750
 21
-71.279556
  0
LINE
  8
0
 62
     4
 10
-223.356750
 20
-25.279556
 11
-223.356750
 21
-17.279556
  0
LINE
  8
0
  6
CENTER
 62
     1
 10
-181.356750
 20
-20.279556
 11
-197.249008
 21
-20.279556
  0
LINE
  8
0
  6
CENTER
 62
     1
 10
-193.356750
 20
-16.582214
 11
-193.356750
 21
-23.604996
  0
LINE
  8
0
  6
CENTER
 62
     1
 10
-185.356750
 20
-16.582214
 11
-185.356750
 21
-23.604996
  0
LINE
  8
0
 62
     4
 10
-181.356750
 20
-17.279556
 11
-223.356750
 21
-17.279556
  0
LINE
  8
0
 62
     4
 10
-181.356750
 20
-17.279556
 11
-181.356750
 21
-23.279556
  0
LINE
  8
0
 62
     4
 10
-181.356750
 20
-23.279556
 11
-203.356750
 21
-23.279556
  0
LINE
  8
0
  6
CENTER
 62
     1
 10
-55.407852
 20
-44.279556
 11
-253.599274
 21
-44.279556
  0
LINE
  8
0
  6
DASHED
 62
     1
 10
-203.356750
 20
-49.279556
 11
-223.356750
 21
-49.279556
  0
LINE
  8
0
  6
DASHED
 62
     1
 10
-203.356750
 20
-48.779556
 11
-223.356750
 21
-48.779556
  0
LINE
  8
0
  6
DASHED
 62
     1
 10
-203.356750
 20
-39.279556
 11
-223.356750
 21
-39.279556
  0
LINE
  8
0
  6
DASHED
 62
     1
 10
-203.356750
 20
-39.779556
 11
-223.356750
 21
-39.779556
  0
LINE
  8
0
 62
     4
 10
-181.356750
 20
-71.279556
 11
-223.356750
 21
-71.279556
  0
LINE
  8
0
 62
     4
 10
-204.356750
 20
-58.079556
 11
-222.356750
 21
-58.079556
  0
LINE
  8
0
 62
     4
 10
-204.356750
 20
-30.489555
 11
-222.356750
 21
-30.489555
  0
LINE
  8
0
 62
     4
 10
-223.356750
 20
-45.059555
 11
-226.356750
 21
-45.059555
  0
LINE
  8
0
 62
     4
 10
-223.356750
 20
-43.509556
 11
-226.356750
 21
-43.509556
  0
LINE
  8
0
 62
     4
 10
-223.356750
 20
-50.009556
 11
-226.356750
 21
-50.009556
  0
LINE
  8
0
 62
     4
 10
-223.356750
 20
-38.559555
 11
-226.356750
 21
-38.559555
  0
LINE
  8
0
 62
     4
 10
-223.356750
 20
-37.779556
 11
-226.356750
 21
-37.779556
  0
LINE
  8
0
 62
     4
 10
-223.356750
 20
-50.779556
 11
-226.356750
 21
-50.779556
  0
LINE
  8
0
 62
     4
 10
-226.356750
 20
-37.779556
 11
-226.356750
 21
-50.779556
  0
LINE
  8
0
 62
     4
 10
-223.356750
 20
-71.279556
 11
-223.356750
 21
-63.279556
  0
LINE
  8
0
 62
     4
 10
-250.856750
 20
-39.279556
 11
-250.856750
 21
-49.279556
  0
LINE
  8
0
 62
     1
 10
-226.356750
 20
-39.779556
 11
-250.856750
 21
-39.779556
  0
LINE
  8
0
 62
     4
 10
-226.356750
 20
-39.279556
 11
-250.856750
 21
-39.279556
  0
LINE
  8
0
 62
     1
 10
-226.356750
 20
-48.779556
 11
-250.856750
 21
-48.779556
  0
LINE
  8
0
 62
     4
 10
-226.356750
 20
-49.279556
 11
-250.856750
 21
-49.279556
  0
LINE
  8
0
 62
     4
 10
-223.356750
 20
-25.279556
 11
-223.356750
 21
-63.279556
  0
LINE
  8
0
 10
-201.856750
 20
-38.029560
 11
-203.356766
 21
-38.299561
  0
LINE
  8
0
 10
-201.856766
 20
-50.529556
 11
-203.356750
 21
-50.269558
  0
LINE
  8
0
 62
     4
 10
-200.856750
 20
-48.779556
 11
-203.356750
 21
-48.779556
  0
LINE
  8
0
 62
     4
 10
-200.856750
 20
-39.779556
 11
-203.356750
 21
-39.779556
  0
LINE
  8
0
 10
-203.356750
 20
-35.779556
 11
-201.856750
 21
-35.779556
  0
LINE
  8
0
 10
-203.356750
 20
-52.779556
 11
-201.856750
 21
-52.779556
  0
LINE
  8
0
  6
DASHED
 62
     1
 10
-203.856750
 20
-39.279556
 11
-203.856750
 21
-49.279556
  0
LINE
  8
0
 10
-201.856750
 20
-52.779556
 11
-201.856750
 21
-50.529556
  0
LINE
  8
0
 10
-201.856750
 20
-35.779556
 11
-201.856750
 21
-38.029556
  0
LINE
  8
0
 10
-193.856750
 20
-24.279556
 11
-193.856750
 21
-26.779556
  0
LINE
  8
0
 10
-193.856750
 20
-64.279556
 11
-193.856750
 21
-61.779556
  0
LINE
  8
0
 62
     4
 10
-181.356750
 20
-65.279556
 11
-203.356750
 21
-65.279556
  0
LINE
  8
0
 62
     4
 10
-181.356750
 20
-71.279556
 11
-181.356750
 21
-65.279556
  0
LINE
  8
0
  6
CENTER
 62
     1
 10
-185.356750
 20
-72.019562
 11
-185.356750
 21
-64.571167
  0
LINE
  8
0
  6
CENTER
 62
     1
 10
-193.356750
 20
-72.019562
 11
-193.356750
 21
-64.571167
  0
LINE
  8
0
  6
CENTER
 62
     1
 10
-181.356750
 20
-68.279556
 11
-197.249008
 21
-68.279556
  0
LINE
  8
0
  6
PHANTOM
 62
     4
 10
-190.856750
 20
-42.779556
 11
-190.856750
 21
-45.779556
  0
LINE
  8
0
  6
PHANTOM
 62
     4
 10
-190.856750
 20
-42.779556
 11
-200.856750
 21
-42.779556
  0
LINE
  8
0
  6
PHANTOM
 62
     4
 10
-190.856750
 20
-45.779556
 11
-200.856750
 21
-45.779556
  0
LINE
  8
0
 62
     4
 10
-200.856750
 20
-39.779556
 11
-200.856750
 21
-48.779556
  0
LINE
  8
0
 62
     4
 10
-108.856750
 20
-39.779556
 11
-108.856750
 21
-48.779556
  0
LINE
  8
0
 62
     4
 10
18.701088
 20
-93.279556
 11
-11.298913
 21
-93.279556
  0
LINE
  8
0
 62
     4
 10
-11.298913
 20
-93.279556
 11
-11.298913
 21
-104.169739
  0
LINE
  8
0
 62
     4
 10
18.701088
 20
-93.279556
 11
18.701088
 21
-104.175705
  0
LINE
  8
0
 10
-16.298912
 20
-119.279556
 11
-16.298912
 21
-137.279556
  0
LINE
  8
0
 10
-2.298913
 20
-114.829559
 11
-2.298913
 21
-123.729553
  0
LINE
  8
0
 10
9.401087
 20
-114.529556
 11
5.701087
 21
-114.529556
  0
LINE
  8
0
 10
9.701087
 20
-114.829559
 11
9.701087
 21
-123.729553
  0
LINE
  8
0
 10
9.401087
 20
-124.029556
 11
-1.998913
 21
-124.029556
  0
LINE
  8
0
  6
CENTER
 62
     2
 10
22.701088
 20
-119.779556
 11
13.701087
 21
-119.779556
  0
LINE
  8
0
  6
CENTER
 62
     2
 10
18.201088
 20
-115.279556
 11
18.201088
 21
-124.279556
  0
LINE
  8
0
 10
23.701088
 20
-126.379555
 11
23.701088
 21
-137.279556
  0
LINE
  8
0
 10
23.701088
 20
-126.379555
 11
23.201088
 21
-126.379555
  0
LINE
  8
0
 10
22.701077
 20
-126.879562
 11
23.201078
 21
-126.379562
  0
LINE
  8
0
 10
22.701088
 20
-128.379562
 11
22.701088
 21
-126.879555
  0
LINE
  8
0
 10
19.901085
 20
-128.379562
 11
19.901085
 21
-126.499557
  0
LINE
  8
0
 10
22.701088
 20
-122.679558
 11
20.871086
 21
-122.679558
  0
LINE
  8
0
 10
22.701077
 20
-122.679558
 11
23.201078
 21
-123.179558
  0
LINE
  8
0
 10
23.701088
 20
-123.179558
 11
23.201088
 21
-123.179558
  0
LINE
  8
0
 10
23.701088
 20
-122.279556
 11
20.501076
 21
-122.279556
  0
LINE
  8
0
 10
23.701088
 20
-130.279556
 11
20.501076
 21
-130.279556
  0
LINE
  8
0
 10
20.701088
 20
-136.339554
 11
20.701088
 21
-137.279556
  0
LINE
  8
0
 10
16.701088
 20
-136.339554
 11
16.701088
 21
-137.279556
  0
LINE
  8
0
  6
CENTER
 62
     2
 10
18.701088
 20
-129.279556
 11
18.701088
 21
-138.279556
  0
LINE
  8
0
  6
CENTER
 62
     2
 10
14.201087
 20
-133.779556
 11
23.201088
 21
-133.779556
  0
LINE
  8
0
  6
CENTER
 62
     2
 10
-10.798913
 20
-115.279556
 11
-10.798913
 21
-124.279556
  0
LINE
  8
0
  6
CENTER
 62
     2
 10
-6.298913
 20
-119.779556
 11
-15.298913
 21
-119.779556
  0
LINE
  8
0
  6
CENTER
 62
     1
 10
3.701087
 20
-90.058838
 11
3.701087
 21
-139.810532
  0
LINE
  8
0
 10
23.701088
 20
-119.279556
 11
23.701088
 21
-123.179558
  0
LINE
  8
0
 10
23.701088
 20
-137.279556
 11
5.201087
 21
-137.279556
  0
LINE
  8
0
 10
15.701087
 20
-111.279556
 11
-8.298913
 21
-111.279556
  0
LINE
  8
0
 10
5.701087
 20
-111.279556
 11
5.701087
 21
-114.529556
  0
LINE
  8
0
 10
1.701087
 20
-111.279556
 11
1.701087
 21
-114.529556
  0
LINE
  8
0
 10
1.701087
 20
-114.529556
 11
-1.998913
 21
-114.529556
  0
LINE
  8
0
 10
18.501087
 20
-124.279556
 11
18.501087
 21
-128.279556
  0
LINE
  8
0
 62
     4
 10
-17.298912
 20
-119.279556
 11
-17.298912
 21
-137.279556
  0
LINE
  8
0
 62
     4
 10
24.701088
 20
-119.279556
 11
24.701088
 21
-137.279556
  0
LINE
  8
0
 10
18.701088
 20
-110.789566
 11
18.701088
 21
-111.859558
  0
LINE
  8
0
 10
-11.298913
 20
-110.789566
 11
-11.298913
 21
-111.859558
  0
LINE
  8
0
 62
     4
 10
15.701087
 20
-110.279556
 11
-8.298913
 21
-110.279556
  0
LINE
  8
0
  6
CENTER
 62
     1
 10
12.357199
 20
-102.779556
 11
-5.315219
 21
-102.779556
  0
LINE
  8
0
 62
     4
 10
-17.298912
 20
-137.279556
 11
-23.298912
 21
-137.279556
  0
LINE
  8
0
  6
CENTER
 62
     1
 10
-20.298912
 20
-116.279556
 11
-20.298912
 21
-139.810532
  0
LINE
  8
0
 62
     4
 10
-17.298912
 20
-120.779556
 11
-23.298912
 21
-120.779556
  0
LINE
  8
0
 62
     4
 10
-23.298912
 20
-119.279556
 11
-23.298912
 21
-137.279556
  0
LINE
  8
0
  6
DASHED
 62
     1
 10
-17.298912
 20
-121.279556
 11
-23.298912
 21
-121.279556
  0
LINE
  8
0
  6
DASHED
 62
     1
 10
24.701088
 20
-121.279556
 11
30.701088
 21
-121.279556
  0
LINE
  8
0
 62
     4
 10
30.701088
 20
-119.279556
 11
30.701088
 21
-137.279556
  0
LINE
  8
0
  6
CENTER
 62
     1
 10
27.701088
 20
-118.104187
 11
27.701088
 21
-139.810532
  0
LINE
  8
0
 62
     4
 10
24.701088
 20
-137.279556
 11
30.701088
 21
-137.279556
  0
LINE
  8
0
 62
     4
 10
24.701088
 20
-120.779556
 11
30.701088
 21
-120.779556
  0
LINE
  8
0
 62
     4
 10
25.901085
 20
-123.479553
 11
25.901085
 21
-130.279556
  0
LINE
  8
0
 62
     4
 10
-18.498909
 20
-123.479553
 11
-18.498909
 21
-130.279556
  0
LINE
  8
0
 62
     4
 10
4.471089
 20
-109.829559
 11
9.421086
 21
-106.979561
  0
LINE
  8
0
 62
     4
 10
10.201087
 20
-105.629562
 11
10.201087
 21
-99.919571
  0
LINE
  8
0
 62
     4
 10
4.471094
 20
-95.719559
 11
9.421087
 21
-98.569557
  0
LINE
  8
0
 62
     4
 10
-2.028912
 20
-98.569550
 11
2.921081
 21
-95.719551
  0
LINE
  8
0
 62
     4
 10
-2.798913
 20
-105.629562
 11
-2.798913
 21
-99.919571
  0
LINE
  8
0
 62
     4
 10
2.921081
 20
-109.829567
 11
-2.028916
 21
-106.979568
  0
LINE
  8
0
 10
5.201087
 20
-136.279556
 11
2.201087
 21
-136.279556
  0
LINE
  8
0
 10
5.201087
 20
-136.279556
 11
5.201087
 21
-137.279556
  0
LINE
  8
0
 10
2.201087
 20
-136.279556
 11
2.201087
 21
-137.279556
  0
LINE
  8
0
 10
2.201087
 20
-137.279556
 11
-16.298912
 21
-137.279556
  0
LINE
  8
0
 62
     4
 10
17.201088
 20
-119.199570
 11
17.201088
 21
-120.349564
  0
LINE
  8
0
 62
     4
 10
19.201088
 20
-119.199570
 11
19.201088
 21
-120.349564
  0
LINE
  8
0
 62
     4
 10
18.201082
 20
-118.619576
 11
19.201082
 21
-119.199577
  0
LINE
  8
0
 62
     4
 10
17.201084
 20
-120.349564
 11
18.201088
 21
-120.929558
  0
LINE
  8
0
 62
     4
 10
17.201082
 20
-119.199562
 11
18.201075
 21
-118.619560
  0
LINE
  8
0
 62
     4
 10
18.201077
 20
-120.929558
 11
19.201086
 21
-120.349548
  0
LINE
  8
0
 62
     4
 10
18.701086
 20
-132.619553
 11
19.701088
 21
-133.199554
  0
LINE
  8
0
 62
     4
 10
19.701088
 20
-133.199554
 11
19.701088
 21
-134.349564
  0
LINE
  8
0
 62
     4
 10
17.701088
 20
-133.199554
 11
17.701088
 21
-134.349564
  0
LINE
  8
0
 62
     4
 10
17.701088
 20
-133.199554
 11
18.701088
 21
-132.619553
  0
LINE
  8
0
 62
     4
 10
17.701088
 20
-134.349564
 11
18.701088
 21
-134.929550
  0
LINE
  8
0
 62
     4
 10
18.701086
 20
-134.929550
 11
19.701088
 21
-134.349564
  0
LINE
  8
0
 62
     4
 10
-10.798913
 20
-120.929558
 11
-9.798909
 21
-120.349564
  0
LINE
  8
0
 62
     4
 10
-11.798907
 20
-120.349556
 11
-10.798903
 21
-120.929565
  0
LINE
  8
0
 62
     4
 10
-11.798901
 20
-119.199577
 11
-10.798901
 21
-118.619576
  0
LINE
  8
0
 62
     4
 10
-11.798913
 20
-119.199570
 11
-11.798913
 21
-120.349564
  0
LINE
  8
0
 62
     4
 10
-9.798913
 20
-119.199570
 11
-9.798913
 21
-120.349564
  0
LINE
  8
0
 62
     4
 10
-10.798903
 20
-118.619560
 11
-9.798907
 21
-119.199562
  0
LINE
  8
0
  6
DASHED
 62
     1
 10
-18.598900
 20
-121.279556
 11
-18.598900
 21
-137.279556
  0
LINE
  8
0
  6
DASHED
 62
     1
 10
-21.998909
 20
-121.279556
 11
-21.998909
 21
-137.279556
  0
LINE
  8
0
  6
DASHED
 62
     1
 10
29.401085
 20
-121.279556
 11
29.401085
 21
-137.279556
  0
LINE
  8
0
  6
DASHED
 62
     1
 10
26.001076
 20
-121.279556
 11
26.001076
 21
-137.279556
  0
LINE
  8
0
 10
-181.356750
 20
-137.279556
 11
-128.356750
 21
-137.279556
  0
LINE
  8
0
 62
     4
 10
-86.356750
 20
-137.279556
 11
-86.356750
 21
-112.279572
  0
LINE
  8
0
  6
CENTER
 62
     1
 10
-97.856750
 20
-128.279556
 11
-85.856750
 21
-128.279556
  0
LINE
  8
0
  6
CENTER
 62
     1
 10
-91.856750
 20
-122.779556
 11
-91.856750
 21
-134.779556
  0
LINE
  8
0
 10
-203.166229
 20
-116.779572
 11
-106.546753
 21
-116.779572
  0
LINE
  8
0
 10
-200.856750
 20
-109.279572
 11
-133.856750
 21
-109.279572
  0
LINE
  8
0
 10
-133.856750
 20
-109.279572
 11
-133.856750
 21
-113.779572
  0
LINE
  8
0
 10
-133.456757
 20
-116.779572
 11
-133.456757
 21
-116.219559
  0
LINE
  8
0
 10
-133.456757
 20
-116.219566
 11
-134.016769
 21
-115.959572
  0
LINE
  8
0
 10
-108.856750
 20
-111.279572
 11
-106.356750
 21
-111.279572
  0
LINE
  8
0
 10
-200.856750
 20
-109.279572
 11
-200.856750
 21
-113.779572
  0
LINE
  8
0
 10
-201.256760
 20
-116.779572
 11
-201.256760
 21
-116.219559
  0
LINE
  8
0
 10
-201.256775
 20
-116.219559
 11
-200.686768
 21
-115.959564
  0
LINE
  8
0
 10
-200.456757
 20
-113.779572
 11
-200.456757
 21
-115.599564
  0
LINE
  8
0
 10
-134.256760
 20
-113.779572
 11
-134.256760
 21
-115.599564
  0
LINE
  8
0
 10
-200.856750
 20
-113.779572
 11
-133.856750
 21
-113.779572
  0
LINE
  8
0
 10
-108.856750
 20
-113.779572
 11
-106.356750
 21
-113.779572
  0
LINE
  8
0
 10
-201.256760
 20
-116.219559
 11
-133.456757
 21
-116.219559
  0
LINE
  8
0
 10
-200.456757
 20
-115.849564
 11
-134.256760
 21
-115.849564
  0
LINE
  8
0
 10
-108.856750
 20
-113.779572
 11
-108.856750
 21
-111.279572
  0
LINE
  8
0
 10
-107.856750
 20
-113.779572
 11
-107.856750
 21
-111.279572
  0
LINE
  8
0
 62
     4
 10
-86.356750
 20
-95.279572
 11
-86.356750
 21
-112.279572
  0
LINE
  8
0
 62
     4
 10
-106.356750
 20
-95.279572
 11
-106.356750
 21
-115.279572
  0
LINE
  8
0
 10
-181.356750
 20
-123.179558
 11
-128.356750
 21
-123.179558
  0
LINE
  8
0
 10
-181.356750
 20
-134.379562
 11
-128.356750
 21
-134.379562
  0
LINE
  8
0
 10
-181.356750
 20
-131.679550
 11
-128.356750
 21
-131.679550
  0
LINE
  8
0
 10
-181.356750
 20
-126.379555
 11
-128.356750
 21
-126.379555
  0
LINE
  8
0
 10
-202.988373
 20
-117.349564
 11
-106.726761
 21
-117.349564
  0
LINE
  8
0
 10
-201.828888
 20
-119.279572
 11
-107.876755
 21
-119.279572
  0
LINE
  8
0
 10
-199.844406
 20
-120.739563
 11
-109.866760
 21
-120.739563
  0
LINE
  8
0
  6
DASHED
 62
     1
 10
-106.356750
 20
-97.779572
 11
-86.356750
 21
-97.779572
  0
LINE
  8
0
 62
     4
 10
-118.856750
 20
-101.279572
 11
-118.856750
 21
-104.279572
  0
LINE
  8
0
 62
     4
 10
-118.856750
 20
-104.279572
 11
-108.856750
 21
-104.279572
  0
LINE
  8
0
 62
     4
 10
-83.356750
 20
-107.779572
 11
-58.856750
 21
-107.779572
  0
LINE
  8
0
 62
     4
 10
-118.856750
 20
-101.279572
 11
-108.856750
 21
-101.279572
  0
LINE
  8
0
  6
DASHED
 62
     1
 10
-106.356750
 20
-98.279572
 11
-86.356750
 21
-98.279572
  0
LINE
  8
0
  6
DASHED
 62
     1
 10
-106.356750
 20
-107.779572
 11
-86.356750
 21
-107.779572
  0
LINE
  8
0
 62
     4
 10
-108.856750
 20
-98.279572
 11
-106.356750
 21
-98.279572
  0
LINE
  8
0
  6
DASHED
 62
     1
 10
-106.356750
 20
-107.279572
 11
-86.356750
 21
-107.279572
  0
LINE
  8
0
 62
     4
 10
-108.856750
 20
-107.279572
 11
-106.356750
 21
-107.279572
  0
LINE
  8
0
 62
     1
 10
-83.356750
 20
-107.279572
 11
-58.856750
 21
-107.279572
  0
LINE
  8
0
 62
     4
 10
-83.356750
 20
-97.779572
 11
-58.856750
 21
-97.779572
  0
LINE
  8
0
 62
     1
 10
-83.356750
 20
-98.279572
 11
-58.856750
 21
-98.279572
  0
LINE
  8
0
  6
DASHED
 62
     1
 10
-105.856750
 20
-97.779572
 11
-105.856750
 21
-107.779572
  0
LINE
  8
0
 62
     4
 10
-58.856750
 20
-97.779572
 11
-58.856750
 21
-107.779572
  0
LINE
  8
0
 62
     4
 10
-99.356750
 20
-137.279556
 11
-99.356750
 21
-128.279556
  0
LINE
  8
0
 62
     4
 10
-128.356750
 20
-121.279556
 11
-128.356750
 21
-137.279556
  0
LINE
  8
0
 62
     4
 10
-128.356750
 20
-121.279556
 11
-112.356750
 21
-121.279556
  0
LINE
  8
0
 62
     4
 10
-83.356750
 20
-95.679565
 11
-83.356750
 21
-109.879562
  0
LINE
  8
0
 62
     4
 10
-106.356750
 20
-95.279572
 11
-86.356750
 21
-95.279572
  0
LINE
  8
0
 62
     4
 10
-133.356750
 20
-108.549561
 11
-133.356750
 21
-96.999557
  0
LINE
  8
0
  6
CENTER
 62
     1
 10
-56.446762
 20
-102.779572
 11
-122.356750
 21
-102.779572
  0
LINE
  8
0
 62
     4
 10
-137.356750
 20
-109.279572
 11
-137.356750
 21
-93.279572
  0
LINE
  8
0
 62
     4
 10
-137.356750
 20
-96.999557
 11
-133.356750
 21
-96.999557
  0
LINE
  8
0
 62
     4
 10
-137.356750
 20
-99.889557
 11
-133.356750
 21
-99.889557
  0
LINE
  8
0
 62
     4
 10
-137.356750
 20
-105.659561
 11
-133.356750
 21
-105.659561
  0
LINE
  8
0
 62
     4
 10
-137.356750
 20
-108.549561
 11
-133.356750
 21
-108.549561
  0
LINE
  8
0
 62
     4
 10
-197.356750
 20
-93.279572
 11
-197.356750
 21
-109.279572
  0
LINE
  8
0
 62
     4
 10
-197.356750
 20
-93.279572
 11
-137.356750
 21
-93.279572
  0
LINE
  8
0
 62
     4
 10
-91.856750
 20
-120.779572
 11
-86.356750
 21
-120.779572
  0
LINE
  8
0
 62
     4
 10
-86.356750
 20
-95.679565
 11
-83.356750
 21
-95.679565
  0
LINE
  8
0
 62
     4
 10
-86.356750
 20
-98.569565
 11
-83.356750
 21
-98.569565
  0
LINE
  8
0
 62
     4
 10
-86.356750
 20
-99.919571
 11
-83.356750
 21
-99.919571
  0
LINE
  8
0
 62
     4
 10
-86.356750
 20
-109.879562
 11
-83.356750
 21
-109.879562
  0
LINE
  8
0
 62
     4
 10
-86.356750
 20
-106.979568
 11
-83.356750
 21
-106.979568
  0
LINE
  8
0
 62
     4
 10
-86.356750
 20
-105.629562
 11
-83.356750
 21
-105.629562
  0
LINE
  8
0
 62
     4
 10
-87.356750
 20
-104.379562
 11
-105.356750
 21
-104.379562
  0
LINE
  8
0
 62
     4
 10
-197.356750
 20
-108.549561
 11
-200.856750
 21
-108.549561
  0
LINE
  8
0
 62
     4
 10
-197.356750
 20
-105.659561
 11
-200.856750
 21
-105.659561
  0
LINE
  8
0
 62
     4
 10
-197.356750
 20
-99.889557
 11
-200.856750
 21
-99.889557
  0
LINE
  8
0
 62
     4
 10
-197.356750
 20
-96.999557
 11
-200.856750
 21
-96.999557
  0
LINE
  8
0
 62
     4
 10
-200.856750
 20
-108.549561
 11
-200.856750
 21
-96.999557
  0
LINE
  8
0
 62
     4
 10
-128.356750
 20
-137.279556
 11
-86.356750
 21
-137.279556
  0
LINE
  8
0
  6
DASHED
 62
     1
 10
-203.356750
 20
-97.779572
 11
-223.356750
 21
-97.779572
  0
LINE
  8
0
  6
DASHED
 62
     1
 10
-203.356750
 20
-98.279572
 11
-223.356750
 21
-98.279572
  0
LINE
  8
0
  6
DASHED
 62
     1
 10
-203.356750
 20
-107.779572
 11
-223.356750
 21
-107.779572
  0
LINE
  8
0
  6
DASHED
 62
     1
 10
-203.356750
 20
-107.279572
 11
-223.356750
 21
-107.279572
  0
LINE
  8
0
 62
     4
 10
-203.356750
 20
-95.279572
 11
-223.356750
 21
-95.279572
  0
LINE
  8
0
  6
CENTER
 62
     1
 10
-253.266739
 20
-102.779572
 11
-187.356750
 21
-102.779572
  0
LINE
  8
0
 62
     4
 10
-222.356750
 20
-104.379562
 11
-204.356750
 21
-104.379562
  0
LINE
  8
0
 62
     4
 10
-181.356750
 20
-137.279556
 11
-223.356750
 21
-137.279556
  0
LINE
  8
0
 62
     4
 10
-223.356750
 20
-105.629562
 11
-226.356750
 21
-105.629562
  0
LINE
  8
0
 62
     4
 10
-223.356750
 20
-106.979568
 11
-226.356750
 21
-106.979568
  0
LINE
  8
0
 62
     4
 10
-223.356750
 20
-109.879562
 11
-226.356750
 21
-109.879562
  0
LINE
  8
0
 62
     4
 10
-223.356750
 20
-99.919571
 11
-226.356750
 21
-99.919571
  0
LINE
  8
0
 62
     4
 10
-223.356750
 20
-98.569565
 11
-226.356750
 21
-98.569565
  0
LINE
  8
0
 62
     4
 10
-223.356750
 20
-95.679565
 11
-226.356750
 21
-95.679565
  0
LINE
  8
0
 62
     4
 10
-217.856750
 20
-120.779572
 11
-223.356750
 21
-120.779572
  0
LINE
  8
0
 62
     4
 10
-226.356750
 20
-95.679565
 11
-226.356750
 21
-109.879562
  0
LINE
  8
0
 62
     4
 10
-210.356750
 20
-137.279556
 11
-210.356750
 21
-128.279556
  0
LINE
  8
0
 62
     4
 10
-250.856750
 20
-97.779572
 11
-250.856750
 21
-107.779572
  0
LINE
  8
0
 62
     1
 10
-226.356750
 20
-98.279572
 11
-250.856750
 21
-98.279572
  0
LINE
  8
0
 62
     4
 10
-226.356750
 20
-97.779572
 11
-250.856750
 21
-97.779572
  0
LINE
  8
0
 62
     1
 10
-226.356750
 20
-107.279572
 11
-250.856750
 21
-107.279572
  0
LINE
  8
0
 62
     4
 10
-226.356750
 20
-107.779572
 11
-250.856750
 21
-107.779572
  0
LINE
  8
0
 62
     4
 10
-223.356750
 20
-95.279572
 11
-223.356750
 21
-112.279572
  0
LINE
  8
0
  6
CENTER
 62
     1
 10
-217.856750
 20
-122.779556
 11
-217.856750
 21
-134.779556
  0
LINE
  8
0
  6
CENTER
 62
     1
 10
-211.856750
 20
-128.279556
 11
-223.856750
 21
-128.279556
  0
LINE
  8
0
 62
     4
 10
-223.356750
 20
-137.279556
 11
-223.356750
 21
-112.279572
  0
LINE
  8
0
 62
     4
 10
-203.356750
 20
-95.279572
 11
-203.356750
 21
-115.279572
  0
LINE
  8
0
 62
     4
 10
-200.856750
 20
-98.279572
 11
-203.356750
 21
-98.279572
  0
LINE
  8
0
 62
     4
 10
-200.856750
 20
-107.279572
 11
-203.356750
 21
-107.279572
  0
LINE
  8
0
  6
DASHED
 62
     1
 10
-203.856750
 20
-97.779572
 11
-203.856750
 21
-107.779572
  0
LINE
  8
0
 10
-200.856750
 20
-111.279572
 11
-203.356750
 21
-111.279572
  0
LINE
  8
0
 10
-200.856750
 20
-113.779572
 11
-203.356750
 21
-113.779572
  0
LINE
  8
0
 10
-201.856750
 20
-113.779572
 11
-201.856750
 21
-111.279572
  0
LINE
  8
0
 10
-200.856750
 20
-113.779572
 11
-200.856750
 21
-111.279572
  0
LINE
  8
0
 62
     4
 10
-181.356750
 20
-121.279556
 11
-197.356750
 21
-121.279556
  0
LINE
  8
0
 62
     4
 10
-181.356750
 20
-121.279556
 11
-181.356750
 21
-137.279556
  0
LINE
  8
0
  6
PHANTOM
 62
     4
 10
-190.856750
 20
-104.279572
 11
-200.856750
 21
-104.279572
  0
LINE
  8
0
  6
PHANTOM
 62
     4
 10
-190.856750
 20
-101.279572
 11
-200.856750
 21
-101.279572
  0
LINE
  8
0
  6
PHANTOM
 62
     4
 10
-190.856750
 20
-101.279572
 11
-190.856750
 21
-104.279572
  0
LINE
  8
0
 62
     4
 10
-200.856750
 20
-107.279572
 11
-200.856750
 21
-98.279572
  0
LINE
  8
0
 62
     4
 10
-108.856750
 20
-98.279572
 11
-108.856750
 21
-107.279572
  0
LINE
  8
0
  6
PHANTOM
 62
     4
 10
-130.287338
 20
-83.355911
 11
-130.287338
 21
-146.827606
  0
LINE
  8
0
 10
-222.298904
 20
132.549622
 11
-87.298904
 21
132.549622
  0
LINE
  8
0
 10
-222.298904
 20
92.549637
 11
-87.298904
 21
92.549637
  0
LINE
  8
0
 10
-208.298904
 20
132.549622
 11
-208.298904
 21
124.549622
  0
LINE
  8
0
 10
-101.298904
 20
100.549622
 11
-101.298904
 21
92.549637
  0
LINE
  8
0
  6
CENTER
 62
     2
 10
-216.798904
 20
121.549622
 11
-207.798904
 21
121.549622
  0
LINE
  8
0
  6
CENTER
 62
     2
 10
-212.298904
 20
126.049622
 11
-212.298904
 21
117.049622
  0
LINE
  8
0
  6
CENTER
 62
     2
 10
-212.298904
 20
99.049622
 11
-212.298904
 21
108.049622
  0
LINE
  8
0
  6
CENTER
 62
     2
 10
-216.798904
 20
103.549622
 11
-207.798904
 21
103.549622
  0
LINE
  8
0
  6
CENTER
 62
     2
 10
-97.298904
 20
99.049622
 11
-97.298904
 21
108.049622
  0
LINE
  8
0
  6
CENTER
 62
     2
 10
-92.779282
 20
103.549622
 11
-101.798904
 21
103.549622
  0
LINE
  8
0
  6
CENTER
 62
     2
 10
-97.298904
 20
126.049622
 11
-97.298904
 21
117.049622
  0
LINE
  8
0
  6
CENTER
 62
     2
 10
-92.779282
 20
121.549622
 11
-101.798904
 21
121.549622
  0
LINE
  8
0
 10
-133.798904
 20
117.049622
 11
-106.298904
 21
117.049622
  0
LINE
  8
0
 10
-133.798904
 20
108.049622
 11
-106.298904
 21
108.049622
  0
LINE
  8
0
  6
CENTER
 62
     2
 10
-150.298904
 20
122.549622
 11
-142.663773
 21
122.549622
  0
LINE
  8
0
  6
CENTER
 62
     2
 10
-147.298904
 20
125.549622
 11
-147.298904
 21
119.549622
  0
LINE
  8
0
  6
CENTER
 62
     2
 10
-227.881790
 20
112.549622
 11
-81.789169
 21
112.549622
  0
LINE
  8
0
 10
-195.798904
 20
118.549622
 11
-138.798904
 21
118.549622
  0
LINE
  8
0
 10
-195.798904
 20
106.549622
 11
-138.798904
 21
106.549622
  0
LINE
  8
0
 10
-139.298904
 20
127.549622
 11
-195.298904
 21
127.549622
  0
LINE
  8
0
 10
-139.298904
 20
97.549622
 11
-195.298904
 21
97.549622
  0
LINE
  8
0
 10
-208.298904
 20
118.549622
 11
-208.298904
 21
106.549622
  0
LINE
  8
0
 10
-208.298904
 20
100.549622
 11
-208.298904
 21
92.549637
  0
LINE
  8
0
 10
-101.298904
 20
118.549622
 11
-101.298904
 21
106.549622
  0
LINE
  8
0
 10
-101.298904
 20
132.549622
 11
-101.298904
 21
124.549622
  0
LINE
  8
0
 10
-200.798904
 20
120.549622
 11
-200.798904
 21
104.549622
  0
LINE
  8
0
 10
-137.798904
 20
117.549622
 11
-137.798904
 21
107.549622
  0
LINE
  8
0
 10
-196.798904
 20
117.549622
 11
-196.798904
 21
107.549622
  0
LINE
  8
0
 10
-200.798904
 20
120.549622
 11
-200.298904
 21
120.549622
  0
LINE
  8
0
 10
-200.298904
 20
120.549622
 11
-200.298904
 21
122.549622
  0
LINE
  8
0
 10
-200.298904
 20
104.549622
 11
-200.298904
 21
102.549622
  0
LINE
  8
0
 10
-200.798904
 20
104.549622
 11
-200.298904
 21
104.549622
  0
LINE
  8
0
 10
-133.798904
 20
120.549622
 11
-133.798904
 21
104.549622
  0
LINE
  8
0
 10
-133.798904
 20
120.549622
 11
-134.298904
 21
120.549622
  0
LINE
  8
0
 10
-134.298904
 20
120.549622
 11
-134.298904
 21
122.549622
  0
LINE
  8
0
 10
-133.798904
 20
104.549622
 11
-134.298904
 21
104.549622
  0
LINE
  8
0
 10
-134.298904
 20
104.549622
 11
-134.298904
 21
102.549622
  0
LINE
  8
0
 10
-223.298904
 20
114.549622
 11
-208.298904
 21
114.549622
  0
LINE
  8
0
 10
-223.298904
 20
110.549622
 11
-208.298904
 21
110.549622
  0
LINE
  8
0
 10
-86.298904
 20
114.549622
 11
-101.298904
 21
114.549622
  0
LINE
  8
0
 10
-86.298904
 20
110.549622
 11
-101.298904
 21
110.549622
  0
LINE
  8
0
 10
-115.798904
 20
132.549622
 11
-115.798904
 21
130.049622
  0
LINE
  8
0
 10
-115.798904
 20
92.549637
 11
-115.798904
 21
95.049637
  0
LINE
  8
0
 10
-191.798904
 20
132.549622
 11
-191.798904
 21
130.049622
  0
LINE
  8
0
 10
-191.798904
 20
92.549637
 11
-191.798904
 21
95.049637
  0
LINE
  8
0
 10
-86.298904
 20
131.549622
 11
-86.298904
 21
93.549637
  0
LINE
  8
0
  6
CENTER
 62
     2
 10
-167.298904
 20
136.353851
 11
-167.298904
 21
88.529129
  0
LINE
  8
0
 10
-204.298904
 20
131.549622
 11
-204.298904
 21
121.049622
  0
LINE
  8
0
 10
-204.298904
 20
93.549637
 11
-204.298904
 21
104.049622
  0
LINE
  8
0
 10
-202.798904
 20
121.049622
 11
-204.298904
 21
121.049622
  0
LINE
  8
0
 10
-202.798904
 20
104.049622
 11
-204.298904
 21
104.049622
  0
LINE
  8
0
 10
-106.798904
 20
121.049622
 11
-106.798904
 21
120.049622
  0
LINE
  8
0
 10
-106.798904
 20
121.049622
 11
-105.298904
 21
121.049622
  0
LINE
  8
0
 10
-106.798904
 20
104.049622
 11
-105.298904
 21
104.049622
  0
LINE
  8
0
 10
-105.298904
 20
131.549622
 11
-105.298904
 21
121.049622
  0
LINE
  8
0
 10
-105.298904
 20
93.549637
 11
-105.298904
 21
104.049622
  0
LINE
  8
0
  6
CENTER
 62
     2
 10
-184.298904
 20
122.549622
 11
-190.298904
 21
122.549622
  0
LINE
  8
0
  6
CENTER
 62
     2
 10
-187.298904
 20
125.549622
 11
-187.298904
 21
119.549622
  0
LINE
  8
0
  6
CENTER
 62
     2
 10
-150.298904
 20
102.549622
 11
-142.663773
 21
102.549622
  0
LINE
  8
0
  6
CENTER
 62
     2
 10
-147.298904
 20
97.549622
 11
-147.298904
 21
105.549622
  0
LINE
  8
0
  6
CENTER
 62
     2
 10
-184.298904
 20
102.549622
 11
-190.298904
 21
102.549622
  0
LINE
  8
0
  6
CENTER
 62
     2
 10
-187.298904
 20
97.549622
 11
-187.298904
 21
105.549622
  0
LINE
  8
0
 10
-204.298904
 20
130.049622
 11
-105.298904
 21
130.049622
  0
LINE
  8
0
 10
-204.298904
 20
95.049637
 11
-105.298904
 21
95.049637
  0
LINE
  8
0
 10
-223.298904
 20
131.549622
 11
-223.298904
 21
93.549637
  0
LINE
  8
0
 10
-106.798912
 20
119.049622
 11
-105.638916
 21
119.249619
  0
LINE
  8
0
 10
-106.798920
 20
120.049606
 11
-105.638916
 21
119.839607
  0
LINE
  8
0
 10
-106.798912
 20
117.049622
 11
-105.638916
 21
117.249619
  0
LINE
  8
0
 10
-106.798920
 20
118.049622
 11
-105.638916
 21
117.839622
  0
LINE
  8
0
 10
-106.798912
 20
115.049629
 11
-105.638916
 21
115.249626
  0
LINE
  8
0
 10
-106.798920
 20
116.049622
 11
-105.638916
 21
115.839615
  0
LINE
  8
0
 10
-106.798920
 20
114.049629
 11
-105.638916
 21
113.839622
  0
LINE
  8
0
 10
-106.798912
 20
113.049622
 11
-105.638916
 21
113.249626
  0
LINE
  8
0
 10
-106.798904
 20
112.049606
 11
-105.638916
 21
111.839607
  0
LINE
  8
0
 10
-106.798912
 20
111.049629
 11
-105.638916
 21
111.249626
  0
LINE
  8
0
 10
-106.798912
 20
110.049629
 11
-105.638908
 21
109.839630
  0
LINE
  8
0
 10
-106.798912
 20
109.049629
 11
-105.638916
 21
109.249634
  0
LINE
  8
0
 10
-106.798904
 20
108.049614
 11
-105.638916
 21
107.839615
  0
LINE
  8
0
 10
-106.798912
 20
107.049637
 11
-105.638916
 21
107.249634
  0
LINE
  8
0
 10
-106.798904
 20
106.049629
 11
-105.638916
 21
105.839622
  0
LINE
  8
0
 10
-106.798912
 20
105.049622
 11
-105.638916
 21
105.249626
  0
LINE
  8
0
 10
-106.798904
 20
119.049622
 11
-106.798904
 21
118.049622
  0
LINE
  8
0
 10
-106.798904
 20
117.049622
 11
-106.798904
 21
116.049622
  0
LINE
  8
0
 10
-106.798904
 20
115.049622
 11
-106.798904
 21
114.049622
  0
LINE
  8
0
 10
-106.798904
 20
113.049622
 11
-106.798904
 21
112.049622
  0
LINE
  8
0
 10
-106.798904
 20
111.049622
 11
-106.798904
 21
110.049622
  0
LINE
  8
0
 10
-106.798904
 20
109.049622
 11
-106.798904
 21
108.049622
  0
LINE
  8
0
 10
-106.798904
 20
107.049622
 11
-106.798904
 21
106.049622
  0
LINE
  8
0
 10
-106.798904
 20
105.049622
 11
-106.798904
 21
104.049622
  0
LINE
  8
0
 10
-202.798889
 20
117.049622
 11
-203.958923
 21
117.249626
  0
LINE
  8
0
 10
-202.798889
 20
116.049614
 11
-203.958908
 21
115.839615
  0
LINE
  8
0
 10
-202.798904
 20
115.049614
 11
-203.958923
 21
115.249626
  0
LINE
  8
0
 10
-202.798904
 20
118.049629
 11
-203.958908
 21
117.839615
  0
LINE
  8
0
 10
-202.798904
 20
119.049622
 11
-203.958923
 21
119.249626
  0
LINE
  8
0
 10
-202.798904
 20
120.049622
 11
-203.958908
 21
119.839615
  0
LINE
  8
0
 10
-202.798889
 20
114.049622
 11
-203.958908
 21
113.839622
  0
LINE
  8
0
 10
-202.798904
 20
113.049622
 11
-203.958923
 21
113.249626
  0
LINE
  8
0
 10
-202.798904
 20
112.049614
 11
-203.958908
 21
111.839615
  0
LINE
  8
0
 10
-202.798904
 20
111.049622
 11
-203.958923
 21
111.249626
  0
LINE
  8
0
 10
-202.798904
 20
110.049622
 11
-203.958908
 21
109.839622
  0
LINE
  8
0
 10
-202.798904
 20
109.049622
 11
-203.958923
 21
109.249626
  0
LINE
  8
0
 10
-202.798904
 20
108.049614
 11
-203.958908
 21
107.839615
  0
LINE
  8
0
 10
-202.798904
 20
107.049614
 11
-203.958908
 21
107.249619
  0
LINE
  8
0
 10
-202.798904
 20
106.049629
 11
-203.958893
 21
105.839630
  0
LINE
  8
0
 10
-202.798904
 20
105.049622
 11
-203.958908
 21
105.249619
  0
LINE
  8
0
 10
-202.798904
 20
121.049622
 11
-202.798904
 21
120.049622
  0
LINE
  8
0
 10
-202.798904
 20
119.049622
 11
-202.798904
 21
118.049622
  0
LINE
  8
0
 10
-202.798904
 20
117.049622
 11
-202.798904
 21
116.049622
  0
LINE
  8
0
 10
-202.798904
 20
115.049622
 11
-202.798904
 21
114.049622
  0
LINE
  8
0
 10
-202.798904
 20
113.049622
 11
-202.798904
 21
112.049622
  0
LINE
  8
0
 10
-202.798904
 20
111.049622
 11
-202.798904
 21
110.049622
  0
LINE
  8
0
 10
-202.798904
 20
109.049622
 11
-202.798904
 21
108.049622
  0
LINE
  8
0
 10
-202.798904
 20
107.049622
 11
-202.798904
 21
106.049622
  0
LINE
  8
0
 10
-202.798904
 20
105.049622
 11
-202.798904
 21
104.049622
  0
LINE
  8
0
 10
-200.798904
 20
117.049622
 11
-202.798904
 21
117.049622
  0
LINE
  8
0
 10
-200.798904
 20
108.049622
 11
-202.798904
 21
108.049622
  0
LINE
  8
0
  6
PHANTOM
 62
     2
 10
-126.229492
 20
144.288116
 11
-126.229492
 21
78.049637
  0
LINE
  8
0
 10
23.701088
 20
40.049622
 11
5.201087
 21
40.049622
  0
LINE
  8
0
 10
23.701088
 20
58.049622
 11
23.701088
 21
54.149620
  0
LINE
  8
0
  6
CENTER
 62
     2
 10
3.701087
 20
71.491302
 11
3.701087
 21
37.025879
  0
LINE
  8
0
  6
CENTER
 62
     2
 10
-6.298913
 20
57.549622
 11
-15.298898
 21
57.549622
  0
LINE
  8
0
  6
CENTER
 62
     2
 10
-10.798913
 20
62.049622
 11
-10.798913
 21
53.049622
  0
LINE
  8
0
  6
CENTER
 62
     2
 10
14.201087
 20
43.549622
 11
23.201088
 21
43.549622
  0
LINE
  8
0
  6
CENTER
 62
     2
 10
18.701088
 20
48.049622
 11
18.701088
 21
39.049622
  0
LINE
  8
0
 10
16.701088
 20
40.989620
 11
16.701088
 21
40.049622
  0
LINE
  8
0
 10
20.701088
 20
40.989620
 11
20.701088
 21
40.049622
  0
LINE
  8
0
 10
23.701088
 20
47.049622
 11
20.501076
 21
47.049622
  0
LINE
  8
0
 10
23.701088
 20
55.049622
 11
20.501076
 21
55.049622
  0
LINE
  8
0
 10
23.701088
 20
54.149620
 11
23.201088
 21
54.149620
  0
LINE
  8
0
 10
22.701077
 20
54.649612
 11
23.201078
 21
54.149612
  0
LINE
  8
0
 10
22.701088
 20
54.649620
 11
20.871086
 21
54.649620
  0
LINE
  8
0
 10
19.901085
 20
48.949623
 11
19.901085
 21
50.829620
  0
LINE
  8
0
 10
22.701088
 20
48.949623
 11
22.701088
 21
50.449623
  0
LINE
  8
0
 10
22.701077
 20
50.449612
 11
23.201075
 21
50.949612
  0
LINE
  8
0
 10
23.701088
 20
50.949623
 11
23.201088
 21
50.949623
  0
LINE
  8
0
 10
23.701088
 20
50.949623
 11
23.701088
 21
40.049622
  0
LINE
  8
0
  6
CENTER
 62
     2
 10
18.201088
 20
62.049622
 11
18.201088
 21
53.049622
  0
LINE
  8
0
  6
CENTER
 62
     2
 10
22.701088
 20
57.549622
 11
13.701087
 21
57.549622
  0
LINE
  8
0
 10
9.401087
 20
53.299622
 11
-1.998913
 21
53.299622
  0
LINE
  8
0
 10
9.701087
 20
62.499619
 11
9.701087
 21
53.599621
  0
LINE
  8
0
 10
9.401087
 20
62.799622
 11
5.701087
 21
62.799622
  0
LINE
  8
0
 10
-2.298913
 20
62.499619
 11
-2.298913
 21
53.599621
  0
LINE
  8
0
 10
-16.298897
 20
58.049622
 11
-16.298897
 21
40.049622
  0
LINE
  8
0
 10
18.701088
 20
68.049622
 11
-11.298913
 21
68.049622
  0
LINE
  8
0
 10
15.701087
 20
66.049622
 11
-8.298913
 21
66.049622
  0
LINE
  8
0
 10
5.701087
 20
66.049622
 11
5.701087
 21
62.799622
  0
LINE
  8
0
 10
1.701087
 20
66.049622
 11
1.701087
 21
62.799622
  0
LINE
  8
0
 10
1.701087
 20
62.799622
 11
-1.998913
 21
62.799622
  0
LINE
  8
0
 10
18.501087
 20
53.049622
 11
18.501087
 21
49.049622
  0
LINE
  8
0
 10
18.701088
 20
68.049622
 11
18.701088
 21
65.465805
  0
LINE
  8
0
 10
-11.298913
 20
68.049622
 11
-11.298913
 21
65.465805
  0
LINE
  8
0
 10
5.201087
 20
41.049622
 11
2.201087
 21
41.049622
  0
LINE
  8
0
 10
2.201087
 20
41.049622
 11
2.201087
 21
40.049622
  0
LINE
  8
0
 10
5.201087
 20
41.049622
 11
5.201087
 21
40.049622
  0
LINE
  8
0
 10
2.201087
 20
40.049622
 11
-16.298897
 21
40.049622
  0
LINE
  8
0
 62
     4
 10
17.041082
 20
57.549622
 11
17.621080
 21
58.549618
  0
LINE
  8
0
 62
     4
 10
17.621086
 20
58.549622
 11
18.771088
 21
58.549622
  0
LINE
  8
0
 62
     4
 10
19.351082
 20
57.549618
 11
18.771082
 21
58.549614
  0
LINE
  8
0
 62
     4
 10
18.771078
 20
56.549606
 11
19.351082
 21
57.549614
  0
LINE
  8
0
 62
     4
 10
17.621086
 20
56.549622
 11
18.771088
 21
56.549622
  0
LINE
  8
0
 62
     4
 10
17.621088
 20
56.549622
 11
17.041088
 21
57.549618
  0
LINE
  8
0
 62
     4
 10
17.541086
 20
43.549622
 11
18.121086
 21
44.549625
  0
LINE
  8
0
 62
     4
 10
18.121086
 20
44.549622
 11
19.271088
 21
44.549622
  0
LINE
  8
0
 62
     4
 10
19.851088
 20
43.549622
 11
19.271090
 21
44.549622
  0
LINE
  8
0
 62
     4
 10
19.271086
 20
42.549622
 11
19.851086
 21
43.549625
  0
LINE
  8
0
 62
     4
 10
18.121086
 20
42.549622
 11
19.271088
 21
42.549622
  0
LINE
  8
0
 62
     4
 10
18.121086
 20
42.549622
 11
17.541086
 21
43.549622
  0
LINE
  8
0
 62
     4
 10
-11.958909
 20
57.549618
 11
-11.378908
 21
58.549618
  0
LINE
  8
0
 62
     4
 10
-11.378913
 20
58.549622
 11
-10.228912
 21
58.549622
  0
LINE
  8
0
 62
     4
 10
-9.648906
 20
57.549610
 11
-10.228910
 21
58.549618
  0
LINE
  8
0
 62
     4
 10
-10.228913
 20
56.549625
 11
-9.648914
 21
57.549622
  0
LINE
  8
0
 62
     4
 10
-11.378913
 20
56.549622
 11
-10.228912
 21
56.549622
  0
LINE
  8
0
 62
     4
 10
-11.378908
 20
56.549614
 11
-11.958913
 21
57.549618
  0
LINE
  8
0
 62
     1
 10
-155.080139
 20
53.739609
 11
-156.161957
 21
51.359619
  0
LINE
  8
0
 10
-223.298904
 20
40.049622
 11
-86.298904
 21
40.049622
  0
LINE
  8
0
 10
-101.298904
 20
40.049622
 11
-101.298904
 21
66.049606
  0
LINE
  8
0
  6
CENTER
 62
     2
 10
-91.798904
 20
54.169758
 11
-91.798904
 21
43.726471
  0
LINE
  8
0
  6
CENTER
 62
     2
 10
-97.298904
 20
49.049622
 11
-86.298904
 21
49.049622
  0
LINE
  8
0
 10
-200.798904
 20
68.049606
 11
-133.798904
 21
68.049606
  0
LINE
  8
0
 10
-200.798904
 20
68.049606
 11
-200.798904
 21
63.549606
  0
LINE
  8
0
 10
-133.798904
 20
68.049606
 11
-133.798904
 21
63.549606
  0
LINE
  8
0
 10
-133.798904
 20
63.549606
 11
-200.798904
 21
63.549606
  0
LINE
  8
0
 10
-200.398911
 20
63.549606
 11
-200.398911
 21
61.729614
  0
LINE
  8
0
 10
-201.198914
 20
60.549606
 11
-201.198914
 21
61.099609
  0
LINE
  8
0
 10
-201.198914
 20
61.099625
 11
-200.628922
 21
61.359623
  0
LINE
  8
0
 10
-86.298904
 20
40.049622
 11
-86.298904
 21
65.049606
  0
LINE
  8
0
 10
-106.298904
 20
66.049606
 11
-87.298904
 21
66.049606
  0
LINE
  8
0
 10
-104.798904
 20
66.049606
 11
-104.798904
 21
59.379608
  0
LINE
  8
0
 10
-104.798904
 20
63.049606
 11
-106.298904
 21
63.049606
  0
LINE
  8
0
 10
-106.298904
 20
63.049606
 11
-106.298904
 21
66.049606
  0
LINE
  8
0
 10
-134.198914
 20
63.549606
 11
-134.198914
 21
61.729614
  0
LINE
  8
0
 10
-133.398911
 20
60.549606
 11
-133.398911
 21
61.099609
  0
LINE
  8
0
 10
-133.398911
 20
61.099621
 11
-133.958923
 21
61.359627
  0
LINE
  8
0
 10
-223.298904
 20
40.049622
 11
-223.298904
 21
65.049606
  0
LINE
  8
0
 10
-203.298904
 20
66.049606
 11
-222.298904
 21
66.049606
  0
LINE
  8
0
 10
-204.798904
 20
66.049606
 11
-204.798904
 21
59.379608
  0
LINE
  8
0
 10
-204.798904
 20
63.049606
 11
-203.298904
 21
63.049606
  0
LINE
  8
0
 10
-203.298904
 20
63.049606
 11
-203.298904
 21
66.049606
  0
LINE
  8
0
 10
-208.298904
 20
40.049622
 11
-208.298904
 21
66.049606
  0
LINE
  8
0
  6
CENTER
 62
     2
 10
-217.798904
 20
54.549622
 11
-217.798904
 21
43.567944
  0
LINE
  8
0
  6
CENTER
 62
     2
 10
-212.298904
 20
49.049622
 11
-223.298904
 21
49.049622
  0
LINE
  8
0
 10
-204.798904
 20
60.549606
 11
-104.798904
 21
60.549606
  0
LINE
  8
0
 10
-208.298904
 20
54.149620
 11
-178.298904
 21
54.149620
  0
LINE
  8
0
 10
-183.298904
 20
50.949623
 11
-178.298904
 21
50.949623
  0
LINE
  8
0
 10
-208.298904
 20
45.649620
 11
-101.298904
 21
45.649620
  0
LINE
  8
0
 10
-208.298904
 20
42.949623
 11
-101.298904
 21
42.949623
  0
LINE
  8
0
 10
-208.298904
 20
56.589615
 11
-101.298904
 21
56.589615
  0
LINE
  8
0
 10
-191.798904
 20
57.049606
 11
-115.798904
 21
57.049606
  0
LINE
  8
0
 10
-191.798904
 20
58.049606
 11
-115.798904
 21
58.049606
  0
LINE
  8
0
 10
-191.798904
 20
58.579620
 11
-115.798904
 21
58.579620
  0
LINE
  8
0
 10
-208.298904
 20
44.549622
 11
-101.298904
 21
44.549622
  0
LINE
  8
0
 10
-208.298904
 20
43.549622
 11
-101.298904
 21
43.549622
  0
LINE
  8
0
 10
-101.298904
 20
47.049622
 11
-99.298904
 21
47.049622
  0
LINE
  8
0
 10
-101.298904
 20
55.349621
 11
-97.948914
 21
55.349621
  0
LINE
  8
0
 10
-208.298904
 20
47.049622
 11
-210.298904
 21
47.049622
  0
LINE
  8
0
 10
-208.298904
 20
55.349621
 11
-211.648911
 21
55.349621
  0
LINE
  8
0
 10
-183.298904
 20
47.049622
 11
-183.298904
 21
50.949623
  0
LINE
  8
0
 10
-208.298904
 20
47.049622
 11
-183.298904
 21
47.049622
  0
LINE
  8
0
 10
-101.298904
 20
47.049622
 11
-126.298904
 21
47.049622
  0
LINE
  8
0
 10
-126.298904
 20
47.049622
 11
-126.298904
 21
50.949623
  0
LINE
  8
0
 10
-115.798904
 20
59.379608
 11
-115.798904
 21
56.589615
  0
LINE
  8
0
 10
-115.798904
 20
59.379608
 11
-104.798904
 21
59.379608
  0
LINE
  8
0
 10
-204.798904
 20
59.379608
 11
-191.798904
 21
59.379608
  0
LINE
  8
0
 10
-191.798904
 20
59.379608
 11
-191.798904
 21
56.589615
  0
LINE
  8
0
 62
     4
 10
-157.298904
 20
54.149620
 11
-157.298904
 21
50.949623
  0
LINE
  8
0
 62
     4
 10
-163.298904
 20
54.149620
 11
-163.298904
 21
50.949623
  0
LINE
  8
0
 62
     4
 10
-178.298904
 20
54.149620
 11
-178.298904
 21
50.949623
  0
LINE
  8
0
 62
     4
 10
-179.798904
 20
53.739620
 11
-179.798904
 21
51.359619
  0
LINE
  8
0
 62
     4
 10
-178.298935
 20
54.149620
 11
-179.798920
 21
53.739620
  0
LINE
  8
0
 62
     4
 10
-178.298920
 20
50.949623
 11
-179.798920
 21
51.359623
  0
LINE
  8
0
 62
     4
 10
-179.798904
 20
53.739620
 11
-180.080139
 21
53.739620
  0
LINE
  8
0
 62
     4
 10
-179.798904
 20
51.359619
 11
-181.161957
 21
51.359619
  0
LINE
  8
0
 62
     4
 10
-159.518921
 20
53.319626
 11
-161.068924
 21
51.779633
  0
LINE
  8
0
 62
     4
 10
-159.518921
 20
51.779610
 11
-161.068924
 21
53.319618
  0
LINE
  8
0
 62
     4
 10
-132.298904
 20
54.149620
 11
-132.298904
 21
50.949623
  0
LINE
  8
0
 62
     4
 10
-138.298904
 20
54.149620
 11
-138.298904
 21
50.949623
  0
LINE
  8
0
 62
     4
 10
-153.298904
 20
54.149620
 11
-153.298904
 21
50.949623
  0
LINE
  8
0
 62
     4
 10
-154.798904
 20
53.739620
 11
-154.798904
 21
51.359619
  0
LINE
  8
0
 62
     4
 10
-153.298904
 20
54.149620
 11
-154.798904
 21
53.739620
  0
LINE
  8
0
 62
     4
 10
-153.298904
 20
50.949623
 11
-154.798904
 21
51.359623
  0
LINE
  8
0
 62
     4
 10
-154.798904
 20
53.739620
 11
-155.080139
 21
53.739620
  0
LINE
  8
0
 62
     4
 10
-154.798904
 20
51.359619
 11
-156.161957
 21
51.359619
  0
LINE
  8
0
 62
     4
 10
-134.518906
 20
53.319614
 11
-136.068909
 21
51.779617
  0
LINE
  8
0
 62
     4
 10
-134.518921
 20
51.779629
 11
-136.068909
 21
53.319622
  0
LINE
  8
0
 62
     1
 10
-180.080139
 20
53.739624
 11
-181.161957
 21
51.359623
  0
LINE
  8
0
  6
PHANTOM
 62
     1
 10
-156.666229
 20
30.781578
 11
-156.666229
 21
55.369621
  0
LINE
  8
0
 62
     4
 10
-153.298904
 20
54.149620
 11
-132.298904
 21
54.149620
  0
LINE
  8
0
 10
-132.298904
 20
54.149620
 11
-101.298904
 21
54.149620
  0
LINE
  8
0
 10
-132.298904
 20
50.949623
 11
-126.298904
 21
50.949623
  0
LINE
  8
0
 62
     4
 10
-178.298904
 20
54.149620
 11
-157.298904
 21
54.149620
  0
LINE
  8
0
 10
-157.298904
 20
54.149620
 11
-153.298904
 21
54.149620
  0
LINE
  8
0
 62
     4
 10
-178.298904
 20
50.949623
 11
-157.298904
 21
50.949623
  0
LINE
  8
0
 10
-157.298904
 20
50.949623
 11
-153.298904
 21
50.949623
  0
LINE
  8
0
 62
     4
 10
-153.298904
 20
50.949623
 11
-132.298904
 21
50.949623
  0
LINE
  8
0
  6
PHANTOM
 62
     4
 10
-156.666229
 20
55.369621
 11
-126.229492
 21
55.369621
  0
LINE
  8
0
  6
PHANTOM
 62
     4
 10
-126.229492
 20
78.049606
 11
-126.229492
 21
55.369621
  0
LINE
  8
0
  6
PHANTOM
 62
     3
 10
146.316849
 20
-107.676628
 11
141.974960
 21
-83.052559
  0
LINE
  8
0
  6
PHANTOM
 62
     3
 10
86.381409
 20
-108.042656
 11
82.002480
 21
-83.208473
  0
LINE
  8
0
 10
74.316559
 20
-9.750000
 11
282.099854
 21
-9.750000
  0
LINE
  8
0
 10
74.316559
 20
175.500000
 11
74.316559
 21
-195.000000
  0
LINE
  8
0
 62
     3
 10
219.195068
 20
-105.105072
 11
219.195068
 21
-106.105072
  0
LINE
  8
0
 62
     3
 10
237.695068
 20
-99.105072
 11
234.495071
 21
-99.105072
  0
LINE
  8
0
 62
     3
 10
237.695068
 20
-99.105072
 11
237.695068
 21
-106.105072
  0
LINE
  8
0
 62
     3
 10
232.495071
 20
-93.105072
 11
232.495071
 21
-97.105072
  0
LINE
  8
0
 62
     3
 10
237.695068
 20
-106.105072
 11
219.195068
 21
-106.105072
  0
LINE
  8
0
 62
     3
 10
237.695068
 20
-88.105072
 11
237.695068
 21
-91.105072
  0
LINE
  8
0
 62
     3
 10
237.695068
 20
-91.105072
 11
234.495071
 21
-91.105072
  0
LINE
  8
0
 62
     3
 10
232.695068
 20
-78.105072
 11
232.695068
 21
-80.688873
  0
LINE
  8
0
 62
     3
 10
229.695068
 20
-80.105072
 11
205.695068
 21
-80.105072
  0
LINE
  8
0
 62
     3
 10
216.195068
 20
-105.105072
 11
216.195068
 21
-106.105072
  0
LINE
  8
0
 62
     3
 10
216.195068
 20
-106.105072
 11
197.695068
 21
-106.105072
  0
LINE
  8
0
 62
     3
 10
219.195068
 20
-105.105072
 11
216.195068
 21
-105.105072
  0
LINE
  8
0
 62
     3
 10
202.695068
 20
-78.105072
 11
202.695068
 21
-80.688873
  0
LINE
  8
0
 62
     3
 10
232.695068
 20
-78.105072
 11
202.695068
 21
-78.105072
  0
LINE
  8
0
 62
     3
 10
197.695068
 20
-88.105072
 11
197.695068
 21
-106.105072
  0
LINE
  8
0
 10
74.316559
 20
165.500000
 11
282.099854
 21
165.500000
  0
LINE
  8
0
  6
CENTER
 62
     3
 10
217.695068
 20
-75.445755
 11
217.695068
 21
-107.875076
  0
LINE
  8
0
 62
     3
 10
135.695068
 20
-103.205063
 11
145.528397
 21
-103.205063
  0
LINE
  8
0
 62
     3
 10
86.039764
 20
-106.105072
 11
146.039734
 21
-106.105072
  0
LINE
  8
0
 62
     3
 10
85.528427
 20
-103.205063
 11
95.695068
 21
-103.205063
  0
LINE
  8
0
 62
     3
 10
85.052338
 20
-100.505066
 11
145.052307
 21
-100.505066
  0
LINE
  8
0
 62
     3
 10
82.527344
 20
-86.185074
 11
142.527313
 21
-86.185074
  0
LINE
  8
0
 10
65.750000
 20
-190.000000
 11
65.750000
 21
-178.000000
  0
LINE
  8
0
 10
47.750000
 20
-190.000000
 11
47.750000
 21
-178.000000
  0
LINE
  8
0
 10
29.750000
 20
-190.000000
 11
29.750000
 21
-178.000000
  0
LINE
  8
0
 10
11.750000
 20
-190.000000
 11
11.750000
 21
-178.000000
  0
LINE
  8
0
 10
-6.250000
 20
-190.000000
 11
-6.250000
 21
-178.000000
  0
LINE
  8
0
 10
-24.250000
 20
-190.000000
 11
-24.250000
 21
-178.000000
  0
LINE
  8
0
 10
-42.250000
 20
-190.000000
 11
-42.250000
 21
-178.000000
  0
LINE
  8
0
 10
-60.250000
 20
-190.000000
 11
-60.250000
 21
-178.000000
  0
LINE
  8
0
 10
-78.250000
 20
-190.000000
 11
-78.250000
 21
-178.000000
  0
LINE
  8
0
 10
-276.249756
 20
-190.000000
 11
65.750000
 21
-190.000000
  0
LINE
  8
0
 10
-276.249756
 20
-184.000000
 11
65.750000
 21
-184.000000
  0
LINE
  8
0
 10
-276.249756
 20
-178.000000
 11
65.750000
 21
-178.000000
  0
LINE
  8
0
 10
-276.250000
 20
-190.000000
 11
-276.250000
 21
-178.000000
  0
LINE
  8
0
 10
-240.250000
 20
-190.000000
 11
-240.250000
 21
-178.000000
  0
LINE
  8
0
 10
-222.250000
 20
-190.000000
 11
-222.250000
 21
-178.000000
  0
LINE
  8
0
 10
-204.250000
 20
-190.000000
 11
-204.250000
 21
-178.000000
  0
LINE
  8
0
 10
-186.250000
 20
-190.000000
 11
-186.250000
 21
-178.000000
  0
LINE
  8
0
 10
-168.250000
 20
-190.000000
 11
-168.250000
 21
-178.000000
  0
LINE
  8
0
 10
-150.250000
 20
-190.000000
 11
-150.250000
 21
-178.000000
  0
LINE
  8
0
 10
-132.250000
 20
-190.000000
 11
-132.250000
 21
-178.000000
  0
LINE
  8
0
 10
-114.250000
 20
-190.000000
 11
-114.250000
 21
-178.000000
  0
LINE
  8
0
 10
-96.250000
 20
-190.000000
 11
-96.250000
 21
-178.000000
  0
LINE
  8
0
 10
74.316559
 20
0.250000
 11
282.099854
 21
0.250000
  0
LINE
  8
0
 10
282.099854
 20
195.500000
 11
282.099854
 21
-195.000000
  0
LINE
  8
0
 10
-281.250000
 20
195.500000
 11
282.099854
 21
195.500000
  0
LINE
  8
0
 10
-281.250000
 20
195.500000
 11
-281.250000
 21
-195.000000
  0
LINE
  8
0
 10
-281.250000
 20
-195.000000
 11
282.099854
 21
-195.000000
  0
LINE
  8
0
 10
162.099976
 20
-175.000000
 11
162.099976
 21
-195.000000
  0
LINE
  8
0
 10
162.099976
 20
-175.000000
 11
282.099854
 21
-175.000000
  0
LINE
  8
0
 10
74.316559
 20
175.500000
 11
282.099854
 21
175.500000
  0
LINE
  8
0
 10
-281.250000
 20
175.500000
 11
-161.250000
 21
175.500000
  0
LINE
  8
0
 10
162.099976
 20
195.500000
 11
162.099976
 21
175.500000
  0
LINE
  8
0
 10
-161.250000
 20
195.500000
 11
-161.250000
 21
175.500000
  0
ARC
  8
0
 62
     4
 10
190.995071
 20
-101.405075
 40
0.300003
 50
90.000000
 51
180.000000
  0
ARC
  8
0
 62
     4
 10
244.395065
 20
-101.405075
 40
0.300003
 50
0.000000
 51
90.000000
  0
CIRCLE
  8
0
 62
     4
 10
233.577118
 20
58.041901
 40
2.750000
  0
CIRCLE
  8
0
 62
     4
 10
233.577118
 20
58.041901
 40
1.154700
  0
CIRCLE
  8
0
 62
     4
 10
247.577118
 20
87.541901
 40
2.750000
  0
CIRCLE
  8
0
 62
     4
 10
247.577118
 20
87.541901
 40
1.154700
  0
CIRCLE
  8
0
 62
     4
 10
233.577118
 20
87.041901
 40
2.750000
  0
CIRCLE
  8
0
 62
     4
 10
233.577118
 20
87.041901
 40
1.154700
  0
ARC
  8
0
 10
242.077118
 20
89.341888
 40
2.000000
 50
270.000000
 51
0.000000
  0
ARC
  8
0
 10
238.077118
 20
89.341888
 40
2.000000
 50
180.000000
 51
270.000000
  0
ARC
  8
0
 10
233.077118
 20
60.541901
 40
8.000000
 50
180.000031
 51
270.000000
  0
ARC
  8
0
 10
233.077118
 20
84.541901
 40
8.000000
 50
90.000000
 51
179.999939
  0
ARC
  8
0
 10
237.527115
 20
78.241898
 40
0.300003
 50
0.000000
 51
90.000000
  0
ARC
  8
0
 10
237.527115
 20
66.841904
 40
0.300003
 50
270.000000
 51
0.000000
  0
ARC
  8
0
 10
228.627121
 20
66.841904
 40
0.300003
 50
180.000000
 51
270.000000
  0
ARC
  8
0
 10
228.627121
 20
78.241898
 40
0.300003
 50
90.000000
 51
180.000000
  0
ARC
  8
0
 10
233.579361
 20
87.037567
 40
3.246802
 50
39.708725
 51
14.890301
  0
ARC
  8
0
 10
242.177124
 20
90.141891
 40
1.400002
 50
270.000000
 51
90.000000
  0
ARC
  8
0
 10
238.575729
 20
89.942322
 40
2.098618
 50
180.011658
 51
325.109558
  0
ARC
  8
0
 10
247.577118
 20
87.541901
 40
3.248629
 50
37.998760
 51
322.001251
  0
CIRCLE
  8
0
 10
233.577118
 20
58.041901
 40
3.250000
  0
ARC
  8
0
 62
     4
 10
186.577118
 20
52.541901
 40
2.999996
 50
270.000000
 51
0.000073
  0
ARC
  8
0
 62
     4
 10
186.577103
 20
92.541885
 40
3.000000
 50
0.000000
 51
90.000000
  0
ARC
  8
0
 62
     4
 10
117.577118
 20
92.541885
 40
3.000000
 50
90.000000
 51
179.999847
  0
ARC
  8
0
 62
     4
 10
117.577103
 20
52.541901
 40
3.000000
 50
179.999924
 51
270.000000
  0
ARC
  8
0
 10
180.077118
 20
62.541897
 40
4.999996
 50
270.000000
 51
0.000044
  0
ARC
  8
0
 10
180.077103
 20
82.541901
 40
5.000000
 50
0.000000
 51
90.000000
  0
ARC
  8
0
 10
124.077103
 20
62.541897
 40
5.000000
 50
179.999954
 51
270.000000
  0
ARC
  8
0
 10
124.077118
 20
82.541901
 40
5.000000
 50
90.000000
 51
180.000000
  0
CIRCLE
  8
0
 62
     4
 10
172.077118
 20
62.541893
 40
1.650000
  0
CIRCLE
  8
0
 10
172.077118
 20
82.541893
 40
1.650000
  0
CIRCLE
  8
0
 62
     2
 10
172.077118
 20
62.541893
 40
2.000000
  0
CIRCLE
  8
0
 62
     2
 10
172.077118
 20
82.541893
 40
2.000000
  0
CIRCLE
  8
0
 10
132.077118
 20
62.541893
 40
1.650000
  0
CIRCLE
  8
0
 62
     2
 10
132.077118
 20
62.541893
 40
2.000000
  0
CIRCLE
  8
0
 10
132.077118
 20
82.541893
 40
1.650000
  0
CIRCLE
  8
0
 62
     2
 10
132.077118
 20
82.541893
 40
2.000000
  0
ARC
  8
0
 10
180.577118
 20
67.541901
 40
1.000000
 50
270.000000
 51
0.000000
  0
ARC
  8
0
 10
180.577103
 20
77.541901
 40
1.000000
 50
0.000000
 51
90.000000
  0
ARC
  8
0
 10
123.577103
 20
67.541901
 40
1.000000
 50
180.000000
 51
270.000000
  0
ARC
  8
0
 10
123.577118
 20
77.541901
 40
1.000000
 50
90.000000
 51
180.000000
  0
ARC
  8
0
 62
     4
 10
195.077118
 20
63.536903
 40
6.495550
 50
146.395569
 51
213.604370
  0
ARC
  8
0
 62
     4
 10
195.077118
 20
81.536903
 40
6.495550
 50
146.395569
 51
213.604370
  0
ARC
  8
0
 62
     4
 10
109.077118
 20
63.536903
 40
6.500479
 50
327.789062
 51
32.210899
  0
ARC
  8
0
 62
     4
 10
109.077118
 20
81.536903
 40
6.503877
 50
326.444305
 51
33.555702
  0
ARC
  8
0
 62
     4
 10
180.577118
 20
61.541897
 40
4.999996
 50
270.000000
 51
0.000044
  0
ARC
  8
0
 62
     4
 10
180.577103
 20
83.541901
 40
5.000000
 50
0.000000
 51
90.000000
  0
ARC
  8
0
 62
     4
 10
123.277100
 20
61.541897
 40
4.999992
 50
179.999908
 51
270.000000
  0
ARC
  8
0
 62
     4
 10
123.277115
 20
83.541901
 40
5.000000
 50
90.000000
 51
180.000000
  0
CIRCLE
  8
0
 62
     1
 10
119.077118
 20
91.541885
 40
2.000000
  0
CIRCLE
  8
0
 62
     1
 10
119.077118
 20
53.541901
 40
2.000000
  0
CIRCLE
  8
0
 62
     4
 10
119.077118
 20
91.541885
 40
1.650000
  0
CIRCLE
  8
0
 62
     1
 10
185.077118
 20
53.541901
 40
2.000000
  0
CIRCLE
  8
0
 62
     1
 10
185.077118
 20
91.541885
 40
2.000000
  0
CIRCLE
  8
0
 62
     4
 10
119.077118
 20
53.541901
 40
1.650000
  0
CIRCLE
  8
0
 62
     4
 10
185.077118
 20
91.541885
 40
1.650000
  0
CIRCLE
  8
0
 62
     4
 10
185.077118
 20
53.541901
 40
1.650000
  0
ARC
  8
0
 10
97.077118
 20
53.541901
 40
1.000000
 50
179.999786
 51
270.000000
  0
ARC
  8
0
 10
97.077118
 20
91.541885
 40
1.000000
 50
90.000000
 51
180.000000
  0
ARC
  8
0
 10
107.077118
 20
63.541901
 40
5.000000
 50
323.130096
 51
36.869896
  0
ARC
  8
0
 10
107.077118
 20
81.541901
 40
5.000000
 50
323.130096
 51
36.869896
  0
CIRCLE
  8
0
 10
107.077118
 20
63.541893
 40
1.799999
  0
CIRCLE
  8
0
 10
107.077118
 20
63.541893
 40
3.250000
  0
CIRCLE
  8
0
 10
107.077118
 20
81.541893
 40
3.250000
  0
CIRCLE
  8
0
 10
107.077118
 20
81.541893
 40
1.799999
  0
ARC
  8
0
 10
-195.357941
 20
-34.281361
 40
4.998817
 50
113.569214
 51
179.979324
  0
ARC
  8
0
 10
-195.353363
 20
-54.284752
 40
5.003406
 50
179.940460
 51
246.396317
  0
ARC
  8
0
 10
-139.355576
 20
-34.281361
 40
4.998826
 50
0.020681
 51
66.430611
  0
ARC
  8
0
 10
-139.360153
 20
-54.284752
 40
5.003401
 50
293.603699
 51
0.059497
  0
CIRCLE
  8
0
  6
CENTER
 62
     1
 10
-154.856750
 20
-54.279556
 40
2.000000
  0
CIRCLE
  8
0
 62
     4
 10
-154.856750
 20
-54.279556
 40
1.349999
  0
CIRCLE
  8
0
 62
     4
 10
-147.356750
 20
-54.279556
 40
4.000000
  0
CIRCLE
  8
0
 62
     4
 10
-147.356750
 20
-54.279556
 40
3.500000
  0
CIRCLE
  8
0
 62
     4
 10
-147.356750
 20
-34.279556
 40
4.000000
  0
CIRCLE
  8
0
 62
     4
 10
-147.356750
 20
-34.279556
 40
3.500000
  0
CIRCLE
  8
0
 62
     4
 10
-154.856750
 20
-34.279556
 40
1.349999
  0
CIRCLE
  8
0
  6
CENTER
 62
     1
 10
-154.856750
 20
-34.279556
 40
2.000000
  0
CIRCLE
  8
0
  6
CENTER
 62
     1
 10
-179.856750
 20
-34.279556
 40
2.000000
  0
CIRCLE
  8
0
 62
     4
 10
-179.856750
 20
-34.279556
 40
1.349999
  0
CIRCLE
  8
0
 62
     4
 10
-187.356750
 20
-34.279556
 40
3.500000
  0
CIRCLE
  8
0
 62
     4
 10
-187.356750
 20
-54.279556
 40
4.000000
  0
CIRCLE
  8
0
 62
     4
 10
-187.356750
 20
-34.279556
 40
4.000000
  0
CIRCLE
  8
0
 62
     4
 10
-187.356750
 20
-54.279556
 40
3.500000
  0
CIRCLE
  8
0
 62
     4
 10
-179.856750
 20
-54.279556
 40
1.349999
  0
CIRCLE
  8
0
  6
CENTER
 62
     1
 10
-179.856750
 20
-54.279556
 40
2.000000
  0
CIRCLE
  8
0
 62
     4
 10
-124.356750
 20
-20.279556
 40
1.700000
  0
CIRCLE
  8
0
 62
     4
 10
-116.356750
 20
-20.279556
 40
1.700000
  0
CIRCLE
  8
0
 62
     4
 10
-124.356750
 20
-68.279556
 40
1.700000
  0
CIRCLE
  8
0
 62
     4
 10
-116.356750
 20
-68.279556
 40
1.700000
  0
CIRCLE
  8
0
 62
     4
 10
-193.356750
 20
-20.279556
 40
1.700000
  0
CIRCLE
  8
0
 62
     4
 10
-185.356750
 20
-20.279556
 40
1.700000
  0
CIRCLE
  8
0
 62
     4
 10
-193.356750
 20
-68.279556
 40
1.700000
  0
CIRCLE
  8
0
 62
     4
 10
-185.356750
 20
-68.279556
 40
1.700000
  0
CIRCLE
  8
0
 10
-10.798913
 20
-119.779556
 40
3.250000
  0
CIRCLE
  8
0
 62
     4
 10
-10.798913
 20
-119.779556
 40
2.750000
  0
CIRCLE
  8
0
 62
     4
 10
18.701088
 20
-133.779556
 40
2.750000
  0
ARC
  8
0
 10
18.701088
 20
-133.779556
 40
3.248629
 50
307.998749
 51
232.001236
  0
ARC
  8
0
 10
21.101509
 20
-124.778175
 40
2.098618
 50
90.011665
 51
235.109467
  0
ARC
  8
0
 10
21.301079
 20
-128.379562
 40
1.400000
 50
180.000000
 51
0.000000
  0
ARC
  8
0
 10
18.196754
 20
-119.781799
 40
3.246795
 50
309.708801
 51
284.890320
  0
CIRCLE
  8
0
 62
     4
 10
18.201088
 20
-119.779556
 40
2.750000
  0
ARC
  8
0
 10
9.401084
 20
-114.829559
 40
0.300003
 50
0.000000
 51
89.999451
  0
ARC
  8
0
 10
-1.998910
 20
-114.829559
 40
0.300003
 50
90.000526
 51
180.000000
  0
ARC
  8
0
 10
-1.998910
 20
-123.729553
 40
0.300003
 50
180.000000
 51
269.999481
  0
ARC
  8
0
 10
9.401084
 20
-123.729553
 40
0.300003
 50
270.000549
 51
0.000000
  0
ARC
  8
0
 10
15.701087
 20
-119.279556
 40
8.000001
 50
0.000000
 51
89.999977
  0
ARC
  8
0
 10
-8.298913
 20
-119.279556
 40
8.000000
 50
89.999977
 51
179.999939
  0
ARC
  8
0
 10
20.501076
 20
-124.279556
 40
2.000000
 50
90.000053
 51
180.000000
  0
ARC
  8
0
 10
20.501076
 20
-128.279556
 40
2.000000
 50
180.000000
 51
269.999939
  0
ARC
  8
0
 62
     4
 10
-8.298913
 20
-119.279556
 40
9.000000
 50
89.999985
 51
179.999954
  0
ARC
  8
0
 62
     4
 10
15.701087
 20
-119.279556
 40
9.000001
 50
0.000000
 51
89.999985
  0
CIRCLE
  8
0
 62
     4
 10
3.701087
 20
-102.779556
 40
5.000000
  0
CIRCLE
  8
0
 62
     1
 10
3.701087
 20
-102.779556
 40
4.500000
  0
ARC
  8
0
 62
     4
 10
-8.296869
 20
-119.276672
 40
15.002044
 50
109.436188
 51
180.011017
  0
ARC
  8
0
 62
     4
 10
15.700705
 20
-119.279022
 40
15.000381
 50
359.997925
 51
70.608749
  0
ARC
  8
0
 62
     4
 10
24.701088
 20
-130.279556
 40
1.199997
 50
270.000000
 51
0.000000
  0
ARC
  8
0
 62
     4
 10
24.701088
 20
-123.479553
 40
1.199997
 50
0.000000
 51
90.000000
  0
ARC
  8
0
 62
     4
 10
-17.298912
 20
-130.279556
 40
1.200001
 50
180.000000
 51
270.000000
  0
ARC
  8
0
 62
     4
 10
-17.298912
 20
-123.479553
 40
1.199997
 50
89.999908
 51
180.000000
  0
ARC
  8
0
 62
     4
 10
3.696087
 20
-102.779556
 40
7.092473
 50
263.726746
 51
276.273315
  0
ARC
  8
0
 62
     4
 10
3.699016
 20
-102.775986
 40
7.101832
 50
23.716295
 51
36.320435
  0
ARC
  8
0
 62
     4
 10
3.703348
 20
-102.775650
 40
7.096864
 50
323.675140
 51
336.288147
  0
ARC
  8
0
 62
     4
 10
3.717154
 20
-102.807587
 40
7.100894
 50
203.416519
 51
215.981857
  0
ARC
  8
0
 62
     4
 10
3.696087
 20
-102.779572
 40
7.102408
 50
83.735497
 51
96.264412
  0
ARC
  8
0
 62
     4
 10
3.721496
 20
-102.744019
 40
7.105861
 50
144.022583
 51
156.579102
  0
ARC
  8
0
 62
     4
 10
3.696087
 20
-110.279572
 40
15.001224
 50
35.681976
 51
144.318024
  0
ARC
  8
0
 62
     4
 10
24.005363
 20
-95.697189
 40
10.001033
 50
215.674377
 51
250.585876
  0
ARC
  8
0
 62
     4
 10
-16.609596
 20
-95.701981
 40
9.995315
 50
289.403870
 51
324.335968
  0
CIRCLE
  8
0
 62
     4
 10
18.201088
 20
-119.779556
 40
1.154700
  0
CIRCLE
  8
0
 62
     4
 10
18.701088
 20
-133.779556
 40
1.154700
  0
CIRCLE
  8
0
 62
     4
 10
-10.798913
 20
-119.779556
 40
1.154700
  0
CIRCLE
  8
0
 62
     1
 10
-91.856750
 20
-128.279556
 40
2.500000
  0
CIRCLE
  8
0
 62
     4
 10
-91.856750
 20
-128.279556
 40
1.849999
  0
ARC
  8
0
 10
-133.860001
 20
-115.595062
 40
0.396785
 50
180.650009
 51
246.729950
  0
CIRCLE
  8
0
 62
     4
 10
-91.856750
 20
-128.279556
 40
4.000000
  0
ARC
  8
0
 10
-200.855621
 20
-115.598206
 40
0.398869
 50
295.047485
 51
359.804932
  0
ARC
  8
0
 62
     4
 10
-91.856750
 20
-128.279556
 40
7.500000
 50
90.000000
 51
180.000000
  0
ARC
  8
0
 62
     4
 10
-112.356750
 20
-115.279572
 40
6.000000
 50
270.000000
 51
0.000000
  0
ARC
  8
0
 62
     4
 10
-217.856750
 20
-128.279556
 40
7.500000
 50
0.000000
 51
90.000000
  0
CIRCLE
  8
0
 62
     4
 10
-217.856750
 20
-128.279556
 40
4.000000
  0
CIRCLE
  8
0
 62
     4
 10
-217.856750
 20
-128.279556
 40
1.849999
  0
CIRCLE
  8
0
 62
     1
 10
-217.856750
 20
-128.279556
 40
2.500000
  0
ARC
  8
0
 62
     4
 10
-197.356750
 20
-115.279572
 40
6.000000
 50
180.000000
 51
270.000000
  0
CIRCLE
  8
0
 10
-212.298904
 20
121.549622
 40
1.799999
  0
CIRCLE
  8
0
 10
-212.298904
 20
121.549622
 40
3.250000
  0
CIRCLE
  8
0
 10
-212.298904
 20
103.549622
 40
3.250000
  0
CIRCLE
  8
0
 10
-212.298904
 20
103.549622
 40
1.799999
  0
CIRCLE
  8
0
 10
-97.298904
 20
103.549622
 40
1.799999
  0
CIRCLE
  8
0
 10
-97.298904
 20
103.549622
 40
3.250000
  0
CIRCLE
  8
0
 10
-97.298904
 20
121.549622
 40
1.799999
  0
CIRCLE
  8
0
 10
-97.298904
 20
121.549622
 40
3.250000
  0
ARC
  8
0
 10
-212.298904
 20
121.549622
 40
5.000000
 50
323.130096
 51
36.869896
  0
ARC
  8
0
 10
-212.298904
 20
103.549622
 40
5.000000
 50
323.130096
 51
36.869896
  0
ARC
  8
0
 10
-97.298904
 20
103.549622
 40
5.000000
 50
143.130096
 51
216.869904
  0
ARC
  8
0
 10
-97.298904
 20
121.549622
 40
5.000000
 50
143.130096
 51
216.869904
  0
ARC
  8
0
 10
-195.798904
 20
117.549622
 40
1.000000
 50
90.000000
 51
180.000000
  0
ARC
  8
0
 10
-195.798904
 20
107.549622
 40
1.000000
 50
180.000000
 51
270.000000
  0
ARC
  8
0
 10
-138.798904
 20
117.549622
 40
1.000000
 50
0.000000
 51
90.000000
  0
ARC
  8
0
 10
-138.798904
 20
107.549622
 40
1.000000
 50
270.000000
 51
0.000000
  0
ARC
  8
0
 10
-195.298904
 20
122.549622
 40
5.000000
 50
90.000000
 51
180.000000
  0
ARC
  8
0
 10
-195.298904
 20
102.549622
 40
5.000000
 50
180.000000
 51
270.000000
  0
ARC
  8
0
 10
-139.298904
 20
122.549622
 40
5.000000
 50
0.000000
 51
90.000000
  0
ARC
  8
0
 10
-139.298904
 20
102.549622
 40
5.000000
 50
270.000000
 51
0.000000
  0
ARC
  8
0
 10
-205.298904
 20
93.549637
 40
1.000000
 50
270.000000
 51
0.000000
  0
ARC
  8
0
 10
-104.298904
 20
93.549637
 40
1.000000
 50
180.000000
 51
270.000000
  0
ARC
  8
0
 10
-205.298904
 20
131.549622
 40
1.000000
 50
0.000000
 51
90.000000
  0
ARC
  8
0
 10
-104.298904
 20
131.549622
 40
1.000000
 50
90.000000
 51
180.000000
  0
CIRCLE
  8
0
 62
     2
 10
-147.298904
 20
122.549622
 40
2.000000
  0
CIRCLE
  8
0
 10
-147.298904
 20
122.549622
 40
1.349999
  0
CIRCLE
  8
0
 62
     2
 10
-187.298904
 20
122.549622
 40
2.000000
  0
CIRCLE
  8
0
 10
-187.298904
 20
122.549622
 40
1.349999
  0
CIRCLE
  8
0
 62
     2
 10
-147.298904
 20
102.549622
 40
2.000000
  0
CIRCLE
  8
0
 10
-147.298904
 20
102.549622
 40
1.349999
  0
CIRCLE
  8
0
 62
     2
 10
-187.298904
 20
102.549622
 40
2.000000
  0
CIRCLE
  8
0
 10
-187.298904
 20
102.549622
 40
1.349999
  0
ARC
  8
0
 10
-87.298904
 20
131.549622
 40
1.000000
 50
0.000000
 51
90.000000
  0
ARC
  8
0
 10
-87.298904
 20
93.549637
 40
1.000000
 50
270.000000
 51
0.000000
  0
ARC
  8
0
 10
-222.298904
 20
131.549622
 40
1.000000
 50
90.000000
 51
180.000000
  0
ARC
  8
0
 10
-222.298904
 20
93.549637
 40
1.000000
 50
180.000000
 51
270.000000
  0
ARC
  8
0
 10
-105.690918
 20
119.544624
 40
0.299548
 50
279.998779
 51
80.001236
  0
ARC
  8
0
 10
-105.690918
 20
117.544624
 40
0.299548
 50
279.998779
 51
80.001236
  0
ARC
  8
0
 10
-105.690918
 20
115.544624
 40
0.299548
 50
279.998779
 51
80.001236
  0
ARC
  8
0
 10
-105.690918
 20
113.544624
 40
0.299548
 50
279.998779
 51
80.001236
  0
ARC
  8
0
 10
-105.690918
 20
111.544624
 40
0.299548
 50
279.998779
 51
80.001236
  0
ARC
  8
0
 10
-105.690918
 20
109.544624
 40
0.299548
 50
279.998779
 51
80.001236
  0
ARC
  8
0
 10
-105.690918
 20
107.544624
 40
0.299548
 50
279.998779
 51
80.001236
  0
ARC
  8
0
 10
-105.690918
 20
105.544624
 40
0.299548
 50
279.998779
 51
80.001236
  0
ARC
  8
0
 10
-203.906921
 20
117.544624
 40
0.299544
 50
99.994453
 51
260.005554
  0
ARC
  8
0
 10
-203.906921
 20
119.544624
 40
0.299544
 50
99.994453
 51
260.005554
  0
ARC
  8
0
 10
-203.906921
 20
115.544624
 40
0.299544
 50
99.994453
 51
260.005554
  0
ARC
  8
0
 10
-203.906921
 20
113.544624
 40
0.299544
 50
99.994453
 51
260.005554
  0
ARC
  8
0
 10
-203.906921
 20
111.544624
 40
0.299544
 50
99.994453
 51
260.005554
  0
ARC
  8
0
 10
-203.906921
 20
109.544624
 40
0.299544
 50
99.994453
 51
260.005554
  0
ARC
  8
0
 10
-203.906921
 20
107.544624
 40
0.299544
 50
99.994453
 51
260.005554
  0
ARC
  8
0
 10
-203.906921
 20
105.544624
 40
0.299544
 50
99.994453
 51
260.005554
  0
CIRCLE
  8
0
 10
-10.798913
 20
57.549622
 40
3.250000
  0
ARC
  8
0
 10
18.701088
 20
43.549622
 40
3.248629
 50
307.998749
 51
232.001236
  0
ARC
  8
0
 10
21.101509
 20
52.551003
 40
2.098618
 50
90.011665
 51
235.109467
  0
ARC
  8
0
 10
21.301079
 20
48.949623
 40
1.400000
 50
180.000000
 51
0.000000
  0
ARC
  8
0
 10
18.196754
 20
57.547379
 40
3.246798
 50
309.708740
 51
284.890350
  0
ARC
  8
0
 10
9.401084
 20
62.499619
 40
0.300003
 50
0.000729
 51
89.999451
  0
ARC
  8
0
 10
-1.998910
 20
62.499619
 40
0.300003
 50
90.000526
 51
179.999268
  0
ARC
  8
0
 10
-1.998910
 20
53.599625
 40
0.300003
 50
180.000732
 51
269.999481
  0
ARC
  8
0
 10
9.401084
 20
53.599625
 40
0.300003
 50
270.000549
 51
359.999268
  0
ARC
  8
0
 10
15.701087
 20
58.049622
 40
8.000001
 50
0.000000
 51
89.999977
  0
ARC
  8
0
 10
-8.298913
 20
58.049622
 40
8.000000
 50
89.999977
 51
179.999969
  0
ARC
  8
0
 10
20.501076
 20
53.049622
 40
2.000000
 50
90.000053
 51
179.999893
  0
ARC
  8
0
 10
20.501076
 20
49.049622
 40
2.000000
 50
180.000107
 51
269.999939
  0
CIRCLE
  8
0
 62
     4
 10
18.201088
 20
57.549622
 40
1.154700
  0
CIRCLE
  8
0
 62
     4
 10
18.201088
 20
57.549622
 40
2.750000
  0
CIRCLE
  8
0
 62
     4
 10
18.701088
 20
43.549622
 40
1.154700
  0
CIRCLE
  8
0
 62
     4
 10
18.701088
 20
43.549622
 40
2.750000
  0
CIRCLE
  8
0
 62
     4
 10
-10.798913
 20
57.549622
 40
1.154700
  0
CIRCLE
  8
0
 62
     4
 10
-10.798913
 20
57.549622
 40
2.750000
  0
CIRCLE
  8
0
 62
     2
 10
-91.798904
 20
49.049622
 40
2.500000
  0
CIRCLE
  8
0
 10
-91.798904
 20
49.049622
 40
1.849999
  0
ARC
  8
0
 10
-200.802261
 20
61.723862
 40
0.403391
 50
295.451324
 51
0.817635
  0
CIRCLE
  8
0
 10
-91.798904
 20
49.049622
 40
4.000000
  0
ARC
  8
0
 10
-133.797577
 20
61.727112
 40
0.401345
 50
179.642212
 51
246.296280
  0
ARC
  8
0
 10
-87.298904
 20
65.049606
 40
1.000000
 50
0.000000
 51
90.000000
  0
ARC
  8
0
 10
-222.298904
 20
65.049606
 40
1.000000
 50
90.000000
 51
180.000000
  0
CIRCLE
  8
0
 62
     2
 10
-217.798904
 20
49.049622
 40
2.500000
  0
CIRCLE
  8
0
 10
-217.798904
 20
49.049622
 40
1.849999
  0
CIRCLE
  8
0
 10
-217.798904
 20
49.049622
 40
4.000000
  0
ARC
  8
0
 10
-91.798340
 20
49.051441
 40
5.500573
 50
145.086685
 51
180.018921
  0
ARC
  8
0
 10
-99.298904
 20
49.049622
 40
2.000000
 50
270.000000
 51
0.000000
  0
ARC
  8
0
 10
-97.944138
 20
53.350185
 40
1.999443
 50
324.869446
 51
90.136642
  0
ARC
  8
0
 10
-217.799484
 20
49.051441
 40
5.500565
 50
359.981049
 51
34.913307
  0
ARC
  8
0
 10
-211.653671
 20
53.350185
 40
1.999441
 50
89.863136
 51
215.130661
  0
ARC
  8
0
 10
-210.298904
 20
49.049622
 40
2.000000
 50
180.000000
 51
270.000000
  0
CIRCLE
  8
0
 62
     4
 10
-160.298904
 20
52.549622
 40
1.500000
  0
CIRCLE
  8
0
 62
     4
 10
-135.298904
 20
52.549622
 40
1.500000
  0
ARC
  8
0
 62
     3
 10
234.495071
 20
-97.105072
 40
2.000000
 50
180.000000
 51
270.000000
  0
ARC
  8
0
 62
     3
 10
229.695068
 20
-88.105072
 40
8.000000
 50
0.000000
 51
90.000000
  0
ARC
  8
0
 62
     3
 10
234.495071
 20
-93.105072
 40
2.000000
 50
90.000000
 51
180.000000
  0
ARC
  8
0
 62
     3
 10
205.695068
 20
-88.105072
 40
8.000000
 50
90.000000
 51
179.999939
  0
TEXT
  8
0
 62
     3
 10
-158.417480
 20
-11.365792
 40
4.500000
  1
STRETCH LINE
 50
0.000000
 41
1.052632
 51
0.000000
  7
STANDARD
  0
TEXT
  8
0
 10
-270.429352
 20
0.576369
 40
6.300000
  1
MODEL:ORV16*ST(25)-K2
 50
0.000000
 41
1.052632
 51
0.000000
  7
STANDARD
  0
TEXT
  8
0
 10
153.216019
 20
167.449997
 40
4.500000
  1
M-MOUNT(-M)
 50
0.000000
 41
1.052632
 51
0.000000
  7
STANDARD
  0
TEXT
  8
0
 10
148.716019
 20
-7.800000
 40
4.500000
  1
F-SUPPORT(-F)
 50
0.000000
 41
1.052632
 51
0.000000
  7
STANDARD
  0
TEXT
  8
0
 10
49.757812
 20
-184.050003
 40
4.500000
  1
800
 50
0.000000
 41
1.052632
 51
0.000000
  7
STANDARD
  0
TEXT
  8
0
 10
49.757812
 20
-190.050003
 40
4.500000
  1
775
 50
0.000000
 41
1.052632
 51
0.000000
  7
STANDARD
  0
TEXT
  8
0
 10
31.757812
 20
-184.050003
 40
4.500000
  1
700
 50
0.000000
 41
1.052632
 51
0.000000
  7
STANDARD
  0
TEXT
  8
0
 10
31.757812
 20
-190.050003
 40
4.500000
  1
675
 50
0.000000
 41
1.052632
 51
0.000000
  7
STANDARD
  0
TEXT
  8
0
 10
13.757813
 20
-184.050003
 40
4.500000
  1
600
 50
0.000000
 41
1.052632
 51
0.000000
  7
STANDARD
  0
TEXT
  8
0
 10
13.757813
 20
-190.050003
 40
4.500000
  1
575
 50
0.000000
 41
1.052632
 51
0.000000
  7
STANDARD
  0
TEXT
  8
0
 10
-4.242187
 20
-184.050003
 40
4.500000
  1
500
 50
0.000000
 41
1.052632
 51
0.000000
  7
STANDARD
  0
TEXT
  8
0
 10
-4.242187
 20
-190.050003
 40
4.500000
  1
475
 50
0.000000
 41
1.052632
 51
0.000000
  7
STANDARD
  0
TEXT
  8
0
 10
-22.242187
 20
-184.050003
 40
4.500000
  1
450
 50
0.000000
 41
1.052632
 51
0.000000
  7
STANDARD
  0
TEXT
  8
0
 10
-22.242187
 20
-190.050003
 40
4.500000
  1
425
 50
0.000000
 41
1.052632
 51
0.000000
  7
STANDARD
  0
TEXT
  8
0
 10
-40.242187
 20
-184.050003
 40
4.500000
  1
400
 50
0.000000
 41
1.052632
 51
0.000000
  7
STANDARD
  0
TEXT
  8
0
 10
-40.242187
 20
-190.050003
 40
4.500000
  1
375
 50
0.000000
 41
1.052632
 51
0.000000
  7
STANDARD
  0
TEXT
  8
0
 10
-58.242187
 20
-184.050003
 40
4.500000
  1
350
 50
0.000000
 41
1.052632
 51
0.000000
  7
STANDARD
  0
TEXT
  8
0
 10
-58.242187
 20
-190.050003
 40
4.500000
  1
325
 50
0.000000
 41
1.052632
 51
0.000000
  7
STANDARD
  0
TEXT
  8
0
 10
-76.242187
 20
-184.050003
 40
4.500000
  1
300
 50
0.000000
 41
1.052632
 51
0.000000
  7
STANDARD
  0
TEXT
  8
0
 10
-76.242187
 20
-190.050003
 40
4.500000
  1
275
 50
0.000000
 41
1.052632
 51
0.000000
  7
STANDARD
  0
TEXT
  8
0
 10
-94.242187
 20
-184.050003
 40
4.500000
  1
250
 50
0.000000
 41
1.052632
 51
0.000000
  7
STANDARD
  0
TEXT
  8
0
 10
-94.242187
 20
-190.050003
 40
4.500000
  1
225
 50
0.000000
 41
1.052632
 51
0.000000
  7
STANDARD
  0
TEXT
  8
0
 62
     3
 10
-151.752182
 20
147.208221
 40
4.500000
  1
STRETCH LINE
 50
0.000000
 41
1.052632
 51
0.000000
  7
STANDARD
  0
TEXT
  8
0
 10
-270.376709
 20
146.259644
 40
6.300000
  1
(WITH SENSOR SWITCH)
 50
0.000000
 41
0.918964
 51
0.000000
  7
STANDARD
  0
TEXT
  8
0
 10
-270.049713
 20
155.830002
 40
6.300000
  1
MODEL:ORV16*ST(25)
 50
0.000000
 41
1.052632
 51
0.000000
  7
STANDARD
  0
TEXT
  8
0
 10
-271.992187
 20
-184.050003
 40
4.500000
  1
STROKE
 50
0.000000
 41
1.052632
 51
0.000000
  7
STANDARD
  0
TEXT
  8
0
 10
-235.992187
 20
-184.050003
 40
4.500000
  1
25
 50
0.000000
 41
1.052632
 51
0.000000
  7
STANDARD
  0
TEXT
  8
0
 10
-217.992187
 20
-184.050003
 40
4.500000
  1
50
 50
0.000000
 41
1.052632
 51
0.000000
  7
STANDARD
  0
TEXT
  8
0
 10
-199.992187
 20
-184.050003
 40
4.500000
  1
75
 50
0.000000
 41
1.052632
 51
0.000000
  7
STANDARD
  0
TEXT
  8
0
 10
-184.242187
 20
-184.050003
 40
4.500000
  1
100
 50
0.000000
 41
1.052632
 51
0.000000
  7
STANDARD
  0
TEXT
  8
0
 10
-166.242187
 20
-184.050003
 40
4.500000
  1
125
 50
0.000000
 41
1.052632
 51
0.000000
  7
STANDARD
  0
TEXT
  8
0
 10
-148.242187
 20
-184.050003
 40
4.500000
  1
150
 50
0.000000
 41
1.052632
 51
0.000000
  7
STANDARD
  0
TEXT
  8
0
 10
-130.242187
 20
-184.050003
 40
4.500000
  1
175
 50
0.000000
 41
1.052632
 51
0.000000
  7
STANDARD
  0
TEXT
  8
0
 10
-112.242187
 20
-184.050003
 40
4.500000
  1
200
 50
0.000000
 41
1.052632
 51
0.000000
  7
STANDARD
  0
TEXT
  8
0
 10
-112.242187
 20
-190.050003
 40
4.500000
  1
175
 50
0.000000
 41
1.052632
 51
0.000000
  7
STANDARD
  0
TEXT
  8
0
 10
-130.242187
 20
-190.050003
 40
4.500000
  1
150
 50
0.000000
 41
1.052632
 51
0.000000
  7
STANDARD
  0
TEXT
  8
0
 10
-148.242187
 20
-190.050003
 40
4.500000
  1
125
 50
0.000000
 41
1.052632
 51
0.000000
  7
STANDARD
  0
TEXT
  8
0
 10
-166.242187
 20
-190.050003
 40
4.500000
  1
100
 50
0.000000
 41
1.052632
 51
0.000000
  7
STANDARD
  0
TEXT
  8
0
 10
-181.992187
 20
-190.050003
 40
4.500000
  1
75
 50
0.000000
 41
1.052632
 51
0.000000
  7
STANDARD
  0
TEXT
  8
0
 10
-199.992187
 20
-190.050003
 40
4.500000
  1
50
 50
0.000000
 41
1.052632
 51
0.000000
  7
STANDARD
  0
TEXT
  8
0
 10
-217.992187
 20
-190.050003
 40
4.500000
  1
25
 50
0.000000
 41
1.052632
 51
0.000000
  7
STANDARD
  0
TEXT
  8
0
 10
-233.742187
 20
-190.050003
 40
4.500000
  1
0
 50
0.000000
 41
1.052632
 51
0.000000
  7
STANDARD
  0
TEXT
  8
0
 10
-274.242187
 20
-190.050003
 40
4.500000
  1
STRETCH
 50
0.000000
 41
1.052632
 51
0.000000
  7
STANDARD
  0
TEXT
  8
0
 10
48.001343
 20
-176.455368
 40
4.500000
  1
（ｍｍ）
 50
0.000000
 41
0.833333
 51
0.000000
  7
STANDARD
  0
TEXT
  8
0
 10
-132.918945
 20
-176.455368
 40
4.500000
  1
STRETCH LIST
 50
0.000000
 41
1.052632
 51
0.000000
  7
STANDARD
  0
TEXT
  8
0
 10
196.250259
 20
180.830002
 40
6.300000
  1
Ｖｅｒ．　１．０
 50
0.000000
 41
0.833333
 51
0.000000
  7
STANDARD
  0
TEXT
  8
0
 10
167.564651
 20
-192.100006
 40
9.000000
  1
KOGANEI CORP.
 50
0.000000
 41
1.052632
 51
0.000000
  7
STANDARD
  0
TEXT
  8
0
 10
-272.299744
 20
180.830002
 40
6.300000
  1
RODLESS CYLINDER
 50
0.000000
 41
1.052632
 51
0.000000
  7
STANDARD
  0
ENDSEC
  0
EOF
