  0
SECTION
  2
HEADER
  9
$ACADVER
  1
AC1003
  9
$EXTMIN
 10
-2.81250000E+02
 20
-1.95000000E+02
  9
$EXTMAX
 10
2.82099854E+02
 20
1.95500000E+02
  9
$LIMMIN
 10
-2.81251000E+02
 20
-1.95001000E+02
  9
$LIMMAX
 10
2.82100854E+02
 20
1.95501000E+02
  9
$SNAPUNIT
 10
1
 20
1
  9
$SNAPBASE
 10
0
 20
0
  9
$GRIDMODE
 70
0
  9
$GRIDUNIT
 10
0
 20
0
  9
$LTSCALE
 40
9.38916423E+00
  9
$TEXTSIZE
 40
3.2
  9
$DIMTAD
 70
0
  9
$LUNITS
 70
2
  9
$LUPREC
 70
4
  9
$FILLETRAD
 40
0
  9
$AUNITS
 70
0
  9
$AUPREC
 70
0
  0
ENDSEC
  0
SECTION
  2
TABLES
  0
TABLE
  2
LTYPE
 70
2
  0
LTYPE
  2
CONTINUOUS
 70
64
  3
Solid-Line
 72
65
 73
0
 40
0
  0
LTYPE
  2
DASHED
 70
64
  3
DASHED
 72
65
 73
2
 40
.75
 49
.5
 49
-.25
  0
LTYPE
  2
HIDDEN
 70
64
  3
HIDDEN
 72
65
 73
2
 40
.375
 49
.25
 49
-.125
  0
LTYPE
  2
CENTER
 70
64
  3
CENTER
 72
65
 73
4
 40
2
 49
1.25
 49
-.25
 49
.25
 49
-.25
  0
LTYPE
  2
PHANTOM
 70
64
  3
PHANTOM
 72
65
 73
6
 40
2.5
 49
1.25
 49
-.25
 49
.25
 49
-.25
 49
.25
 49
-.25
  0
ENDTAB
  0
TABLE
  2
LAYER
 70
1
  0
LAYER
  2
0
 70
0
 62
3
  6
CONTINUOUS
 0
ENDTAB
  0
TABLE
  2
STYLE
 70
2
  0
STYLE
  2
MONOTXT
 70
0
 40
0
 41
1
 50
0
 71
0
 42
.2
  3
monotxt
  0
STYLE
  2
BIGFONT
 70
0
 40
0
 41
1
 50
0
 71
0
 42
.2
  3
txt
  4
bigfont
  0
ENDTAB
  0
ENDSEC
  0
SECTION
  2
ENTITIES
  0
LINE
  8
0
  6
CENTER
 62
2
 10
-1.75151046E+02
 20
7.01375644E+01
 11
-1.75151046E+02
 21
2.81375644E+01
  0
LINE
  8
0
  6
PHANTOM
 10
-1.25151046E+02
 20
7.25984730E+01
 11
-1.25151046E+02
 21
5.03375690E+01
  0
LINE
  8
0
  6
PHANTOM
 10
-1.55151046E+02
 20
5.03375690E+01
 11
-1.25151046E+02
 21
5.03375690E+01
  0
LINE
  8
0
  6
PHANTOM
 10
-1.55151046E+02
 20
5.03375690E+01
 11
-1.55151046E+02
 21
2.36040113E+01
  0
LINE
  8
0
 62
4
 10
-1.37651046E+02
 20
4.59475641E+01
 11
-1.44014089E+02
 21
4.59475641E+01
  0
LINE
  8
0
 62
4
 10
-1.36151046E+02
 20
4.55375641E+01
 11
-1.37651046E+02
 21
4.59475641E+01
  0
LINE
  8
0
 62
6
 10
-1.42932271E+02
 20
4.83275641E+01
 11
-1.44014089E+02
 21
4.59475641E+01
  0
LINE
  8
0
 62
4
 10
-1.37651046E+02
 20
4.83275641E+01
 11
-1.42932271E+02
 21
4.83275641E+01
  0
LINE
  8
0
 62
4
 10
-1.36151046E+02
 20
4.87375641E+01
 11
-1.37651046E+02
 21
4.83275641E+01
  0
LINE
  8
0
 62
4
 10
-1.37651046E+02
 20
4.83275641E+01
 11
-1.37651046E+02
 21
4.59475641E+01
  0
LINE
  8
0
 62
4
 10
-1.36151046E+02
 20
4.87375641E+01
 11
-1.36151046E+02
 21
4.55375641E+01
  0
LINE
  8
0
 62
4
 10
-1.15151046E+02
 20
4.87375641E+01
 11
-1.15151046E+02
 21
4.55375641E+01
  0
LINE
  8
0
 62
4
 10
-1.21151046E+02
 20
4.87375641E+01
 11
-1.21151046E+02
 21
4.55375641E+01
  0
CIRCLE
  8
0
 62
4
 10
-1.18151046E+02
 20
4.71375641E+01
 40
1.50000000E+00
  0
LINE
  8
0
 62
4
 10
-1.17371046E+02
 20
4.79075641E+01
 11
-1.18921046E+02
 21
4.63675641E+01
  0
LINE
  8
0
 62
4
 10
-1.17371046E+02
 20
4.63675641E+01
 11
-1.18921046E+02
 21
4.79075641E+01
  0
LINE
  8
0
 62
4
 10
-1.36151046E+02
 20
4.55375641E+01
 11
-1.15151046E+02
 21
4.55375641E+01
  0
LINE
  8
0
 62
4
 10
-1.36151046E+02
 20
4.87375641E+01
 11
-1.15151046E+02
 21
4.87375641E+01
  0
LINE
  8
0
 62
4
 10
-1.87651046E+02
 20
4.59475641E+01
 11
-1.94014089E+02
 21
4.59475641E+01
  0
LINE
  8
0
 62
4
 10
-1.86151046E+02
 20
4.55375641E+01
 11
-1.87651046E+02
 21
4.59475641E+01
  0
LINE
  8
0
 62
6
 10
-1.92932271E+02
 20
4.83275641E+01
 11
-1.94014089E+02
 21
4.59475641E+01
  0
LINE
  8
0
 62
4
 10
-1.87651046E+02
 20
4.83275641E+01
 11
-1.92932271E+02
 21
4.83275641E+01
  0
LINE
  8
0
 62
4
 10
-1.86151046E+02
 20
4.87375641E+01
 11
-1.87651046E+02
 21
4.83275641E+01
  0
LINE
  8
0
 62
4
 10
-1.87651046E+02
 20
4.83275641E+01
 11
-1.87651046E+02
 21
4.59475641E+01
  0
LINE
  8
0
 62
4
 10
-1.86151046E+02
 20
4.87375641E+01
 11
-1.86151046E+02
 21
4.55375641E+01
  0
LINE
  8
0
 62
4
 10
-1.65151046E+02
 20
4.87375641E+01
 11
-1.65151046E+02
 21
4.55375641E+01
  0
LINE
  8
0
 62
4
 10
-1.71151046E+02
 20
4.87375641E+01
 11
-1.71151046E+02
 21
4.55375641E+01
  0
CIRCLE
  8
0
 62
4
 10
-1.68151046E+02
 20
4.71375641E+01
 40
1.50000000E+00
  0
LINE
  8
0
 62
4
 10
-1.67371046E+02
 20
4.79075641E+01
 11
-1.68921046E+02
 21
4.63675641E+01
  0
LINE
  8
0
 62
4
 10
-1.67371046E+02
 20
4.63675641E+01
 11
-1.68921046E+02
 21
4.79075641E+01
  0
LINE
  8
0
 62
4
 10
-1.86151046E+02
 20
4.55375641E+01
 11
-1.65151046E+02
 21
4.55375641E+01
  0
LINE
  8
0
 62
4
 10
-1.86151046E+02
 20
4.87375641E+01
 11
-1.65151046E+02
 21
4.87375641E+01
  0
ARC
  8
0
 62
7
 10
-2.20151046E+02
 20
5.61375644E+01
 40
1.50000000E+00
 50
1.79999991E+02
 51
2.70000000E+02
  0
CIRCLE
  8
0
 62
7
 10
-2.35151046E+02
 20
4.16375644E+01
 40
4.15000010E+00
  0
CIRCLE
  8
0
 62
2
 10
-2.35151046E+02
 20
4.16375644E+01
 40
5.00000000E+00
  0
CIRCLE
  8
0
 62
2
 10
-6.51510459E+01
 20
4.16375644E+01
 40
5.00000000E+00
  0
CIRCLE
  8
0
 62
7
 10
-6.51510459E+01
 20
4.16375644E+01
 40
4.15000010E+00
  0
ARC
  8
0
 62
7
 10
-2.35151046E+02
 20
4.16375644E+01
 40
8.00000000E+00
 50
6.37936423E+00
 51
3.90501278E+01
  0
ARC
  8
0
 62
7
 10
-2.26206771E+02
 20
4.26375644E+01
 40
1.00000000E+00
 50
1.86379365E+02
 51
2.70000000E+02
  0
ARC
  8
0
 62
7
 10
-2.27385116E+02
 20
4.79375637E+01
 40
2.00000000E+00
 50
9.00000002E+01
 51
2.19050123E+02
  0
CIRCLE
  8
0
 62
7
 10
-2.37151046E+02
 20
4.31375644E+01
 40
8.99999976E-01
  0
CIRCLE
  8
0
 62
7
 10
-2.35151046E+02
 20
4.16375644E+01
 40
6.00000000E+00
  0
ARC
  8
0
 62
7
 10
-2.23151046E+02
 20
6.16375644E+01
 40
1.50000000E+00
 50
3.59999995E+02
 51
9.00000002E+01
  0
ARC
  8
0
 62
7
 10
-8.01510459E+01
 20
5.61375644E+01
 40
1.50000000E+00
 50
2.70000000E+02
 51
8.65142224E-06
  0
ARC
  8
0
 62
7
 10
-7.71510459E+01
 20
6.16375644E+01
 40
1.50000000E+00
 50
9.00000002E+01
 51
1.80000005E+02
  0
ARC
  8
0
 62
7
 10
-5.86510459E+01
 20
6.16375644E+01
 40
1.50000000E+00
 50
3.59999995E+02
 51
9.00000002E+01
  0
ARC
  8
0
 62
7
 10
-6.51510459E+01
 20
4.16375644E+01
 40
8.00000000E+00
 50
1.40949874E+02
 51
1.73620636E+02
  0
ARC
  8
0
 62
7
 10
-7.40953208E+01
 20
4.26375644E+01
 40
1.00000000E+00
 50
2.70000000E+02
 51
3.53620636E+02
  0
ARC
  8
0
 62
7
 10
-7.29169761E+01
 20
4.79375637E+01
 40
2.00000000E+00
 50
3.20949879E+02
 51
9.00000002E+01
  0
CIRCLE
  8
0
 62
7
 10
-6.31510459E+01
 20
4.31375644E+01
 40
8.99999976E-01
  0
CIRCLE
  8
0
 62
7
 10
-6.51510459E+01
 20
4.16375644E+01
 40
6.00000000E+00
  0
ARC
  8
0
 62
7
 10
-2.41651046E+02
 20
6.16375644E+01
 40
1.50000000E+00
 50
9.00000002E+01
 51
1.80000005E+02
  0
LINE
  8
0
 62
7
 10
-2.09151046E+02
 20
5.46375644E+01
 11
-2.09151046E+02
 21
5.19375751E+01
  0
LINE
  8
0
 62
7
 10
-2.09151046E+02
 20
5.46375644E+01
 11
-2.20151046E+02
 21
5.46375644E+01
  0
LINE
  8
0
 62
7
 10
-2.01151046E+02
 20
4.26246135E+01
 11
-2.26151046E+02
 21
4.26246135E+01
  0
LINE
  8
0
 62
7
 10
-2.01151046E+02
 20
4.21375644E+01
 11
-2.01151046E+02
 21
4.55375660E+01
  0
LINE
  8
0
 62
7
 10
-2.26151046E+02
 20
4.21375644E+01
 11
-2.01151046E+02
 21
4.21375644E+01
  0
LINE
  8
0
  6
CENTER
 62
2
 10
-2.35151046E+02
 20
5.01375644E+01
 11
-2.35151046E+02
 21
3.31375644E+01
  0
LINE
  8
0
 62
7
 10
-2.27385116E+02
 20
4.99375637E+01
 11
-2.26151046E+02
 21
4.99375637E+01
  0
LINE
  8
0
  6
CENTER
 62
2
 10
-2.40551047E+02
 20
4.31375644E+01
 11
-2.33751052E+02
 21
4.31375644E+01
  0
LINE
  8
0
  6
CENTER
 62
2
 10
-2.37151046E+02
 20
4.65375644E+01
 11
-2.37151046E+02
 21
3.97375643E+01
  0
LINE
  8
0
  6
CENTER
 62
2
 10
-2.43651046E+02
 20
4.16375644E+01
 11
-2.26651046E+02
 21
4.16375644E+01
  0
LINE
  8
0
  6
CENTER
 62
2
 10
-5.97510520E+01
 20
4.31375644E+01
 11
-6.65510398E+01
 21
4.31375644E+01
  0
LINE
  8
0
  6
CENTER
 62
2
 10
-6.31510459E+01
 20
4.65375644E+01
 11
-6.31510459E+01
 21
3.97375643E+01
  0
LINE
  8
0
  6
CENTER
 62
2
 10
-5.66510459E+01
 20
4.16375644E+01
 11
-7.36510459E+01
 21
4.16375644E+01
  0
LINE
  8
0
  6
CENTER
 62
2
 10
-6.51510459E+01
 20
5.01375644E+01
 11
-6.51510459E+01
 21
3.31375644E+01
  0
LINE
  8
0
 62
7
 10
-1.33601043E+02
 20
5.69320495E+01
 11
-2.16701034E+02
 21
5.69320495E+01
  0
LINE
  8
0
 62
7
 10
-1.32099281E+02
 20
5.66166563E+01
 11
-1.33601050E+02
 21
5.69320512E+01
  0
LINE
  8
0
 62
7
 10
-1.31942331E+02
 20
5.61375642E+01
 11
-1.32099287E+02
 21
5.66166557E+01
  0
LINE
  8
0
 62
7
 10
-1.33601043E+02
 20
5.96375644E+01
 11
-1.33601043E+02
 21
5.69320495E+01
  0
LINE
  8
0
 62
7
 10
-2.18359761E+02
 20
5.61375617E+01
 11
-2.18202805E+02
 21
5.66166532E+01
  0
LINE
  8
0
 62
7
 10
-2.18202804E+02
 20
5.66166561E+01
 11
-2.16701049E+02
 21
5.69320479E+01
  0
LINE
  8
0
 62
7
 10
-2.16701049E+02
 20
5.96375644E+01
 11
-2.16701049E+02
 21
5.69320467E+01
  0
LINE
  8
0
 62
7
 10
-2.26151046E+02
 20
6.31375644E+01
 11
-2.18151046E+02
 21
6.31375644E+01
  0
LINE
  8
0
 62
7
 10
-2.18151046E+02
 20
6.31375644E+01
 11
-2.18151046E+02
 21
5.91375644E+01
  0
LINE
  8
0
 62
7
 10
-2.21651046E+02
 20
6.16375644E+01
 11
-2.21651046E+02
 21
5.61375644E+01
  0
LINE
  8
0
 62
7
 10
-2.19151046E+02
 20
6.31375644E+01
 11
-2.19151046E+02
 21
5.91375644E+01
  0
LINE
  8
0
 62
7
 10
-2.21651046E+02
 20
5.91375644E+01
 11
-2.18151046E+02
 21
5.91375644E+01
  0
LINE
  8
0
 62
7
 10
-9.11510459E+01
 20
5.21375721E+01
 11
-7.41510459E+01
 21
5.21375721E+01
  0
LINE
  8
0
 62
7
 10
-9.11510459E+01
 20
5.46375644E+01
 11
-9.11510459E+01
 21
5.19375751E+01
  0
LINE
  8
0
 62
7
 10
-9.11510459E+01
 20
5.46375644E+01
 11
-8.01510459E+01
 21
5.46375644E+01
  0
LINE
  8
0
 62
7
 10
-8.21510459E+01
 20
6.31375644E+01
 11
-8.21510459E+01
 21
5.91375644E+01
  0
LINE
  8
0
 62
7
 10
-7.86510459E+01
 20
6.16375644E+01
 11
-7.86510459E+01
 21
5.61375644E+01
  0
LINE
  8
0
 62
7
 10
-8.11510459E+01
 20
6.31375644E+01
 11
-8.11510459E+01
 21
5.91375644E+01
  0
LINE
  8
0
 62
7
 10
-7.86510459E+01
 20
5.91375644E+01
 11
-8.21510459E+01
 21
5.91375644E+01
  0
LINE
  8
0
 62
7
 10
-7.41510459E+01
 20
6.31375644E+01
 11
-8.21510459E+01
 21
6.31375644E+01
  0
LINE
  8
0
 62
7
 10
-1.32651046E+02
 20
6.51375644E+01
 11
-1.32651046E+02
 21
5.96375644E+01
  0
LINE
  8
0
 62
7
 10
-2.17651046E+02
 20
6.51375644E+01
 11
-2.17651046E+02
 21
5.96375644E+01
  0
LINE
  8
0
 62
7
 10
-2.17651046E+02
 20
6.51375644E+01
 11
-1.32651046E+02
 21
6.51375644E+01
  0
LINE
  8
0
 62
7
 10
-1.32651046E+02
 20
5.96375644E+01
 11
-2.17651046E+02
 21
5.96375644E+01
  0
LINE
  8
0
  6
DASHED
 62
2
 10
-6.51510459E+01
 20
4.76375644E+01
 11
-6.56010581E+01
 21
4.76375644E+01
  0
LINE
  8
0
 62
7
 10
-7.29169761E+01
 20
4.99375637E+01
 11
-7.41510459E+01
 21
4.99375637E+01
  0
LINE
  8
0
 62
7
 10
-7.41510459E+01
 20
4.16375644E+01
 11
-7.40953208E+01
 21
4.16375644E+01
  0
LINE
  8
0
 62
7
 10
-5.86510459E+01
 20
6.31375644E+01
 11
-7.41510459E+01
 21
6.31375644E+01
  0
LINE
  8
0
 62
7
 10
-7.41510459E+01
 20
6.31375644E+01
 11
-7.41510459E+01
 21
3.31375644E+01
  0
LINE
  8
0
 62
7
 10
-5.71510459E+01
 20
6.16375644E+01
 11
-5.71510459E+01
 21
3.31375644E+01
  0
LINE
  8
0
 62
7
 10
-2.43151046E+02
 20
6.16375644E+01
 11
-2.43151046E+02
 21
3.31375644E+01
  0
LINE
  8
0
 62
7
 10
-2.41651046E+02
 20
6.31375644E+01
 11
-2.26151046E+02
 21
6.31375644E+01
  0
LINE
  8
0
 62
7
 10
-2.43151046E+02
 20
3.31375644E+01
 11
-5.71510459E+01
 21
3.31375644E+01
  0
LINE
  8
0
 62
7
 10
-2.26151046E+02
 20
6.31375644E+01
 11
-2.26151046E+02
 21
3.31375644E+01
  0
LINE
  8
0
 62
7
 10
-9.91510459E+01
 20
4.26246135E+01
 11
-7.41510459E+01
 21
4.26246135E+01
  0
LINE
  8
0
 62
7
 10
-2.21375794E+02
 20
5.52715442E+01
 11
-7.89262839E+01
 21
5.52715442E+01
  0
LINE
  8
0
 62
7
 10
-2.26151046E+02
 20
5.19375751E+01
 11
-7.41510459E+01
 21
5.19375751E+01
  0
LINE
  8
0
 62
7
 10
-2.01151046E+02
 20
4.55375660E+01
 11
-9.91510459E+01
 21
4.55375660E+01
  0
LINE
  8
0
 62
7
 10
-2.26151046E+02
 20
3.67375667E+01
 11
-7.41510459E+01
 21
3.67375667E+01
  0
LINE
  8
0
 62
7
 10
-9.91510459E+01
 20
4.21375644E+01
 11
-9.91510459E+01
 21
4.55375660E+01
  0
LINE
  8
0
 62
7
 10
-7.41510459E+01
 20
4.21375644E+01
 11
-9.91510459E+01
 21
4.21375644E+01
  0
LINE
  8
0
 62
7
 10
-2.09151046E+02
 20
5.32375629E+01
 11
-9.11510459E+01
 21
5.32375629E+01
  0
LINE
  8
0
 62
7
 10
-2.26151046E+02
 20
4.87375629E+01
 11
-7.41510459E+01
 21
4.87375629E+01
  0
LINE
  8
0
 62
7
 10
-2.21651046E+02
 20
5.61375644E+01
 11
-7.86510459E+01
 21
5.61375644E+01
  0
LINE
  8
0
 62
7
 10
-2.26151046E+02
 20
4.01375644E+01
 11
-7.41510459E+01
 21
4.01375644E+01
  0
LINE
  8
0
 62
7
 10
9.34895412E+00
 20
3.31375644E+01
 11
-1.31510459E+01
 21
3.31375644E+01
  0
LINE
  8
0
 62
7
 10
9.34895412E+00
 20
3.41375644E+01
 11
9.34895412E+00
 21
3.31375644E+01
  0
LINE
  8
0
 62
7
 10
1.23489541E+01
 20
3.41375644E+01
 11
9.34895412E+00
 21
3.41375644E+01
  0
LINE
  8
0
 62
7
 10
1.23489541E+01
 20
3.41375644E+01
 11
1.23489541E+01
 21
3.31375644E+01
  0
LINE
  8
0
 62
7
 10
8.34895412E+00
 20
5.96375644E+01
 11
4.04895107E+00
 21
5.96375644E+01
  0
LINE
  8
0
 62
7
 10
1.76489419E+01
 20
5.96375644E+01
 11
1.33489541E+01
 21
5.96375644E+01
  0
LINE
  8
0
 62
7
 10
1.76489419E+01
 20
4.66375644E+01
 11
4.04895107E+00
 21
4.66375644E+01
  0
LINE
  8
0
 62
7
 10
1.78489541E+01
 20
5.94375675E+01
 11
1.78489541E+01
 21
4.68375614E+01
  0
LINE
  8
0
 62
7
 10
3.84895412E+00
 20
5.94375675E+01
 11
3.84895412E+00
 21
4.68375614E+01
  0
LINE
  8
0
 62
7
 10
2.93489541E+01
 20
4.36375644E+01
 11
2.93489541E+01
 21
4.76375644E+01
  0
LINE
  8
0
 62
7
 10
2.65989541E+01
 20
3.31375644E+01
 11
2.65989541E+01
 21
3.38303745E+01
  0
LINE
  8
0
 62
7
 10
3.13489541E+01
 20
4.96375644E+01
 11
3.48489541E+01
 21
4.96375644E+01
  0
LINE
  8
0
 62
7
 10
3.13489541E+01
 20
4.16375644E+01
 11
3.48489541E+01
 21
4.16375644E+01
  0
LINE
  8
0
 62
7
 10
3.48489541E+01
 20
3.31375644E+01
 11
1.23489541E+01
 21
3.31375644E+01
  0
LINE
  8
0
 62
7
 10
-1.31510459E+01
 20
3.31375644E+01
 11
-1.31510459E+01
 21
4.99375675E+01
  0
LINE
  8
0
 62
7
 10
3.48489541E+01
 20
3.31375644E+01
 11
3.48489541E+01
 21
4.52375705E+01
  0
LINE
  8
0
 62
7
 10
3.10989541E+01
 20
3.31375644E+01
 11
3.10989541E+01
 21
3.38303745E+01
  0
LINE
  8
0
 62
7
 10
-3.15104588E+00
 20
6.31375644E+01
 11
8.34895412E+00
 21
6.31375644E+01
  0
LINE
  8
0
 62
7
 10
8.34895412E+00
 20
6.31375644E+01
 11
8.34895412E+00
 21
5.96375644E+01
  0
LINE
  8
0
  6
CENTER
 62
2
 10
1.08489541E+01
 20
7.01375644E+01
 11
1.08489541E+01
 21
2.81375644E+01
  0
LINE
  8
0
 62
7
 10
1.33489541E+01
 20
6.31375644E+01
 11
1.33489541E+01
 21
5.96375644E+01
  0
LINE
  8
0
 62
7
 10
1.33489541E+01
 20
6.31375644E+01
 11
2.48489541E+01
 21
6.31375644E+01
  0
LINE
  8
0
 62
7
 10
3.48489579E+01
 20
4.96375658E+01
 11
3.45353028E+01
 21
5.56224625E+01
  0
LINE
  8
0
 62
7
 10
-1.31510445E+01
 20
4.99375684E+01
 11
-1.28572356E+01
 21
5.55437757E+01
  0
LINE
  8
0
 62
7
 10
8.34895412E+00
 20
6.29375675E+01
 11
1.33489541E+01
 21
6.29375675E+01
  0
LINE
  8
0
 62
7
 10
3.45489663E+01
 20
4.87375629E+01
 11
3.40489663E+01
 21
4.87375629E+01
  0
LINE
  8
0
 62
7
 10
3.07489480E+01
 20
4.35375660E+01
 11
3.07489480E+01
 21
4.54141987E+01
  0
LINE
  8
0
 62
7
 10
3.40489549E+01
 20
4.87375774E+01
 11
3.35489651E+01
 21
4.92375672E+01
  0
LINE
  8
0
 62
7
 10
3.35489663E+01
 20
4.92375629E+01
 11
3.19489297E+01
 21
4.92375629E+01
  0
LINE
  8
0
 62
7
 10
3.40489657E+01
 20
4.55375676E+01
 11
3.35489651E+01
 21
4.50375670E+01
  0
LINE
  8
0
 62
7
 10
3.35489663E+01
 20
4.35375660E+01
 11
3.35489663E+01
 21
4.50375660E+01
  0
LINE
  8
0
 62
7
 10
3.45489663E+01
 20
4.55375660E+01
 11
3.40489663E+01
 21
4.55375660E+01
  0
LINE
  8
0
 62
7
 10
3.48489541E+01
 20
4.90375583E+01
 11
3.48489541E+01
 21
4.96375644E+01
  0
LINE
  8
0
 62
7
 10
-6.65104588E+00
 20
6.25050647E+01
 11
-6.65104588E+00
 21
6.51375644E+01
  0
LINE
  8
0
 62
7
 10
2.83489541E+01
 20
6.25050647E+01
 11
2.83489541E+01
 21
6.51375644E+01
  0
LINE
  8
0
 62
7
 10
-6.65104588E+00
 20
6.51375644E+01
 11
2.83489541E+01
 21
6.51375644E+01
  0
LINE
  8
0
 62
7
 10
3.03489528E+01
 20
5.17715297E+01
 11
2.88489486E+01
 21
5.09055018E+01
  0
LINE
  8
0
 62
7
 10
2.73489541E+01
 20
5.17715366E+01
 11
2.73489541E+01
 21
5.35035923E+01
  0
LINE
  8
0
 62
7
 10
3.03489541E+01
 20
5.17715366E+01
 11
3.03489541E+01
 21
5.35035923E+01
  0
LINE
  8
0
 62
7
 10
2.88489528E+01
 20
5.43696058E+01
 11
2.73489486E+01
 21
5.35035780E+01
  0
LINE
  8
0
 62
7
 10
2.88489418E+01
 20
5.09055036E+01
 11
2.73489508E+01
 21
5.17715238E+01
  0
LINE
  8
0
 62
7
 10
3.03489418E+01
 20
5.35035798E+01
 11
2.88489508E+01
 21
5.43696000E+01
  0
LINE
  8
0
 62
7
 10
-5.65105032E+00
 20
5.35035846E+01
 11
-7.15105449E+00
 21
5.43696124E+01
  0
LINE
  8
0
 62
7
 10
-7.15105032E+00
 20
5.09055084E+01
 11
-8.65105449E+00
 21
5.17715363E+01
  0
LINE
  8
0
 62
7
 10
-7.15104698E+00
 20
5.43696142E+01
 11
-8.65105116E+00
 21
5.35035864E+01
  0
LINE
  8
0
 62
7
 10
-5.65104588E+00
 20
5.17715366E+01
 11
-5.65104588E+00
 21
5.35035923E+01
  0
LINE
  8
0
 62
7
 10
-8.65104588E+00
 20
5.17715366E+01
 11
-8.65104588E+00
 21
5.35035923E+01
  0
LINE
  8
0
 62
7
 10
-5.65104698E+00
 20
5.17715381E+01
 11
-7.15105116E+00
 21
5.09055102E+01
  0
LINE
  8
0
 62
7
 10
2.88489458E+01
 20
3.54055109E+01
 11
2.73489548E+01
 21
3.62715311E+01
  0
LINE
  8
0
 62
7
 10
2.88489488E+01
 20
3.88696131E+01
 11
2.73489446E+01
 21
3.80035853E+01
  0
LINE
  8
0
 62
7
 10
3.03489458E+01
 20
3.80035870E+01
 11
2.88489548E+01
 21
3.88696072E+01
  0
LINE
  8
0
 62
7
 10
3.03489541E+01
 20
3.62715366E+01
 11
3.03489541E+01
 21
3.80035923E+01
  0
LINE
  8
0
 62
7
 10
2.73489541E+01
 20
3.62715366E+01
 11
2.73489541E+01
 21
3.80035923E+01
  0
LINE
  8
0
 62
7
 10
3.03489488E+01
 20
3.62715369E+01
 11
2.88489446E+01
 21
3.54055091E+01
  0
LINE
  8
0
  6
CENTER
 62
2
 10
2.88489541E+01
 20
4.36375644E+01
 11
2.88489541E+01
 21
3.06375644E+01
  0
LINE
  8
0
  6
CENTER
 62
2
 10
2.23489541E+01
 20
3.71375644E+01
 11
3.53489541E+01
 21
3.71375644E+01
  0
LINE
  8
0
  6
CENTER
 62
2
 10
2.88489541E+01
 20
5.91375644E+01
 11
2.88489541E+01
 21
4.61375644E+01
  0
LINE
  8
0
  6
CENTER
 62
2
 10
2.23489541E+01
 20
5.26375644E+01
 11
3.53489541E+01
 21
5.26375644E+01
  0
LINE
  8
0
  6
CENTER
 62
2
 10
-7.15104588E+00
 20
5.91375644E+01
 11
-7.15104588E+00
 21
4.61375644E+01
  0
LINE
  8
0
  6
CENTER
 62
2
 10
-1.36510459E+01
 20
5.26375644E+01
 11
-6.51045877E-01
 21
5.26375644E+01
  0
ARC
  8
0
 62
7
 10
3.13489541E+01
 20
4.36375644E+01
 40
2.00000000E+00
 50
1.79999991E+02
 51
2.70000000E+02
  0
ARC
  8
0
 62
7
 10
-3.15104588E+00
 20
5.31375644E+01
 40
1.00000000E+01
 50
9.00000002E+01
 51
1.66076801E+02
  0
ARC
  8
0
 62
7
 10
2.48489541E+01
 20
5.31375644E+01
 40
1.00000000E+01
 50
1.43881572E+01
 51
9.00000002E+01
  0
ARC
  8
0
 62
7
 10
3.13489541E+01
 20
4.76375644E+01
 40
2.00000000E+00
 50
9.00000002E+01
 51
1.80000005E+02
  0
ARC
  8
0
 62
7
 10
2.88489541E+01
 20
5.26375644E+01
 40
4.00000000E+00
 50
3.11303057E+02
 51
2.81826829E+02
  0
CIRCLE
  8
0
 62
7
 10
-7.15104588E+00
 20
5.26375644E+01
 40
4.00000000E+00
  0
ARC
  8
0
 62
7
 10
2.88489541E+01
 20
3.71375644E+01
 40
4.00000000E+00
 50
3.04228865E+02
 51
2.35771136E+02
  0
ARC
  8
0
 62
7
 10
1.76489419E+01
 20
5.94375675E+01
 40
2.00000003E-01
 50
3.59999996E+02
 51
9.00000002E+01
  0
ARC
  8
0
 62
7
 10
1.76489419E+01
 20
4.68375614E+01
 40
2.00000003E-01
 50
2.70000000E+02
 51
2.50447762E-06
  0
ARC
  8
0
 62
7
 10
4.04895107E+00
 20
4.68375614E+01
 40
2.00000003E-01
 50
1.79999991E+02
 51
2.70000000E+02
  0
ARC
  8
0
 62
7
 10
4.04895107E+00
 20
5.94375675E+01
 40
2.00000003E-01
 50
9.00000002E+01
 51
1.80000005E+02
  0
ARC
  8
0
 62
7
 10
3.19489297E+01
 20
4.71375644E+01
 40
2.09999990E+00
 50
9.00000002E+01
 51
2.35150108E+02
  0
ARC
  8
0
 62
7
 10
3.45489663E+01
 20
4.90375583E+01
 40
3.00000012E-01
 50
2.70000000E+02
 51
3.59999989E+02
  0
ARC
  8
0
 62
7
 10
3.45489663E+01
 20
4.52375705E+01
 40
3.00000012E-01
 50
3.59999996E+02
 51
9.00000002E+01
  0
ARC
  8
0
 62
7
 10
3.21489419E+01
 20
4.35375660E+01
 40
1.39999998E+00
 50
1.79999991E+02
 51
1.00179125E-05
  0
CIRCLE
  8
0
 62
7
 10
2.88489541E+01
 20
5.26375644E+01
 40
3.50000000E+00
  0
CIRCLE
  8
0
 62
7
 10
-7.15104588E+00
 20
5.26375644E+01
 40
3.50000000E+00
  0
CIRCLE
  8
0
 62
7
 10
2.88489541E+01
 20
3.71375644E+01
 40
3.50000000E+00
  0
LINE
  8
0
  6
CENTER
 62
2
 10
-1.75151046E+02
 20
1.35637564E+02
 11
-1.75151046E+02
 21
7.76375644E+01
  0
LINE
  8
0
  6
PHANTOM
 10
-1.25151046E+02
 20
7.25984730E+01
 11
-1.25151046E+02
 21
1.40323898E+02
  0
ARC
  8
0
 62
7
 10
-2.18451049E+02
 20
1.10635825E+02
 40
3.00000012E-01
 50
3.59999995E+02
 51
7.99999976E+01
  0
ARC
  8
0
 62
7
 10
-2.22651046E+02
 20
8.41375644E+01
 40
1.00000000E+00
 50
2.70000000E+02
 51
3.59999992E+02
  0
ARC
  8
0
 62
7
 10
-2.20891585E+02
 20
1.15262564E+02
 40
5.59466302E-01
 50
1.00000000E+02
 51
2.60000003E+02
  0
ARC
  8
0
 62
7
 10
-2.22651046E+02
 20
1.29137564E+02
 40
1.00000000E+00
 50
3.59999995E+02
 51
9.00000002E+01
  0
ARC
  8
0
 62
7
 10
-2.20847686E+02
 20
1.01299399E+02
 40
6.03366315E-01
 50
1.00000000E+02
 51
2.60000003E+02
  0
ARC
  8
0
 62
7
 10
-2.18451049E+02
 20
1.03635825E+02
 40
3.00000012E-01
 50
3.59999995E+02
 51
7.99999976E+01
  0
ARC
  8
0
 62
7
 10
-2.18451049E+02
 20
1.02639289E+02
 40
3.00000012E-01
 50
2.80000009E+02
 51
3.59999992E+02
  0
ARC
  8
0
 62
7
 10
-2.20891585E+02
 20
9.80125644E+01
 40
5.59466302E-01
 50
1.00000000E+02
 51
2.60000003E+02
  0
ARC
  8
0
 62
7
 10
-2.20847686E+02
 20
1.08299399E+02
 40
6.03366315E-01
 50
1.00000000E+02
 51
2.60000003E+02
  0
ARC
  8
0
 62
7
 10
-2.20847686E+02
 20
1.11975730E+02
 40
6.03366315E-01
 50
1.00000000E+02
 51
2.60000003E+02
  0
ARC
  8
0
 62
7
 10
-2.18451049E+02
 20
1.09639304E+02
 40
3.00000012E-01
 50
2.80000009E+02
 51
3.59999992E+02
  0
ARC
  8
0
 62
7
 10
-2.20847686E+02
 20
1.04975730E+02
 40
6.03366315E-01
 50
1.00000000E+02
 51
2.60000003E+02
  0
ARC
  8
0
 62
7
 10
-8.18510581E+01
 20
1.09639304E+02
 40
3.00000012E-01
 50
1.80000008E+02
 51
2.59999993E+02
  0
ARC
  8
0
 62
7
 10
-8.18510581E+01
 20
1.10635825E+02
 40
3.00000012E-01
 50
1.00000000E+02
 51
1.80000005E+02
  0
ARC
  8
0
 62
7
 10
-8.18510581E+01
 20
1.03635825E+02
 40
3.00000012E-01
 50
1.00000000E+02
 51
1.80000005E+02
  0
ARC
  8
0
 62
7
 10
-8.18510581E+01
 20
1.02639289E+02
 40
3.00000012E-01
 50
1.80000008E+02
 51
2.59999993E+02
  0
ARC
  8
0
 62
7
 10
-7.76510459E+01
 20
8.41375644E+01
 40
1.00000000E+00
 50
1.80000008E+02
 51
2.70000000E+02
  0
ARC
  8
0
 62
7
 10
-7.76510459E+01
 20
1.29137564E+02
 40
1.00000000E+00
 50
9.00000002E+01
 51
1.80000005E+02
  0
ARC
  8
0
 62
7
 10
-7.94543906E+01
 20
1.04975730E+02
 40
6.03366315E-01
 50
2.79999996E+02
 51
7.99999976E+01
  0
ARC
  8
0
 62
7
 10
-7.94543906E+01
 20
1.11975730E+02
 40
6.03366315E-01
 50
2.79999996E+02
 51
7.99999976E+01
  0
ARC
  8
0
 62
7
 10
-7.94543906E+01
 20
1.08299399E+02
 40
6.03366315E-01
 50
2.79999996E+02
 51
7.99999976E+01
  0
ARC
  8
0
 62
7
 10
-7.94105063E+01
 20
9.80125644E+01
 40
5.59466302E-01
 50
2.79999996E+02
 51
7.99999976E+01
  0
ARC
  8
0
 62
7
 10
-7.94543906E+01
 20
1.01299399E+02
 40
6.03366315E-01
 50
2.79999996E+02
 51
7.99999976E+01
  0
ARC
  8
0
 62
7
 10
-7.94105063E+01
 20
1.15262564E+02
 40
5.59466302E-01
 50
2.79999996E+02
 51
7.99999976E+01
  0
ARC
  8
0
 62
7
 10
-2.11151046E+02
 20
1.18137564E+02
 40
6.00000000E+00
 50
9.00000002E+01
 51
1.80000005E+02
  0
CIRCLE
  8
0
 62
2
 10
-2.00151046E+02
 20
1.18637564E+02
 40
2.00000000E+00
  0
CIRCLE
  8
0
 62
7
 10
-2.00151046E+02
 20
1.18637564E+02
 40
1.35000002E+00
  0
CIRCLE
  8
0
 62
7
 10
-2.00151046E+02
 20
9.46375644E+01
 40
1.35000002E+00
  0
ARC
  8
0
 62
7
 10
-1.39151046E+02
 20
1.18137564E+02
 40
6.00000000E+00
 50
3.59999995E+02
 51
9.00000002E+01
  0
ARC
  8
0
 62
7
 10
-2.11151046E+02
 20
9.51375644E+01
 40
6.00000000E+00
 50
1.79999991E+02
 51
2.70000000E+02
  0
ARC
  8
0
 62
7
 10
-1.39151046E+02
 20
9.51375644E+01
 40
6.00000000E+00
 50
2.70000000E+02
 51
8.65142224E-06
  0
CIRCLE
  8
0
 62
2
 10
-2.00151046E+02
 20
9.46375644E+01
 40
2.00000000E+00
  0
CIRCLE
  8
0
 62
7
 10
-1.50151046E+02
 20
9.46375644E+01
 40
1.35000002E+00
  0
CIRCLE
  8
0
 62
2
 10
-1.50151046E+02
 20
9.46375644E+01
 40
2.00000000E+00
  0
CIRCLE
  8
0
 62
7
 10
-1.50151046E+02
 20
1.18637564E+02
 40
1.35000002E+00
  0
CIRCLE
  8
0
 62
2
 10
-1.50151046E+02
 20
1.18637564E+02
 40
2.00000000E+00
  0
ARC
  8
0
 62
7
 10
-1.38651046E+02
 20
1.13137564E+02
 40
1.00000000E+00
 50
3.59999995E+02
 51
9.00000002E+01
  0
ARC
  8
0
 62
7
 10
-1.38651046E+02
 20
1.00137564E+02
 40
1.00000000E+00
 50
2.70000000E+02
 51
8.65142224E-06
  0
ARC
  8
0
 62
7
 10
-2.11651046E+02
 20
1.00137564E+02
 40
1.00000000E+00
 50
1.79999991E+02
 51
2.70000000E+02
  0
ARC
  8
0
 62
7
 10
-2.11651046E+02
 20
1.13137564E+02
 40
1.00000000E+00
 50
9.00000002E+01
 51
1.80000005E+02
  0
ARC
  8
0
 62
7
 10
-2.41651046E+02
 20
8.41375644E+01
 40
1.50000000E+00
 50
1.79999991E+02
 51
2.70000000E+02
  0
ARC
  8
0
 62
7
 10
-2.41651046E+02
 20
1.29137564E+02
 40
1.50000000E+00
 50
9.00000002E+01
 51
1.80000005E+02
  0
ARC
  8
0
 62
7
 10
-2.31151046E+02
 20
1.17637564E+02
 40
6.00000000E+00
 50
3.26442690E+02
 51
3.35573170E+01
  0
ARC
  8
0
 62
7
 10
-2.31151046E+02
 20
9.56375644E+01
 40
6.00000000E+00
 50
3.26442690E+02
 51
3.35573170E+01
  0
CIRCLE
  8
0
 62
7
 10
-2.31151046E+02
 20
9.56375644E+01
 40
2.40000010E+00
  0
CIRCLE
  8
0
 62
7
 10
-2.31151046E+02
 20
1.17637564E+02
 40
2.40000010E+00
  0
CIRCLE
  8
0
 62
7
 10
-2.31151046E+02
 20
9.56375644E+01
 40
4.00000000E+00
  0
CIRCLE
  8
0
 62
7
 10
-2.31151046E+02
 20
1.17637564E+02
 40
4.00000000E+00
  0
ARC
  8
0
 62
7
 10
-5.86510459E+01
 20
8.41375644E+01
 40
1.50000000E+00
 50
2.70000000E+02
 51
8.65142195E-06
  0
ARC
  8
0
 62
7
 10
-5.86510459E+01
 20
1.29137564E+02
 40
1.50000000E+00
 50
3.59999995E+02
 51
9.00000002E+01
  0
ARC
  8
0
 62
7
 10
-6.91510459E+01
 20
1.17637564E+02
 40
6.00000000E+00
 50
1.46442685E+02
 51
2.13557312E+02
  0
ARC
  8
0
 62
7
 10
-6.91510459E+01
 20
9.56375644E+01
 40
6.00000000E+00
 50
1.46442685E+02
 51
2.13557312E+02
  0
CIRCLE
  8
0
 62
7
 10
-6.91510459E+01
 20
9.56375644E+01
 40
2.40000010E+00
  0
CIRCLE
  8
0
 62
7
 10
-6.91510459E+01
 20
1.17637564E+02
 40
2.40000010E+00
  0
CIRCLE
  8
0
 62
7
 10
-6.91510459E+01
 20
9.56375644E+01
 40
4.00000000E+00
  0
CIRCLE
  8
0
 62
7
 10
-6.91510459E+01
 20
1.17637564E+02
 40
4.00000000E+00
  0
LINE
  8
0
  6
CENTER
 62
2
 10
-7.56510459E+01
 20
9.56375644E+01
 11
-6.26510459E+01
 21
9.56375644E+01
  0
LINE
  8
0
  6
CENTER
 62
2
 10
-6.91510459E+01
 20
1.02137564E+02
 11
-6.91510459E+01
 21
8.91375644E+01
  0
LINE
  8
0
  6
CENTER
 62
2
 10
-7.56510459E+01
 20
1.17637564E+02
 11
-6.26510459E+01
 21
1.17637564E+02
  0
LINE
  8
0
  6
CENTER
 62
2
 10
-6.91510459E+01
 20
1.24137564E+02
 11
-6.91510459E+01
 21
1.11137564E+02
  0
LINE
  8
0
  6
CENTER
 62
2
 10
-2.37651046E+02
 20
1.17637564E+02
 11
-2.24651046E+02
 21
1.17637564E+02
  0
LINE
  8
0
  6
CENTER
 62
2
 10
-2.31151046E+02
 20
1.24137564E+02
 11
-2.31151046E+02
 21
1.11137564E+02
  0
LINE
  8
0
  6
CENTER
 62
2
 10
-2.37651046E+02
 20
9.56375644E+01
 11
-2.24651046E+02
 21
9.56375644E+01
  0
LINE
  8
0
  6
CENTER
 62
2
 10
-2.31151046E+02
 20
1.02137564E+02
 11
-2.31151046E+02
 21
8.91375644E+01
  0
LINE
  8
0
  6
CENTER
 62
2
 10
-2.04651046E+02
 20
9.46375644E+01
 11
-1.95651046E+02
 21
9.46375644E+01
  0
LINE
  8
0
  6
CENTER
 62
2
 10
-2.00151046E+02
 20
9.91375644E+01
 11
-2.00151046E+02
 21
9.01375644E+01
  0
LINE
  8
0
  6
CENTER
 62
2
 10
-2.04651046E+02
 20
1.18637564E+02
 11
-1.95651046E+02
 21
1.18637564E+02
  0
LINE
  8
0
  6
CENTER
 62
2
 10
-2.00151046E+02
 20
1.23137564E+02
 11
-2.00151046E+02
 21
1.14137564E+02
  0
LINE
  8
0
  6
CENTER
 62
2
 10
-1.54651046E+02
 20
1.18637564E+02
 11
-1.45651046E+02
 21
1.18637564E+02
  0
LINE
  8
0
  6
CENTER
 62
2
 10
-1.50151046E+02
 20
1.23137564E+02
 11
-1.50151046E+02
 21
1.14137564E+02
  0
LINE
  8
0
  6
CENTER
 62
2
 10
-1.54651046E+02
 20
9.46375644E+01
 11
-1.45651046E+02
 21
9.46375644E+01
  0
LINE
  8
0
  6
CENTER
 62
2
 10
-1.50151046E+02
 20
9.91375644E+01
 11
-1.50151046E+02
 21
9.01375644E+01
  0
LINE
  8
0
 62
7
 10
-2.17651046E+02
 20
1.17637564E+02
 11
-2.17651046E+02
 21
9.56375644E+01
  0
LINE
  8
0
 62
7
 10
-1.32651046E+02
 20
1.00637564E+02
 11
-7.97331992E+01
 21
1.00637564E+02
  0
LINE
  8
0
 62
7
 10
-2.19151039E+02
 20
1.12887557E+02
 11
-2.20952442E+02
 21
1.12569921E+02
  0
LINE
  8
0
 62
7
 10
-2.19151046E+02
 20
1.05887564E+02
 11
-2.19151046E+02
 21
1.07387564E+02
  0
LINE
  8
0
 62
7
 10
-2.18151046E+02
 20
1.02639289E+02
 11
-2.18151046E+02
 21
1.03635825E+02
  0
LINE
  8
0
 62
7
 10
-2.19151046E+02
 20
1.12887564E+02
 11
-2.19151046E+02
 21
1.14387564E+02
  0
LINE
  8
0
 62
7
 10
-2.19151039E+02
 20
9.88875503E+01
 11
-2.20952445E+02
 21
9.85699139E+01
  0
LINE
  8
0
 62
7
 10
-2.21651046E+02
 20
1.18137564E+02
 11
-2.21651046E+02
 21
1.29137564E+02
  0
LINE
  8
0
 62
7
 10
-2.09151046E+02
 20
8.56375644E+01
 11
-2.09151046E+02
 21
8.31375644E+01
  0
LINE
  8
0
 62
7
 10
-2.21651046E+02
 20
9.51375644E+01
 11
-2.19151046E+02
 21
9.51375644E+01
  0
LINE
  8
0
 62
7
 10
-2.19151046E+02
 20
9.51375644E+01
 11
-2.19151046E+02
 21
9.71375644E+01
  0
LINE
  8
0
 62
7
 10
-2.18151046E+02
 20
1.10635825E+02
 11
-2.18151046E+02
 21
1.09639304E+02
  0
LINE
  8
0
 62
7
 10
-2.18398950E+02
 20
1.09343851E+02
 11
-2.20952453E+02
 21
1.08893599E+02
  0
LINE
  8
0
 62
7
 10
-2.19151033E+02
 20
1.16137555E+02
 11
-2.20988727E+02
 21
1.15813520E+02
  0
LINE
  8
0
 62
7
 10
-2.19151042E+02
 20
9.71375602E+01
 11
-2.20988721E+02
 21
9.74615926E+01
  0
LINE
  8
0
 62
7
 10
-2.19151046E+02
 20
1.16137564E+02
 11
-2.19151046E+02
 21
1.18137564E+02
  0
LINE
  8
0
 62
7
 10
-2.18398949E+02
 20
1.10931278E+02
 11
-2.20952453E+02
 21
1.11381529E+02
  0
LINE
  8
0
 62
7
 10
-2.18398955E+02
 20
1.02343835E+02
 11
-2.20952446E+02
 21
1.01893586E+02
  0
LINE
  8
0
 62
7
 10
-2.19151038E+02
 20
1.07387572E+02
 11
-2.20952442E+02
 21
1.07705208E+02
  0
LINE
  8
0
 62
7
 10
-2.26151046E+02
 20
1.30137564E+02
 11
-2.09151046E+02
 21
1.30137564E+02
  0
LINE
  8
0
 62
7
 10
-2.21651046E+02
 20
1.18137564E+02
 11
-2.19151046E+02
 21
1.18137564E+02
  0
LINE
  8
0
 62
7
 10
-2.26151046E+02
 20
8.31375644E+01
 11
-2.09151046E+02
 21
8.31375644E+01
  0
LINE
  8
0
 62
7
 10
-2.21651046E+02
 20
9.51375644E+01
 11
-2.21651046E+02
 21
8.41375644E+01
  0
LINE
  8
0
 62
7
 10
-2.19151046E+02
 20
1.00387564E+02
 11
-2.19151046E+02
 21
9.88875644E+01
  0
LINE
  8
0
 62
7
 10
-2.19151046E+02
 20
1.00387566E+02
 11
-2.20952450E+02
 21
1.00705202E+02
  0
LINE
  8
0
 62
7
 10
-2.19151045E+02
 20
1.14387580E+02
 11
-2.20988724E+02
 21
1.14711612E+02
  0
LINE
  8
0
 62
7
 10
-2.09151046E+02
 20
1.27637564E+02
 11
-2.09151046E+02
 21
1.30137564E+02
  0
LINE
  8
0
 62
7
 10
-2.18398947E+02
 20
1.03931286E+02
 11
-2.20952443E+02
 21
1.04381536E+02
  0
LINE
  8
0
 62
7
 10
-2.19151047E+02
 20
1.05887556E+02
 11
-2.20952451E+02
 21
1.05569920E+02
  0
LINE
  8
0
 62
7
 10
-9.11510459E+01
 20
8.56375644E+01
 11
-9.11510459E+01
 21
8.31375644E+01
  0
LINE
  8
0
 62
7
 10
-9.11510459E+01
 20
1.27637564E+02
 11
-9.11510459E+01
 21
1.30137564E+02
  0
LINE
  8
0
 62
7
 10
-7.86510459E+01
 20
9.51375644E+01
 11
-7.86510459E+01
 21
8.41375644E+01
  0
LINE
  8
0
 62
7
 10
-7.41510459E+01
 20
8.31375644E+01
 11
-9.11510459E+01
 21
8.31375644E+01
  0
LINE
  8
0
 62
7
 10
-7.86510459E+01
 20
1.18137564E+02
 11
-8.11510459E+01
 21
1.18137564E+02
  0
LINE
  8
0
 62
7
 10
-8.19031216E+01
 20
1.02343844E+02
 11
-7.93496181E+01
 21
1.01893593E+02
  0
LINE
  8
0
 62
7
 10
-8.19031235E+01
 20
1.10931277E+02
 11
-7.93496200E+01
 21
1.11381528E+02
  0
LINE
  8
0
 62
7
 10
-8.11510459E+01
 20
1.16137564E+02
 11
-8.11510459E+01
 21
1.18137564E+02
  0
LINE
  8
0
 62
7
 10
-8.11510466E+01
 20
9.71375642E+01
 11
-7.93133680E+01
 21
9.74615966E+01
  0
LINE
  8
0
 62
7
 10
-8.11510434E+01
 20
1.16137565E+02
 11
-7.93133348E+01
 21
1.15813527E+02
  0
LINE
  8
0
 62
7
 10
-8.19031273E+01
 20
1.09343860E+02
 11
-7.93496237E+01
 21
1.08893609E+02
  0
LINE
  8
0
 62
7
 10
-8.21510459E+01
 20
1.10635825E+02
 11
-8.21510459E+01
 21
1.09639304E+02
  0
LINE
  8
0
 62
7
 10
-8.11510459E+01
 20
9.51375644E+01
 11
-8.11510459E+01
 21
9.71375644E+01
  0
LINE
  8
0
 62
7
 10
-7.86510459E+01
 20
9.51375644E+01
 11
-8.11510459E+01
 21
9.51375644E+01
  0
LINE
  8
0
 62
7
 10
-7.86510459E+01
 20
1.18137564E+02
 11
-7.86510459E+01
 21
1.29137564E+02
  0
LINE
  8
0
 62
7
 10
-8.11510228E+01
 20
9.88875570E+01
 11
-7.93496193E+01
 21
9.85699210E+01
  0
LINE
  8
0
 62
7
 10
-8.11510459E+01
 20
1.12887564E+02
 11
-8.11510459E+01
 21
1.14387564E+02
  0
LINE
  8
0
 62
7
 10
-8.11510381E+01
 20
1.12887566E+02
 11
-7.93496346E+01
 21
1.12569930E+02
  0
LINE
  8
0
 62
7
 10
-8.11510459E+01
 20
1.00387564E+02
 11
-8.11510459E+01
 21
9.88875644E+01
  0
LINE
  8
0
 62
7
 10
-8.11510413E+01
 20
1.00387562E+02
 11
-7.93496378E+01
 21
1.00705198E+02
  0
LINE
  8
0
 62
7
 10
-8.11510260E+01
 20
1.14387572E+02
 11
-7.93133473E+01
 21
1.14711604E+02
  0
LINE
  8
0
 62
7
 10
-8.21510459E+01
 20
1.02639289E+02
 11
-8.21510459E+01
 21
1.03635825E+02
  0
LINE
  8
0
 62
7
 10
-8.11510298E+01
 20
1.05887565E+02
 11
-7.93496262E+01
 21
1.05569929E+02
  0
LINE
  8
0
 62
7
 10
-8.11510330E+01
 20
1.07387563E+02
 11
-7.93496294E+01
 21
1.07705199E+02
  0
LINE
  8
0
 62
7
 10
-7.41510459E+01
 20
1.30137564E+02
 11
-9.11510459E+01
 21
1.30137564E+02
  0
LINE
  8
0
 62
7
 10
-8.11510459E+01
 20
1.05887564E+02
 11
-8.11510459E+01
 21
1.07387564E+02
  0
LINE
  8
0
 62
7
 10
-8.19031318E+01
 20
1.03931276E+02
 11
-7.93496283E+01
 21
1.04381528E+02
  0
LINE
  8
0
 62
7
 10
-2.17151046E+02
 20
1.17637564E+02
 11
-2.17151046E+02
 21
1.18137564E+02
  0
LINE
  8
0
 62
7
 10
-1.33151046E+02
 20
1.17637564E+02
 11
-1.33151046E+02
 21
1.18137564E+02
  0
LINE
  8
0
 62
7
 10
-1.33151046E+02
 20
9.56375644E+01
 11
-1.33151046E+02
 21
9.51375644E+01
  0
LINE
  8
0
 62
7
 10
-2.17151046E+02
 20
9.56375644E+01
 11
-2.17151046E+02
 21
9.51375644E+01
  0
LINE
  8
0
 62
7
 10
-2.17151046E+02
 20
9.56375644E+01
 11
-2.17651046E+02
 21
9.56375644E+01
  0
LINE
  8
0
 62
7
 10
-2.17151046E+02
 20
1.17637564E+02
 11
-2.17651046E+02
 21
1.17637564E+02
  0
LINE
  8
0
 62
7
 10
-1.33151046E+02
 20
9.56375644E+01
 11
-1.32651046E+02
 21
9.56375644E+01
  0
LINE
  8
0
 62
7
 10
-1.33151046E+02
 20
1.17637564E+02
 11
-1.32651046E+02
 21
1.17637564E+02
  0
LINE
  8
0
 62
7
 10
-1.39151046E+02
 20
1.24137564E+02
 11
-2.11151046E+02
 21
1.24137564E+02
  0
LINE
  8
0
 62
7
 10
-1.39151046E+02
 20
8.91375644E+01
 11
-2.11151046E+02
 21
8.91375644E+01
  0
LINE
  8
0
 62
7
 10
-1.32651046E+02
 20
1.17637564E+02
 11
-1.32651046E+02
 21
9.56375644E+01
  0
LINE
  8
0
 62
7
 10
-1.38651046E+02
 20
9.91375644E+01
 11
-2.11651046E+02
 21
9.91375644E+01
  0
LINE
  8
0
 62
7
 10
-2.12651046E+02
 20
1.00137564E+02
 11
-2.12651046E+02
 21
1.13137564E+02
  0
LINE
  8
0
 62
7
 10
-1.38651046E+02
 20
1.14137564E+02
 11
-2.11651046E+02
 21
1.14137564E+02
  0
LINE
  8
0
 62
7
 10
-1.37651046E+02
 20
1.00137564E+02
 11
-1.37651046E+02
 21
1.13137564E+02
  0
LINE
  8
0
 62
7
 10
-2.26151046E+02
 20
9.23209446E+01
 11
-2.26151046E+02
 21
8.26375644E+01
  0
LINE
  8
0
 62
7
 10
-2.26151046E+02
 20
1.14320945E+02
 11
-2.26151046E+02
 21
9.89541843E+01
  0
LINE
  8
0
 62
7
 10
-2.26151046E+02
 20
1.09137564E+02
 11
-2.43151046E+02
 21
1.09137564E+02
  0
LINE
  8
0
 62
7
 10
-2.26151046E+02
 20
1.04137564E+02
 11
-2.43151046E+02
 21
1.04137564E+02
  0
LINE
  8
0
 62
7
 10
-2.43151046E+02
 20
8.41375644E+01
 11
-2.43151046E+02
 21
1.29137564E+02
  0
LINE
  8
0
 62
7
 10
-7.41510459E+01
 20
1.09137564E+02
 11
-5.71510459E+01
 21
1.09137564E+02
  0
LINE
  8
0
 62
7
 10
-7.41510459E+01
 20
1.04137564E+02
 11
-5.71510459E+01
 21
1.04137564E+02
  0
LINE
  8
0
 62
7
 10
-7.41510459E+01
 20
9.89541843E+01
 11
-7.41510459E+01
 21
1.14320945E+02
  0
LINE
  8
0
 62
7
 10
-7.41510459E+01
 20
1.20954184E+02
 11
-7.41510459E+01
 21
1.30637564E+02
  0
LINE
  8
0
 62
7
 10
-2.41651046E+02
 20
8.26375644E+01
 11
-5.86510459E+01
 21
8.26375644E+01
  0
LINE
  8
0
 62
7
 10
-7.41510459E+01
 20
8.26375644E+01
 11
-7.41510459E+01
 21
9.23209446E+01
  0
LINE
  8
0
 62
7
 10
-5.71510459E+01
 20
8.41375644E+01
 11
-5.71510459E+01
 21
1.29137564E+02
  0
LINE
  8
0
  6
CENTER
 62
2
 10
-2.48151046E+02
 20
1.06637564E+02
 11
-5.21510459E+01
 21
1.06637564E+02
  0
LINE
  8
0
 62
7
 10
-2.26151046E+02
 20
1.30637564E+02
 11
-2.26151046E+02
 21
1.20954184E+02
  0
LINE
  8
0
 62
7
 10
-2.21651046E+02
 20
8.56375644E+01
 11
-7.86510459E+01
 21
8.56375644E+01
  0
LINE
  8
0
 62
7
 10
-2.21651046E+02
 20
1.27637564E+02
 11
-7.86510459E+01
 21
1.27637564E+02
  0
LINE
  8
0
 62
7
 10
-1.32651046E+02
 20
1.12637564E+02
 11
-7.97332602E+01
 21
1.12637564E+02
  0
LINE
  8
0
 62
7
 10
-2.41651046E+02
 20
1.30637564E+02
 11
-5.86510459E+01
 21
1.30637564E+02
  0
LINE
  8
0
 62
7
 10
-2.21651046E+02
 20
1.26137564E+02
 11
-7.86510459E+01
 21
1.26137564E+02
  0
LINE
  8
0
 62
7
 10
-2.21651046E+02
 20
8.71375644E+01
 11
-7.86510459E+01
 21
8.71375644E+01
  0
LINE
  8
0
  6
CENTER
 62
6
 10
-9.54015876E+01
 20
-1.06171836E+02
 11
-2.44766761E+01
 21
-1.06171836E+02
  0
LINE
  8
0
  6
PHANTOM
 10
-1.18901038E+02
 20
-1.52765831E+02
 11
-1.18901038E+02
 21
-8.98641334E+01
  0
ARC
  8
0
 62
7
 10
-2.16426055E+02
 20
-1.19646835E+02
 40
2.75000006E-01
 50
9.00000002E+01
 51
1.80000005E+02
  0
ARC
  8
0
 62
7
 10
-2.17201049E+02
 20
-1.21471454E+02
 40
5.00000000E-01
 50
2.81860626E+02
 51
3.59999992E+02
  0
ARC
  8
0
 62
7
 10
-2.15426055E+02
 20
-1.19446838E+02
 40
2.75000006E-01
 50
9.00000002E+01
 51
1.64221949E+02
  0
ARC
  8
0
 62
7
 10
-1.33876037E+02
 20
-1.19646835E+02
 40
2.75000006E-01
 50
3.59999995E+02
 51
9.00000002E+01
  0
ARC
  8
0
 62
7
 10
-1.33101043E+02
 20
-1.21471454E+02
 40
5.00000000E-01
 50
1.80000000E+02
 51
2.58139365E+02
  0
ARC
  8
0
 62
7
 10
-1.34876037E+02
 20
-1.19446838E+02
 40
2.75000006E-01
 50
1.57780462E+01
 51
9.00000002E+01
  0
CIRCLE
  8
0
 62
4
 10
-2.35151046E+02
 20
-1.37171836E+02
 40
4.25000000E+00
  0
CIRCLE
  8
0
 62
4
 10
-2.35151046E+02
 20
-1.37171836E+02
 40
6.00000000E+00
  0
CIRCLE
  8
0
 62
6
 10
-2.35151046E+02
 20
-1.37171836E+02
 40
4.84999990E+00
  0
ARC
  8
0
 62
4
 10
-1.35206866E+02
 20
-1.10501964E+02
 40
2.55582285E+00
 50
3.59999995E+02
 51
3.43842464E+01
  0
ARC
  8
0
 62
4
 10
-1.35206866E+02
 20
-1.01841708E+02
 40
2.55582285E+00
 50
3.25615757E+02
 51
8.65142195E-06
  0
ARC
  8
0
 62
4
 10
-2.08097627E+02
 20
-1.06171836E+02
 40
9.55341816E+00
 50
1.62412046E+02
 51
1.97587954E+02
  0
ARC
  8
0
 62
4
 10
-2.15095222E+02
 20
-1.01841708E+02
 40
2.55582285E+00
 50
1.80000000E+02
 51
2.14384248E+02
  0
ARC
  8
0
 62
4
 10
-1.42204463E+02
 20
-1.06171836E+02
 40
9.55341816E+00
 50
3.42412053E+02
 51
1.75879507E+01
  0
ARC
  8
0
 62
4
 10
-2.15095222E+02
 20
-1.10501964E+02
 40
2.55582285E+00
 50
1.45615752E+02
 51
1.80000000E+02
  0
ARC
  8
0
 62
4
 10
-2.46827041E+02
 20
-1.12234016E+02
 40
3.68036413E+00
 50
3.26697727E+02
 51
3.33022762E+01
  0
ARC
  8
0
 62
4
 10
-2.57062156E+02
 20
-1.06171836E+02
 40
1.39111109E+01
 50
3.43110932E+02
 51
1.68890721E+01
  0
ARC
  8
0
 62
4
 10
-2.46827041E+02
 20
-1.00109657E+02
 40
3.68036413E+00
 50
3.26697727E+02
 51
3.33022762E+01
  0
ARC
  8
0
 62
4
 10
-2.42151046E+02
 20
-1.27671836E+02
 40
1.00000000E+00
 50
1.80000000E+02
 51
2.70000000E+02
  0
ARC
  8
0
 62
4
 10
-2.12925567E+02
 20
-1.19171836E+02
 40
8.00000000E+00
 50
1.82000000E+02
 51
2.70000000E+02
  0
ARC
  8
0
 62
4
 10
-2.22646926E+02
 20
-9.86718362E+01
 40
1.00000000E+00
 50
1.99999732E+00
 51
9.00000002E+01
  0
ARC
  8
0
 62
4
 10
-2.41102813E+02
 20
-9.86718362E+01
 40
1.00000000E+00
 50
9.00000002E+01
 51
1.78000000E+02
  0
ARC
  8
0
 62
4
 10
-2.34859431E+02
 20
-1.37171836E+02
 40
8.50000000E+00
 50
1.99999732E+00
 51
9.00000002E+01
  0
LINE
  8
0
 62
7
 10
-2.16437175E+02
 20
-1.19372062E+02
 11
-1.75151046E+02
 21
-1.19372062E+02
  0
LINE
  8
0
 62
7
 10
-2.16701049E+02
 20
-1.21877349E+02
 11
-1.75151046E+02
 21
-1.21877349E+02
  0
LINE
  8
0
 62
7
 10
-2.16701049E+02
 20
-1.19646835E+02
 11
-2.16701049E+02
 21
-1.21471454E+02
  0
LINE
  8
0
 62
7
 10
-2.18359755E+02
 20
-1.22671831E+02
 11
-2.18202798E+02
 21
-1.22192736E+02
  0
LINE
  8
0
 62
7
 10
-2.18202812E+02
 20
-1.22192743E+02
 11
-2.17098291E+02
 21
-1.21960777E+02
  0
LINE
  8
0
 62
7
 10
-1.75151046E+02
 20
-1.19171836E+02
 11
-2.17651046E+02
 21
-1.19171836E+02
  0
LINE
  8
0
 62
7
 10
-1.33601043E+02
 20
-1.21877349E+02
 11
-1.75151046E+02
 21
-1.21877349E+02
  0
LINE
  8
0
 62
7
 10
-1.33864917E+02
 20
-1.19372062E+02
 11
-1.75151046E+02
 21
-1.19372062E+02
  0
LINE
  8
0
 62
7
 10
-1.33601043E+02
 20
-1.19646835E+02
 11
-1.33601043E+02
 21
-1.21471454E+02
  0
LINE
  8
0
 62
7
 10
-1.31942333E+02
 20
-1.22671839E+02
 11
-1.32099290E+02
 21
-1.22192743E+02
  0
LINE
  8
0
 62
7
 10
-1.32099279E+02
 20
-1.22192748E+02
 11
-1.33203800E+02
 21
-1.21960781E+02
  0
LINE
  8
0
 62
7
 10
-1.75151046E+02
 20
-1.19171836E+02
 11
-1.32651046E+02
 21
-1.19171836E+02
  0
LINE
  8
0
 62
7
 10
-1.32651046E+02
 20
-1.13671836E+02
 11
-1.32651046E+02
 21
-1.19171836E+02
  0
LINE
  8
0
  6
CENTER
 62
6
 10
-2.27651046E+02
 20
-1.37171836E+02
 11
-2.42651046E+02
 21
-1.37171836E+02
  0
LINE
  8
0
 62
7
 10
-2.20119315E+02
 20
-1.22671836E+02
 11
-8.01827777E+01
 21
-1.22671836E+02
  0
LINE
  8
0
 62
7
 10
-1.94630741E+02
 20
-1.42071830E+02
 11
-1.05671350E+02
 21
-1.42071830E+02
  0
LINE
  8
0
 62
7
 10
-1.94749472E+02
 20
-1.38671836E+02
 11
-1.05552620E+02
 21
-1.38671836E+02
  0
LINE
  8
0
 62
7
 10
-1.94938045E+02
 20
-1.33271835E+02
 11
-1.05364048E+02
 21
-1.33271835E+02
  0
LINE
  8
0
 62
7
 10
-1.95049790E+02
 20
-1.30071838E+02
 11
-1.05252301E+02
 21
-1.30071838E+02
  0
LINE
  8
0
 62
7
 10
-2.15095859E+02
 20
-1.26871825E+02
 11
-8.52062337E+01
 21
-1.26871825E+02
  0
LINE
  8
0
 62
7
 10
-2.09151046E+02
 20
-1.25571838E+02
 11
-9.11510459E+01
 21
-1.25571838E+02
  0
LINE
  8
0
 62
7
 10
-2.19629138E+02
 20
-1.23537856E+02
 11
-8.06729537E+01
 21
-1.23537856E+02
  0
LINE
  8
0
  6
CENTER
 62
6
 10
-2.35151046E+02
 20
-1.29671836E+02
 11
-2.35151046E+02
 21
-1.44671836E+02
  0
LINE
  8
0
 62
4
 10
-1.94505027E+02
 20
-1.45671836E+02
 11
-2.43151046E+02
 21
-1.45671836E+02
  0
LINE
  8
0
 62
7
 10
-2.09151046E+02
 20
-1.24171836E+02
 11
-2.09151046E+02
 21
-1.26871825E+02
  0
LINE
  8
0
 62
7
 10
-2.20912982E+02
 20
-1.19671836E+02
 11
-2.18151046E+02
 21
-1.19671836E+02
  0
LINE
  8
0
 62
7
 10
-2.19151046E+02
 20
-1.15671836E+02
 11
-2.19151046E+02
 21
-1.19671836E+02
  0
LINE
  8
0
 62
7
 10
-2.18151046E+02
 20
-1.15671836E+02
 11
-2.18151046E+02
 21
-1.19671836E+02
  0
LINE
  8
0
 62
7
 10
-2.09151046E+02
 20
-1.24171836E+02
 11
-2.19170566E+02
 21
-1.24171836E+02
  0
LINE
  8
0
 62
7
 10
-2.21052665E+02
 20
-1.15671836E+02
 11
-2.18151046E+02
 21
-1.15671836E+02
  0
LINE
  8
0
 62
7
 10
-2.09151046E+02
 20
-1.26671829E+02
 11
-2.15709472E+02
 21
-1.26671829E+02
  0
LINE
  8
0
 62
4
 10
-2.17204463E+02
 20
-1.11945339E+02
 11
-2.14151046E+02
 21
-1.11945339E+02
  0
LINE
  8
0
 62
4
 10
-2.17204463E+02
 20
-1.00398334E+02
 11
-2.14151046E+02
 21
-1.00398334E+02
  0
LINE
  8
0
 62
4
 10
-1.33097621E+02
 20
-1.00398334E+02
 11
-1.36151042E+02
 21
-1.00398334E+02
  0
LINE
  8
0
 62
4
 10
-1.33097621E+02
 20
-1.03285087E+02
 11
-1.36151042E+02
 21
-1.03285087E+02
  0
LINE
  8
0
 62
4
 10
-1.32651042E+02
 20
-1.01171836E+02
 11
-1.32651042E+02
 21
-1.11171836E+02
  0
LINE
  8
0
 62
4
 10
-1.32651042E+02
 20
-1.01171831E+02
 11
-1.33097623E+02
 21
-1.00398330E+02
  0
LINE
  8
0
 62
4
 10
-1.33097621E+02
 20
-1.11945339E+02
 11
-1.36151042E+02
 21
-1.11945339E+02
  0
LINE
  8
0
 62
4
 10
-1.33097621E+02
 20
-1.09058589E+02
 11
-1.36151042E+02
 21
-1.09058589E+02
  0
LINE
  8
0
 62
4
 10
-2.17204463E+02
 20
-1.09058589E+02
 11
-2.14151046E+02
 21
-1.09058589E+02
  0
LINE
  8
0
 62
4
 10
-1.32651047E+02
 20
-1.11171833E+02
 11
-1.33097630E+02
 21
-1.11945336E+02
  0
LINE
  8
0
 62
4
 10
-2.17651044E+02
 20
-1.11171835E+02
 11
-2.17204462E+02
 21
-1.11945337E+02
  0
LINE
  8
0
 62
4
 10
-2.17204463E+02
 20
-1.03285087E+02
 11
-2.14151046E+02
 21
-1.03285087E+02
  0
LINE
  8
0
 62
4
 10
-1.36151042E+02
 20
-9.56718362E+01
 11
-1.36151042E+02
 21
-1.13671836E+02
  0
LINE
  8
0
 62
4
 10
-2.17651044E+02
 20
-1.01171834E+02
 11
-2.17204462E+02
 21
-1.00398330E+02
  0
LINE
  8
0
 62
4
 10
-2.14151046E+02
 20
-9.56718362E+01
 11
-1.36151042E+02
 21
-9.56718362E+01
  0
LINE
  8
0
 62
4
 10
-2.14151046E+02
 20
-9.56718362E+01
 11
-2.14151046E+02
 21
-1.13671836E+02
  0
LINE
  8
0
 62
4
 10
-1.36151042E+02
 20
-1.02671844E+02
 11
-2.14151046E+02
 21
-1.02671844E+02
  0
LINE
  8
0
 62
4
 10
-1.36151042E+02
 20
-1.03171844E+02
 11
-2.14151046E+02
 21
-1.03171844E+02
  0
LINE
  8
0
 62
4
 10
-1.36151042E+02
 20
-1.06171829E+02
 11
-2.14151046E+02
 21
-1.06171829E+02
  0
LINE
  8
0
 62
4
 10
-1.36151042E+02
 20
-1.06671829E+02
 11
-2.14151046E+02
 21
-1.06671829E+02
  0
LINE
  8
0
  6
DASHED
 62
6
 10
-2.21573779E+02
 20
-1.00749110E+02
 11
-2.22151049E+02
 21
-1.00171840E+02
  0
LINE
  8
0
 62
6
 10
-2.47151046E+02
 20
-1.11671836E+02
 11
-2.73151046E+02
 21
-1.11671836E+02
  0
LINE
  8
0
 62
6
 10
-2.47151046E+02
 20
-1.00671836E+02
 11
-2.73151046E+02
 21
-1.00671836E+02
  0
LINE
  8
0
 62
4
 10
-2.47151046E+02
 20
-1.00171836E+02
 11
-2.72651046E+02
 21
-1.00171836E+02
  0
LINE
  8
0
 62
4
 10
-2.47151046E+02
 20
-1.12171836E+02
 11
-2.72651046E+02
 21
-1.12171836E+02
  0
LINE
  8
0
 62
4
 10
-2.47151046E+02
 20
-1.14254741E+02
 11
-2.43751044E+02
 21
-1.14254741E+02
  0
LINE
  8
0
 62
4
 10
-2.47151046E+02
 20
-9.80889314E+01
 11
-2.43751044E+02
 21
-9.80889314E+01
  0
LINE
  8
0
 62
4
 10
-2.47151046E+02
 20
-9.80889314E+01
 11
-2.47151046E+02
 21
-1.14254741E+02
  0
LINE
  8
0
 62
4
 10
-2.47151046E+02
 20
-1.02130386E+02
 11
-2.43751044E+02
 21
-1.02130386E+02
  0
LINE
  8
0
 62
4
 10
-2.47151046E+02
 20
-1.10213287E+02
 11
-2.43751044E+02
 21
-1.10213287E+02
  0
LINE
  8
0
 62
4
 10
-2.73651046E+02
 20
-1.06821838E+02
 11
-2.73651046E+02
 21
-1.11171836E+02
  0
LINE
  8
0
 62
6
 10
-2.72651046E+02
 20
-1.06821838E+02
 11
-2.72651046E+02
 21
-1.12171836E+02
  0
LINE
  8
0
 62
4
 10
-2.72151046E+02
 20
-1.05521835E+02
 11
-2.72151046E+02
 21
-1.06821838E+02
  0
LINE
  8
0
 62
4
 10
-2.72151046E+02
 20
-1.05521835E+02
 11
-2.73651046E+02
 21
-1.05521835E+02
  0
LINE
  8
0
 62
4
 10
-2.72151046E+02
 20
-1.06821838E+02
 11
-2.73651046E+02
 21
-1.06821838E+02
  0
LINE
  8
0
  6
PHANTOM
 62
6
 10
-2.07651046E+02
 20
-1.04421836E+02
 11
-2.17651046E+02
 21
-1.04421836E+02
  0
LINE
  8
0
 62
4
 10
-2.17651046E+02
 20
-1.11171836E+02
 11
-2.21151046E+02
 21
-1.11171836E+02
  0
LINE
  8
0
  6
DASHED
 62
6
 10
-2.21151046E+02
 20
-1.11171838E+02
 11
-2.22151045E+02
 21
-1.12171836E+02
  0
LINE
  8
0
 62
4
 10
-2.21151049E+02
 20
-1.01171839E+02
 11
-2.21573779E+02
 21
-1.00749110E+02
  0
LINE
  8
0
 62
4
 10
-2.17651046E+02
 20
-1.01171836E+02
 11
-2.21151046E+02
 21
-1.01171836E+02
  0
LINE
  8
0
  6
PHANTOM
 62
6
 10
-2.07651046E+02
 20
-1.07921836E+02
 11
-2.17651046E+02
 21
-1.07921836E+02
  0
LINE
  8
0
 62
7
 10
-2.73651048E+02
 20
-1.11171836E+02
 11
-2.72651047E+02
 21
-1.12171837E+02
  0
LINE
  8
0
 62
4
 10
-2.72651053E+02
 20
-1.00171840E+02
 11
-2.73651048E+02
 21
-1.01171836E+02
  0
LINE
  8
0
  6
DASHED
 62
6
 10
-2.22151046E+02
 20
-1.00171836E+02
 11
-2.22151046E+02
 21
-1.12171836E+02
  0
LINE
  8
0
 62
4
 10
-2.21151046E+02
 20
-1.01171836E+02
 11
-2.21151046E+02
 21
-1.11171836E+02
  0
LINE
  8
0
 62
6
 10
-2.72651046E+02
 20
-1.00171836E+02
 11
-2.72651046E+02
 21
-1.05521835E+02
  0
LINE
  8
0
  6
PHANTOM
 62
6
 10
-2.07651046E+02
 20
-1.04421836E+02
 11
-2.07651046E+02
 21
-1.07921836E+02
  0
LINE
  8
0
 62
4
 10
-2.73651046E+02
 20
-1.01171836E+02
 11
-2.73651046E+02
 21
-1.05521835E+02
  0
LINE
  8
0
  6
CENTER
 62
6
 10
-2.04900504E+02
 20
-1.06171836E+02
 11
-2.75825416E+02
 21
-1.06171836E+02
  0
LINE
  8
0
 62
4
 10
-2.17651046E+02
 20
-1.01171836E+02
 11
-2.17651046E+02
 21
-1.11171836E+02
  0
LINE
  8
0
 62
4
 10
-2.42102202E+02
 20
-9.86369393E+01
 11
-2.43151046E+02
 21
-9.86369393E+01
  0
LINE
  8
0
 62
4
 10
-2.43124167E+02
 20
-1.27902135E+02
 11
-2.42102204E+02
 21
-9.86369378E+01
  0
LINE
  8
0
 62
4
 10
-2.20920691E+02
 20
-1.19451029E+02
 11
-2.21647536E+02
 21
-9.86369340E+01
  0
LINE
  8
0
 62
4
 10
-2.43151046E+02
 20
-1.45671836E+02
 11
-2.43151046E+02
 21
-9.86369393E+01
  0
LINE
  8
0
 62
7
 10
-2.15851058E+02
 20
-1.21292907E+02
 11
-2.15851058E+02
 21
-1.21296836E+02
  0
LINE
  8
0
 62
4
 10
-2.26364608E+02
 20
-1.36875187E+02
 11
-2.26057422E+02
 21
-1.45671842E+02
  0
LINE
  8
0
 62
4
 10
-1.95151061E+02
 20
-1.27171834E+02
 11
-1.94505027E+02
 21
-1.45671837E+02
  0
LINE
  8
0
 62
4
 10
-2.12925567E+02
 20
-1.27171836E+02
 11
-1.95151061E+02
 21
-1.27171836E+02
  0
LINE
  8
0
  6
DASHED
 62
6
 10
-2.21593940E+02
 20
-1.00171836E+02
 11
-2.43151046E+02
 21
-1.00171836E+02
  0
LINE
  8
0
  6
DASHED
 62
6
 10
-2.21192348E+02
 20
-1.11671836E+02
 11
-2.43151046E+02
 21
-1.11671836E+02
  0
LINE
  8
0
  6
DASHED
 62
6
 10
-2.21576476E+02
 20
-1.00671836E+02
 11
-2.43151046E+02
 21
-1.00671836E+02
  0
LINE
  8
0
  6
DASHED
 62
6
 10
-2.21174888E+02
 20
-1.12171836E+02
 11
-2.43151046E+02
 21
-1.12171836E+02
  0
LINE
  8
0
 62
4
 10
-2.41102813E+02
 20
-9.76718362E+01
 11
-2.22646926E+02
 21
-9.76718362E+01
  0
LINE
  8
0
 62
4
 10
-2.34859431E+02
 20
-1.28671836E+02
 11
-2.42151046E+02
 21
-1.28671836E+02
  0
LINE
  8
0
 62
7
 10
-2.17651046E+02
 20
-1.13671836E+02
 11
-1.32651046E+02
 21
-1.13671836E+02
  0
LINE
  8
0
 62
7
 10
-2.17651046E+02
 20
-1.13671836E+02
 11
-2.17651046E+02
 21
-1.19171836E+02
  0
LINE
  8
0
 62
7
 10
-1.94505027E+02
 20
-1.45671836E+02
 11
-1.05797065E+02
 21
-1.45671836E+02
  0
ARC
  8
0
 62
4
 10
-6.54426604E+01
 20
-1.37171836E+02
 40
8.50000000E+00
 50
9.00000002E+01
 51
1.78000003E+02
  0
LINE
  8
0
  6
DASHED
 62
6
 10
-7.87081519E+01
 20
-1.00171836E+02
 11
-5.71510459E+01
 21
-1.00171836E+02
  0
LINE
  8
0
  6
DASHED
 62
6
 10
-7.91097441E+01
 20
-1.11671836E+02
 11
-5.71510459E+01
 21
-1.11671836E+02
  0
LINE
  8
0
  6
DASHED
 62
6
 10
-7.87256156E+01
 20
-1.00671836E+02
 11
-5.71510459E+01
 21
-1.00671836E+02
  0
LINE
  8
0
  6
DASHED
 62
6
 10
-7.91272040E+01
 20
-1.12171836E+02
 11
-5.71510459E+01
 21
-1.12171836E+02
  0
LINE
  8
0
 62
4
 10
-5.91992789E+01
 20
-9.76718362E+01
 11
-7.76551658E+01
 21
-9.76718362E+01
  0
LINE
  8
0
 62
4
 10
-6.54426604E+01
 20
-1.28671836E+02
 11
-5.81510459E+01
 21
-1.28671836E+02
  0
LINE
  8
0
 62
4
 10
-5.71510459E+01
 20
-1.45671836E+02
 11
-5.71510459E+01
 21
-9.86369393E+01
  0
LINE
  8
0
 62
4
 10
-5.71779243E+01
 20
-1.27902135E+02
 11
-5.81998875E+01
 21
-9.86369378E+01
  0
LINE
  8
0
 62
4
 10
-5.81998893E+01
 20
-9.86369393E+01
 11
-5.71510459E+01
 21
-9.86369393E+01
  0
LINE
  8
0
 62
4
 10
-2.66510459E+01
 20
-1.01171836E+02
 11
-2.66510459E+01
 21
-1.05521835E+02
  0
LINE
  8
0
 62
6
 10
-2.76510459E+01
 20
-1.00171836E+02
 11
-2.76510459E+01
 21
-1.05521835E+02
  0
LINE
  8
0
 62
4
 10
-2.76510392E+01
 20
-1.00171840E+02
 11
-2.66510435E+01
 21
-1.01171836E+02
  0
LINE
  8
0
 62
7
 10
-2.66510439E+01
 20
-1.11171836E+02
 11
-2.76510451E+01
 21
-1.12171837E+02
  0
LINE
  8
0
 62
4
 10
-2.81510459E+01
 20
-1.06821838E+02
 11
-2.66510459E+01
 21
-1.06821838E+02
  0
LINE
  8
0
 62
4
 10
-2.81510459E+01
 20
-1.05521835E+02
 11
-2.66510459E+01
 21
-1.05521835E+02
  0
LINE
  8
0
 62
4
 10
-2.81510459E+01
 20
-1.05521835E+02
 11
-2.81510459E+01
 21
-1.06821838E+02
  0
LINE
  8
0
 62
6
 10
-2.76510459E+01
 20
-1.06821838E+02
 11
-2.76510459E+01
 21
-1.12171836E+02
  0
LINE
  8
0
 62
4
 10
-2.66510459E+01
 20
-1.06821838E+02
 11
-2.66510459E+01
 21
-1.11171836E+02
  0
LINE
  8
0
 62
4
 10
-5.31510459E+01
 20
-1.10213287E+02
 11
-5.65510474E+01
 21
-1.10213287E+02
  0
LINE
  8
0
 62
4
 10
-5.31510459E+01
 20
-1.02130386E+02
 11
-5.65510474E+01
 21
-1.02130386E+02
  0
LINE
  8
0
 62
4
 10
-5.31510459E+01
 20
-9.80889314E+01
 11
-5.31510459E+01
 21
-1.14254741E+02
  0
LINE
  8
0
 62
4
 10
-5.31510459E+01
 20
-9.80889314E+01
 11
-5.65510474E+01
 21
-9.80889314E+01
  0
LINE
  8
0
 62
4
 10
-5.31510459E+01
 20
-1.14254741E+02
 11
-5.65510474E+01
 21
-1.14254741E+02
  0
LINE
  8
0
 62
4
 10
-5.31510459E+01
 20
-1.12171836E+02
 11
-2.76510459E+01
 21
-1.12171836E+02
  0
LINE
  8
0
 62
4
 10
-5.31510459E+01
 20
-1.00171836E+02
 11
-2.76510459E+01
 21
-1.00171836E+02
  0
LINE
  8
0
 62
6
 10
-5.31510459E+01
 20
-1.00671836E+02
 11
-2.71510459E+01
 21
-1.00671836E+02
  0
LINE
  8
0
 62
6
 10
-5.31510459E+01
 20
-1.11671836E+02
 11
-2.71510459E+01
 21
-1.11671836E+02
  0
LINE
  8
0
  6
CENTER
 62
6
 10
-6.51510459E+01
 20
-1.29671836E+02
 11
-6.51510459E+01
 21
-1.44671836E+02
  0
LINE
  8
0
  6
CENTER
 62
6
 10
-7.26510459E+01
 20
-1.37171836E+02
 11
-5.76510459E+01
 21
-1.37171836E+02
  0
ARC
  8
0
 62
4
 10
-5.91992789E+01
 20
-9.86718362E+01
 40
1.00000000E+00
 50
1.99999999E+00
 51
9.00000002E+01
  0
ARC
  8
0
 62
4
 10
-5.81510459E+01
 20
-1.27671836E+02
 40
1.00000000E+00
 50
2.70000000E+02
 51
0.00000000E+00
  0
ARC
  8
0
 62
4
 10
-5.34750510E+01
 20
-1.00109657E+02
 40
3.68036413E+00
 50
1.46697724E+02
 51
2.13302273E+02
  0
ARC
  8
0
 62
4
 10
-4.32399360E+01
 20
-1.06171836E+02
 40
1.39111109E+01
 50
1.63110928E+02
 51
1.96889068E+02
  0
ARC
  8
0
 62
4
 10
-5.34750510E+01
 20
-1.12234016E+02
 40
3.68036413E+00
 50
1.46697724E+02
 51
2.13302273E+02
  0
CIRCLE
  8
0
 62
6
 10
-6.51510459E+01
 20
-1.37171836E+02
 40
4.84999990E+00
  0
CIRCLE
  8
0
 62
4
 10
-6.51510459E+01
 20
-1.37171836E+02
 40
6.00000000E+00
  0
CIRCLE
  8
0
 62
4
 10
-6.51510459E+01
 20
-1.37171836E+02
 40
4.25000000E+00
  0
LINE
  8
0
 62
4
 10
-5.71510459E+01
 20
-1.45671836E+02
 11
-1.05797065E+02
 21
-1.45671836E+02
  0
LINE
  8
0
 62
4
 10
-7.39374836E+01
 20
-1.36875187E+02
 11
-7.42446696E+01
 21
-1.45671842E+02
  0
LINE
  8
0
 62
4
 10
-1.05151031E+02
 20
-1.27171834E+02
 11
-1.05797065E+02
 21
-1.45671837E+02
  0
LINE
  8
0
 62
4
 10
-8.26510459E+01
 20
-1.11171836E+02
 11
-7.91510459E+01
 21
-1.11171836E+02
  0
LINE
  8
0
 62
4
 10
-8.26510459E+01
 20
-1.01171836E+02
 11
-7.91510459E+01
 21
-1.01171836E+02
  0
LINE
  8
0
 62
4
 10
-7.93814003E+01
 20
-1.19451029E+02
 11
-7.86545561E+01
 21
-9.86369340E+01
  0
LINE
  8
0
 62
4
 10
-7.91510459E+01
 20
-1.01171836E+02
 11
-7.91510459E+01
 21
-1.11171836E+02
  0
LINE
  8
0
  6
DASHED
 62
6
 10
-7.81510459E+01
 20
-1.00171836E+02
 11
-7.81510459E+01
 21
-1.12171836E+02
  0
LINE
  8
0
 62
4
 10
-7.91510423E+01
 20
-1.01171839E+02
 11
-7.87283125E+01
 21
-1.00749110E+02
  0
LINE
  8
0
  6
DASHED
 62
6
 10
-7.91510454E+01
 20
-1.11171838E+02
 11
-7.81510470E+01
 21
-1.12171836E+02
  0
LINE
  8
0
  6
DASHED
 62
6
 10
-7.87283125E+01
 20
-1.00749110E+02
 11
-7.81510425E+01
 21
-1.00171840E+02
  0
ARC
  8
0
 62
4
 10
-7.76551658E+01
 20
-9.86718362E+01
 40
1.00000000E+00
 50
9.00000002E+01
 51
1.78000003E+02
  0
LINE
  8
0
 62
4
 10
-8.26510459E+01
 20
-1.01171836E+02
 11
-8.26510459E+01
 21
-1.11171836E+02
  0
LINE
  8
0
 62
4
 10
-9.26510459E+01
 20
-1.04421836E+02
 11
-8.26510459E+01
 21
-1.04421836E+02
  0
LINE
  8
0
 62
4
 10
-9.26510459E+01
 20
-1.07921836E+02
 11
-8.26510459E+01
 21
-1.07921836E+02
  0
LINE
  8
0
 62
4
 10
-9.26510459E+01
 20
-1.04421836E+02
 11
-9.26510459E+01
 21
-1.07921836E+02
  0
ARC
  8
0
 62
4
 10
-8.73765250E+01
 20
-1.19171836E+02
 40
8.00000000E+00
 50
2.70000000E+02
 51
3.58000000E+02
  0
LINE
  8
0
 62
7
 10
-7.93891097E+01
 20
-1.19671836E+02
 11
-8.21510459E+01
 21
-1.19671836E+02
  0
LINE
  8
0
 62
7
 10
-7.92494269E+01
 20
-1.15671836E+02
 11
-8.21510459E+01
 21
-1.15671836E+02
  0
LINE
  8
0
 62
7
 10
-8.11510459E+01
 20
-1.15671836E+02
 11
-8.11510459E+01
 21
-1.19671836E+02
  0
LINE
  8
0
 62
7
 10
-8.21510459E+01
 20
-1.15671836E+02
 11
-8.21510459E+01
 21
-1.19671836E+02
  0
LINE
  8
0
 62
7
 10
-9.11510459E+01
 20
-1.24171836E+02
 11
-9.11510459E+01
 21
-1.26871825E+02
  0
LINE
  8
0
 62
7
 10
-9.11510459E+01
 20
-1.24171836E+02
 11
-8.11315261E+01
 21
-1.24171836E+02
  0
LINE
  8
0
 62
7
 10
-9.11510459E+01
 20
-1.26671829E+02
 11
-8.45926200E+01
 21
-1.26671829E+02
  0
LINE
  8
0
 62
4
 10
-8.73765250E+01
 20
-1.27171836E+02
 11
-1.05151031E+02
 21
-1.27171836E+02
  0
LINE
  8
0
 62
4
 10
-1.45994635E+01
 20
-1.45671836E+02
 11
-2.21510459E+01
 21
-1.45671836E+02
  0
LINE
  8
0
 62
4
 10
-1.40058089E+01
 20
-1.28671836E+02
 11
-2.11510459E+01
 21
-1.28671836E+02
  0
LINE
  8
0
  6
DASHED
 62
6
 10
-1.39534255E+01
 20
-1.27171836E+02
 11
-2.21510459E+01
 21
-1.27171836E+02
  0
LINE
  8
0
  6
DASHED
 62
6
 10
-1.99010497E+01
 20
-1.34171836E+02
 11
-1.54010459E+01
 21
-1.34171836E+02
  0
ARC
  8
0
 62
4
 10
-3.15104588E+00
 20
-1.25671836E+02
 40
1.90000000E+01
 50
1.07333908E+02
 51
1.80000004E+02
  0
CIRCLE
  8
0
 62
7
 10
2.88489541E+01
 20
-1.41671836E+02
 40
1.73205078E+00
  0
CIRCLE
  8
0
 62
7
 10
2.88489541E+01
 20
-1.41671836E+02
 40
3.50000000E+00
  0
CIRCLE
  8
0
 62
7
 10
2.88489541E+01
 20
-1.26171836E+02
 40
1.73205078E+00
  0
CIRCLE
  8
0
 62
7
 10
2.88489541E+01
 20
-1.26171836E+02
 40
3.50000000E+00
  0
ARC
  8
0
 62
7
 10
3.21489572E+01
 20
-1.35271842E+02
 40
1.39999998E+00
 50
1.79999998E+02
 51
9.33466684E-06
  0
ARC
  8
0
 62
7
 10
3.45489511E+01
 20
-1.33571830E+02
 40
3.00000012E-01
 50
3.59999996E+02
 51
9.00000002E+01
  0
ARC
  8
0
 62
7
 10
3.45489511E+01
 20
-1.29771842E+02
 40
3.00000012E-01
 50
2.70000000E+02
 51
3.59999989E+02
  0
ARC
  8
0
 62
7
 10
3.19489450E+01
 20
-1.31671836E+02
 40
2.09999990E+00
 50
9.00000002E+01
 51
2.35150107E+02
  0
ARC
  8
0
 62
7
 10
3.13489389E+01
 20
-1.35171836E+02
 40
2.00000000E+00
 50
1.79999991E+02
 51
2.70000000E+02
  0
ARC
  8
0
 62
7
 10
-3.15104588E+00
 20
-1.25671836E+02
 40
1.00000000E+01
 50
9.00000002E+01
 51
1.66076796E+02
  0
ARC
  8
0
 62
7
 10
2.48489541E+01
 20
-1.25671836E+02
 40
1.00000000E+01
 50
1.43881580E+01
 51
9.00000002E+01
  0
ARC
  8
0
 62
7
 10
3.13489389E+01
 20
-1.31171836E+02
 40
2.00000000E+00
 50
9.00000002E+01
 51
1.80000001E+02
  0
ARC
  8
0
 62
7
 10
2.88489541E+01
 20
-1.26171836E+02
 40
4.00000000E+00
 50
3.11303056E+02
 51
2.81826838E+02
  0
CIRCLE
  8
0
 62
7
 10
-7.15104588E+00
 20
-1.26171836E+02
 40
4.00000000E+00
  0
ARC
  8
0
 62
7
 10
2.88489541E+01
 20
-1.41671836E+02
 40
4.00000000E+00
 50
3.04228865E+02
 51
2.35771145E+02
  0
CIRCLE
  8
0
 62
7
 10
-7.15104588E+00
 20
-1.26171836E+02
 40
1.73205078E+00
  0
CIRCLE
  8
0
 62
7
 10
-7.15104588E+00
 20
-1.26171836E+02
 40
3.50000000E+00
  0
CIRCLE
  8
0
 62
6
 10
1.08489541E+01
 20
-1.06171836E+02
 40
5.50000000E+00
  0
CIRCLE
  8
0
 62
4
 10
1.08489541E+01
 20
-1.06171836E+02
 40
6.00000000E+00
  0
ARC
  8
0
 62
4
 10
3.57735604E+01
 20
-1.30671836E+02
 40
2.00000000E+00
 50
1.99999800E+00
 51
9.00000002E+01
  0
ARC
  8
0
 62
4
 10
-1.40756522E+01
 20
-1.30671836E+02
 40
2.00000000E+00
 50
9.00000002E+01
 51
1.78000012E+02
  0
ARC
  8
0
 62
4
 10
-3.15104588E+00
 20
-1.25671836E+02
 40
1.07500000E+01
 50
9.00000002E+01
 51
1.80000004E+02
  0
ARC
  8
0
 62
4
 10
2.48489541E+01
 20
-1.25671836E+02
 40
1.07500000E+01
 50
2.50447817E-06
 51
9.00000002E+01
  0
ARC
  8
0
 62
4
 10
4.28489541E+01
 20
-1.27671836E+02
 40
1.00000000E+00
 50
2.70000000E+02
 51
2.50447847E-06
  0
ARC
  8
0
 62
4
 10
-1.17913047E+01
 20
-9.79888833E+01
 40
1.00000000E+01
 50
2.87333916E+02
 51
3.18997007E+02
  0
ARC
  8
0
 62
4
 10
1.08489541E+01
 20
-1.17671836E+02
 40
2.00000000E+01
 50
4.11603685E+01
 51
1.38997009E+02
  0
ARC
  8
0
 62
4
 10
3.34892129E+01
 20
-9.79888833E+01
 40
1.00000000E+01
 50
2.21002993E+02
 51
2.52666085E+02
  0
ARC
  8
0
 62
4
 10
2.48489541E+01
 20
-1.25671836E+02
 40
1.90000000E+01
 50
3.59999996E+02
 51
7.26660914E+01
  0
LINE
  8
0
  6
DASHED
 62
6
 10
-1.54010424E+01
 20
-1.34171837E+02
 11
-1.52788572E+01
 21
-1.27171850E+02
  0
LINE
  8
0
  6
DASHED
 62
6
 10
-1.54010446E+01
 20
-1.34171848E+02
 11
-1.52003114E+01
 21
-1.45671851E+02
  0
LINE
  8
0
  6
DASHED
 62
6
 10
3.70989548E+01
 20
-1.34171844E+02
 11
3.68982215E+01
 21
-1.45671847E+02
  0
LINE
  8
0
  6
DASHED
 62
6
 10
4.15989613E+01
 20
-1.34171842E+02
 11
4.17211467E+01
 21
-1.27171841E+02
  0
LINE
  8
0
  6
DASHED
 62
6
 10
3.70989545E+01
 20
-1.34171841E+02
 11
3.69767690E+01
 21
-1.27171839E+02
  0
LINE
  8
0
  6
DASHED
 62
6
 10
4.15989610E+01
 20
-1.34171842E+02
 11
4.17996942E+01
 21
-1.45671845E+02
  0
LINE
  8
0
  6
DASHED
 62
6
 10
4.15989541E+01
 20
-1.34171836E+02
 11
3.70989541E+01
 21
-1.34171836E+02
  0
LINE
  8
0
  6
DASHED
 62
6
 10
4.38489541E+01
 20
-1.27171836E+02
 11
3.56513375E+01
 21
-1.27171836E+02
  0
LINE
  8
0
 62
7
 10
2.97149813E+01
 20
-1.40171827E+02
 11
3.05810091E+01
 21
-1.41671831E+02
  0
LINE
  8
0
 62
7
 10
2.97149820E+01
 20
-1.43171836E+02
 11
2.79829263E+01
 21
-1.43171836E+02
  0
LINE
  8
0
 62
7
 10
2.97149820E+01
 20
-1.40171836E+02
 11
2.79829263E+01
 21
-1.40171836E+02
  0
LINE
  8
0
 62
7
 10
2.79829414E+01
 20
-1.40171837E+02
 11
2.71169174E+01
 21
-1.41671835E+02
  0
LINE
  8
0
 62
7
 10
2.71169051E+01
 20
-1.41671827E+02
 11
2.79829329E+01
 21
-1.43171831E+02
  0
LINE
  8
0
 62
7
 10
3.05810176E+01
 20
-1.41671837E+02
 11
2.97149936E+01
 21
-1.43171835E+02
  0
LINE
  8
0
  6
CENTER
 62
2
 10
3.43489541E+01
 20
-1.41671836E+02
 11
2.33489541E+01
 21
-1.41671836E+02
  0
LINE
  8
0
  6
CENTER
 62
2
 10
2.88489541E+01
 20
-1.36171836E+02
 11
2.88489541E+01
 21
-1.47171836E+02
  0
LINE
  8
0
 62
7
 10
-6.28501568E+00
 20
-1.24671835E+02
 11
-5.41899548E+00
 21
-1.26171826E+02
  0
LINE
  8
0
 62
7
 10
-6.28501804E+00
 20
-1.27671836E+02
 11
-8.01707371E+00
 21
-1.27671836E+02
  0
LINE
  8
0
 62
7
 10
-6.28501804E+00
 20
-1.24671836E+02
 11
-8.01707371E+00
 21
-1.24671836E+02
  0
LINE
  8
0
 62
7
 10
2.97149854E+01
 20
-1.24671834E+02
 11
3.05810132E+01
 21
-1.26171838E+02
  0
LINE
  8
0
 62
7
 10
2.97149820E+01
 20
-1.27671836E+02
 11
2.79829263E+01
 21
-1.27671836E+02
  0
LINE
  8
0
 62
7
 10
2.97149820E+01
 20
-1.24671836E+02
 11
2.79829263E+01
 21
-1.24671836E+02
  0
LINE
  8
0
 62
7
 10
2.71169095E+01
 20
-1.26171834E+02
 11
2.79829373E+01
 21
-1.27671838E+02
  0
LINE
  8
0
 62
7
 10
3.05810175E+01
 20
-1.26171838E+02
 11
2.97149934E+01
 21
-1.27671836E+02
  0
LINE
  8
0
 62
7
 10
2.79829413E+01
 20
-1.24671838E+02
 11
2.71169173E+01
 21
-1.26171836E+02
  0
LINE
  8
0
  6
CENTER
 62
2
 10
2.88489541E+01
 20
-1.20671836E+02
 11
2.88489541E+01
 21
-1.31671836E+02
  0
LINE
  8
0
 62
7
 10
-8.01706786E+00
 20
-1.24671832E+02
 11
-8.88309187E+00
 21
-1.26171830E+02
  0
LINE
  8
0
  6
CENTER
 62
2
 10
3.43489541E+01
 20
-1.26171836E+02
 11
2.33489541E+01
 21
-1.26171836E+02
  0
LINE
  8
0
 62
7
 10
-8.88309184E+00
 20
-1.26171835E+02
 11
-8.01707164E+00
 21
-1.27671826E+02
  0
LINE
  8
0
 62
7
 10
2.83489541E+01
 20
-1.16304343E+02
 11
2.83489541E+01
 21
-1.15507560E+02
  0
LINE
  8
0
 62
7
 10
-6.65104588E+00
 20
-1.16304343E+02
 11
-6.65104588E+00
 21
-1.15507560E+02
  0
LINE
  8
0
 62
7
 10
3.48489541E+01
 20
-1.29771842E+02
 11
3.48489541E+01
 21
-1.29171836E+02
  0
LINE
  8
0
 62
7
 10
3.45489511E+01
 20
-1.33271842E+02
 11
3.40489511E+01
 21
-1.33271842E+02
  0
LINE
  8
0
 62
7
 10
3.35489511E+01
 20
-1.35271842E+02
 11
3.35489511E+01
 21
-1.33771842E+02
  0
LINE
  8
0
 62
7
 10
3.40489729E+01
 20
-1.33271826E+02
 11
3.35489724E+01
 21
-1.33771827E+02
  0
LINE
  8
0
 62
7
 10
3.35489511E+01
 20
-1.29571830E+02
 11
3.19489450E+01
 21
-1.29571830E+02
  0
LINE
  8
0
 62
7
 10
3.40489621E+01
 20
-1.30071816E+02
 11
3.35489724E+01
 21
-1.29571827E+02
  0
LINE
  8
0
 62
7
 10
3.07489480E+01
 20
-1.35271842E+02
 11
3.07489480E+01
 21
-1.33395194E+02
  0
LINE
  8
0
 62
7
 10
3.45489511E+01
 20
-1.30071830E+02
 11
3.40489511E+01
 21
-1.30071830E+02
  0
LINE
  8
0
 62
7
 10
9.34895412E+00
 20
-1.45671836E+02
 11
-1.31510459E+01
 21
-1.45671836E+02
  0
LINE
  8
0
 62
7
 10
9.34895412E+00
 20
-1.44671836E+02
 11
9.34895412E+00
 21
-1.45671836E+02
  0
LINE
  8
0
 62
7
 10
1.23489541E+01
 20
-1.44671836E+02
 11
9.34895412E+00
 21
-1.44671836E+02
  0
LINE
  8
0
 62
7
 10
1.23489541E+01
 20
-1.44671836E+02
 11
1.23489541E+01
 21
-1.45671836E+02
  0
LINE
  8
0
 62
7
 10
8.34895412E+00
 20
-1.19171836E+02
 11
3.84895412E+00
 21
-1.19171836E+02
  0
LINE
  8
0
 62
7
 10
1.78489541E+01
 20
-1.19171836E+02
 11
1.33489541E+01
 21
-1.19171836E+02
  0
LINE
  8
0
 62
7
 10
1.78489541E+01
 20
-1.32171836E+02
 11
3.84895412E+00
 21
-1.32171836E+02
  0
LINE
  8
0
 62
7
 10
1.78489541E+01
 20
-1.19171836E+02
 11
1.78489541E+01
 21
-1.32171836E+02
  0
LINE
  8
0
 62
7
 10
3.84895412E+00
 20
-1.19171836E+02
 11
3.84895412E+00
 21
-1.32171836E+02
  0
LINE
  8
0
 62
7
 10
2.93489389E+01
 20
-1.35171836E+02
 11
2.93489389E+01
 21
-1.31171836E+02
  0
LINE
  8
0
 62
7
 10
2.65989541E+01
 20
-1.45671836E+02
 11
2.65989541E+01
 21
-1.44979026E+02
  0
LINE
  8
0
 62
7
 10
3.48489541E+01
 20
-1.45671836E+02
 11
1.23489541E+01
 21
-1.45671836E+02
  0
LINE
  8
0
 62
7
 10
-1.31510459E+01
 20
-1.45671836E+02
 11
-1.31510459E+01
 21
-1.28871833E+02
  0
LINE
  8
0
 62
7
 10
3.48489541E+01
 20
-1.45671836E+02
 11
3.48489541E+01
 21
-1.33571830E+02
  0
LINE
  8
0
 62
7
 10
-5.41899169E+00
 20
-1.26171832E+02
 11
-6.28501571E+00
 21
-1.27671830E+02
  0
LINE
  8
0
 62
7
 10
3.13489389E+01
 20
-1.37171836E+02
 11
3.48489541E+01
 21
-1.37171836E+02
  0
LINE
  8
0
  6
CENTER
 62
2
 10
-1.65104588E+00
 20
-1.26171836E+02
 11
-1.26510459E+01
 21
-1.26171836E+02
  0
LINE
  8
0
 62
7
 10
3.48489617E+01
 20
-1.29171838E+02
 11
3.45353061E+01
 21
-1.23186933E+02
  0
LINE
  8
0
 62
7
 10
1.33489541E+01
 20
-1.15671836E+02
 11
1.33489541E+01
 21
-1.19171836E+02
  0
LINE
  8
0
 62
7
 10
1.33489541E+01
 20
-1.15671836E+02
 11
2.48489541E+01
 21
-1.15671836E+02
  0
LINE
  8
0
 62
7
 10
-1.31510426E+01
 20
-1.28871827E+02
 11
-1.28572334E+01
 21
-1.23265614E+02
  0
LINE
  8
0
 62
7
 10
8.34895412E+00
 20
-1.15871833E+02
 11
1.33489541E+01
 21
-1.15871833E+02
  0
LINE
  8
0
 62
7
 10
8.34895412E+00
 20
-1.15671836E+02
 11
8.34895412E+00
 21
-1.19171836E+02
  0
LINE
  8
0
 62
7
 10
-3.15104588E+00
 20
-1.15671836E+02
 11
8.34895412E+00
 21
-1.15671836E+02
  0
LINE
  8
0
 62
7
 10
3.10989541E+01
 20
-1.45671836E+02
 11
3.10989541E+01
 21
-1.44979026E+02
  0
LINE
  8
0
  6
CENTER
 62
2
 10
-7.15104588E+00
 20
-1.20671836E+02
 11
-7.15104588E+00
 21
-1.31671836E+02
  0
LINE
  8
0
 62
7
 10
3.13489389E+01
 20
-1.29171836E+02
 11
3.48489541E+01
 21
-1.29171836E+02
  0
LINE
  8
0
 62
4
 10
1.08489562E+01
 20
-1.14254740E+02
 11
1.78489537E+01
 21
-1.10213289E+02
  0
LINE
  8
0
 62
4
 10
3.84895237E+00
 20
-1.02130378E+02
 11
1.08489498E+01
 21
-9.80889273E+01
  0
LINE
  8
0
 62
4
 10
3.84895709E+00
 20
-1.10213284E+02
 11
1.08489546E+01
 21
-1.14254734E+02
  0
LINE
  8
0
 62
4
 10
1.08489533E+01
 20
-9.80889349E+01
 11
1.78489508E+01
 21
-1.02130385E+02
  0
LINE
  8
0
 62
4
 10
3.84895412E+00
 20
-1.02130386E+02
 11
3.84895412E+00
 21
-1.10213287E+02
  0
LINE
  8
0
 62
4
 10
1.78489541E+01
 20
-1.02130386E+02
 11
1.78489541E+01
 21
-1.10213287E+02
  0
LINE
  8
0
 62
4
 10
-1.39010458E+01
 20
-1.25671846E+02
 11
-1.45994612E+01
 21
-1.45671847E+02
  0
LINE
  8
0
 62
4
 10
3.55989543E+01
 20
-1.25671835E+02
 11
3.62973697E+01
 21
-1.45671836E+02
  0
LINE
  8
0
 62
4
 10
-1.60744315E+01
 20
-1.30602051E+02
 11
-1.65982429E+01
 21
-1.45602048E+02
  0
LINE
  8
0
 62
4
 10
-3.15104588E+00
 20
-1.14921836E+02
 11
2.48489541E+01
 21
-1.14921836E+02
  0
LINE
  8
0
 62
4
 10
3.77723394E+01
 20
-1.30602024E+02
 11
3.82961514E+01
 21
-1.45602037E+02
  0
LINE
  8
0
 62
4
 10
4.28489541E+01
 20
-1.28671836E+02
 11
3.57037210E+01
 21
-1.28671836E+02
  0
LINE
  8
0
  6
CENTER
 62
6
 10
3.93489541E+01
 20
-1.23245887E+02
 11
3.93489541E+01
 21
-1.47219444E+02
  0
LINE
  8
0
 62
4
 10
4.38489541E+01
 20
-1.25671836E+02
 11
4.38489541E+01
 21
-1.45671836E+02
  0
LINE
  8
0
 62
4
 10
4.38489541E+01
 20
-1.45671836E+02
 11
3.62973718E+01
 21
-1.45671836E+02
  0
LINE
  8
0
  6
CENTER
 62
6
 10
2.08489541E+01
 20
-1.06171836E+02
 11
8.48954123E-01
 21
-1.06171836E+02
  0
LINE
  8
0
  6
CENTER
 62
6
 10
1.08489541E+01
 20
-8.94823046E+01
 11
1.08489541E+01
 21
-1.50171836E+02
  0
LINE
  8
0
 62
4
 10
5.34894649E+00
 20
-9.61718362E+01
 11
1.63489503E+01
 21
-9.61718362E+01
  0
LINE
  8
0
 62
4
 10
1.63489507E+01
 20
-9.61718357E+01
 11
1.68489512E+01
 21
-9.56718351E+01
  0
LINE
  8
0
 62
4
 10
1.68489503E+01
 20
-9.56718362E+01
 11
2.83489618E+01
 21
-9.56718362E+01
  0
LINE
  8
0
 62
4
 10
5.34895521E+00
 20
-9.61718411E+01
 11
4.84895468E+00
 21
-9.56718405E+01
  0
LINE
  8
0
 62
4
 10
-6.65104588E+00
 20
-9.56718362E+01
 11
4.84894649E+00
 21
-9.56718362E+01
  0
LINE
  8
0
 62
4
 10
-6.65104588E+00
 20
-9.56718362E+01
 11
-6.65104588E+00
 21
-1.02671844E+02
  0
LINE
  8
0
 62
4
 10
2.83489618E+01
 20
-9.56718362E+01
 11
2.83489618E+01
 21
-1.02671844E+02
  0
LINE
  8
0
 62
4
 10
2.78489618E+01
 20
-1.03171844E+02
 11
2.78489618E+01
 21
-1.06171829E+02
  0
LINE
  8
0
 62
4
 10
-6.15105160E+00
 20
-1.03171843E+02
 11
-6.65105214E+00
 21
-1.02671843E+02
  0
LINE
  8
0
 62
4
 10
2.78489629E+01
 20
-1.03171843E+02
 11
2.83489634E+01
 21
-1.02671843E+02
  0
LINE
  8
0
 62
4
 10
-6.15104588E+00
 20
-1.03171844E+02
 11
-6.15104588E+00
 21
-1.06171829E+02
  0
ARC
  8
0
 62
4
 10
-2.11510459E+01
 20
-1.27671836E+02
 40
1.00000000E+00
 50
1.79999998E+02
 51
2.70000000E+02
  0
LINE
  8
0
  6
DASHED
 62
6
 10
-1.99010451E+01
 20
-1.34171838E+02
 11
-2.01017784E+01
 21
-1.45671841E+02
  0
LINE
  8
0
  6
DASHED
 62
6
 10
-1.99010473E+01
 20
-1.34171846E+02
 11
-2.00232328E+01
 21
-1.27171844E+02
  0
LINE
  8
0
  6
CENTER
 62
6
 10
-1.76510459E+01
 20
-1.23245887E+02
 11
-1.76510459E+01
 21
-1.47219444E+02
  0
LINE
  8
0
 62
4
 10
-2.21510459E+01
 20
-1.25671836E+02
 11
-2.21510459E+01
 21
-1.45671836E+02
  0
LINE
  8
0
  6
PHANTOM
 10
-1.18901038E+02
 20
-8.98641334E+01
 11
-1.18901038E+02
 21
-7.53188322E+00
  0
ARC
  8
0
 62
4
 10
-2.53659377E+02
 20
-4.21718362E+01
 40
1.05083332E+01
 50
3.40544843E+02
 51
1.94551605E+01
  0
ARC
  8
0
 62
4
 10
-2.53659377E+02
 20
-4.91718362E+01
 40
1.05083332E+01
 50
3.40544843E+02
 51
1.94551605E+01
  0
ARC
  8
0
 62
7
 10
-2.11151046E+02
 20
-3.41718362E+01
 40
6.00000000E+00
 50
1.19999998E+02
 51
1.80000000E+02
  0
ARC
  8
0
 62
7
 10
-1.39151046E+02
 20
-3.41718362E+01
 40
6.00000000E+00
 50
3.59999995E+02
 51
5.99999558E+01
  0
ARC
  8
0
 62
7
 10
-2.11151046E+02
 20
-5.71718362E+01
 40
6.00000000E+00
 50
1.80000000E+02
 51
2.40000001E+02
  0
ARC
  8
0
 62
7
 10
-1.39151046E+02
 20
-5.71718362E+01
 40
6.00000000E+00
 50
3.00000048E+02
 51
8.65142201E-06
  0
ARC
  8
0
 62
4
 10
-2.11151046E+02
 20
-4.81718400E+01
 40
6.50000000E+00
 50
1.57380135E+02
 51
2.02619865E+02
  0
ARC
  8
0
 62
4
 10
-2.11151046E+02
 20
-4.31718362E+01
 40
6.50000000E+00
 50
1.57380135E+02
 51
2.02619865E+02
  0
CIRCLE
  8
0
 62
4
 10
-2.00151046E+02
 20
-5.76718362E+01
 40
3.50000000E+00
  0
CIRCLE
  8
0
 62
4
 10
-2.00151046E+02
 20
-3.36718362E+01
 40
3.50000000E+00
  0
CIRCLE
  8
0
 62
4
 10
-1.50151046E+02
 20
-5.76718362E+01
 40
3.50000000E+00
  0
CIRCLE
  8
0
 62
4
 10
-1.50151046E+02
 20
-3.36718362E+01
 40
3.50000000E+00
  0
CIRCLE
  8
0
 62
4
 10
-1.50151046E+02
 20
-3.36718362E+01
 40
4.00000000E+00
  0
CIRCLE
  8
0
 62
4
 10
-2.00151046E+02
 20
-5.76718362E+01
 40
4.00000000E+00
  0
CIRCLE
  8
0
 62
4
 10
-2.00151046E+02
 20
-3.36718362E+01
 40
4.00000000E+00
  0
CIRCLE
  8
0
 62
4
 10
-1.50151046E+02
 20
-5.76718362E+01
 40
4.00000000E+00
  0
ARC
  8
0
 62
4
 10
-1.39151042E+02
 20
-4.81718362E+01
 40
6.50000000E+00
 50
3.37380129E+02
 51
2.26198603E+01
  0
ARC
  8
0
 62
4
 10
-1.39151042E+02
 20
-4.31718362E+01
 40
6.50000000E+00
 50
3.37380129E+02
 51
2.26198603E+01
  0
CIRCLE
  8
0
 62
6
 10
-1.60151046E+02
 20
-3.36718362E+01
 40
2.00000000E+00
  0
CIRCLE
  8
0
 62
6
 10
-1.90151046E+02
 20
-3.36718362E+01
 40
2.00000000E+00
  0
CIRCLE
  8
0
 62
4
 10
-1.90151046E+02
 20
-5.76718362E+01
 40
1.50000000E+00
  0
CIRCLE
  8
0
 62
4
 10
-1.90151046E+02
 20
-3.36718362E+01
 40
1.50000000E+00
  0
CIRCLE
  8
0
 62
6
 10
-1.60151046E+02
 20
-5.76718362E+01
 40
2.00000000E+00
  0
CIRCLE
  8
0
 62
4
 10
-1.60151046E+02
 20
-5.76718362E+01
 40
1.50000000E+00
  0
CIRCLE
  8
0
 62
4
 10
-1.60151046E+02
 20
-3.36718362E+01
 40
1.50000000E+00
  0
CIRCLE
  8
0
 62
6
 10
-1.90151046E+02
 20
-5.76718362E+01
 40
2.00000000E+00
  0
CIRCLE
  8
0
 62
4
 10
-2.08151061E+02
 20
-7.41718362E+01
 40
2.25000000E+00
  0
CIRCLE
  8
0
 62
4
 10
-2.00151061E+02
 20
-7.41718362E+01
 40
2.25000000E+00
  0
CIRCLE
  8
0
 62
4
 10
-2.00151061E+02
 20
-1.71718362E+01
 40
2.25000000E+00
  0
CIRCLE
  8
0
 62
4
 10
-2.08151061E+02
 20
-1.71718362E+01
 40
2.25000000E+00
  0
LINE
  8
0
 62
4
 10
-2.47151046E+02
 20
-4.56718362E+01
 11
-2.43751044E+02
 21
-4.56718362E+01
  0
LINE
  8
0
 62
4
 10
-2.43151046E+02
 20
-5.26718362E+01
 11
-2.47151046E+02
 21
-5.26718362E+01
  0
LINE
  8
0
 62
4
 10
-2.43151046E+02
 20
-3.86718362E+01
 11
-2.47151046E+02
 21
-3.86718362E+01
  0
LINE
  8
0
 62
7
 10
-7.96510154E+01
 20
-5.16718362E+01
 11
-1.32651046E+02
 21
-5.16718362E+01
  0
LINE
  8
0
 62
7
 10
-7.96510154E+01
 20
-3.96718362E+01
 11
-1.32651046E+02
 21
-3.96718362E+01
  0
LINE
  8
0
 62
7
 10
-2.09151046E+02
 20
-2.46718362E+01
 11
-2.09151046E+02
 21
-2.21718362E+01
  0
LINE
  8
0
 62
7
 10
-2.19151050E+02
 20
-3.79218243E+01
 11
-2.20651076E+02
 21
-3.76573292E+01
  0
LINE
  8
0
 62
7
 10
-2.19151051E+02
 20
-5.19218385E+01
 11
-2.20651076E+02
 21
-5.16573435E+01
  0
LINE
  8
0
 62
7
 10
-2.19151046E+02
 20
-5.19218362E+01
 11
-2.19151046E+02
 21
-5.34218362E+01
  0
LINE
  8
0
 62
7
 10
-2.20651076E+02
 20
-3.41718362E+01
 11
-2.19151046E+02
 21
-3.41718362E+01
  0
LINE
  8
0
 62
7
 10
-2.20651076E+02
 20
-2.21718362E+01
 11
-2.09151046E+02
 21
-2.21718362E+01
  0
LINE
  8
0
 62
7
 10
-2.20651076E+02
 20
-6.91718362E+01
 11
-2.09151046E+02
 21
-6.91718362E+01
  0
LINE
  8
0
 62
7
 10
-2.19151046E+02
 20
-3.61718362E+01
 11
-2.19151046E+02
 21
-3.41718362E+01
  0
LINE
  8
0
 62
7
 10
-2.19151046E+02
 20
-5.51718367E+01
 11
-2.20651076E+02
 21
-5.49073409E+01
  0
LINE
  8
0
 62
7
 10
-2.19151032E+02
 20
-3.61718380E+01
 11
-2.20651076E+02
 21
-3.64363361E+01
  0
LINE
  8
0
 62
7
 10
-2.19151046E+02
 20
-5.71718362E+01
 11
-2.19151046E+02
 21
-5.51718362E+01
  0
LINE
  8
0
 62
7
 10
-2.09151046E+02
 20
-6.66718362E+01
 11
-2.09151046E+02
 21
-6.91718362E+01
  0
LINE
  8
0
 62
7
 10
-2.19151037E+02
 20
-5.34218466E+01
 11
-2.20651076E+02
 21
-5.36863440E+01
  0
LINE
  8
0
 62
7
 10
-2.19151046E+02
 20
-3.94218362E+01
 11
-2.19151046E+02
 21
-3.79218362E+01
  0
LINE
  8
0
 62
7
 10
-2.20651076E+02
 20
-5.71718362E+01
 11
-2.19151046E+02
 21
-5.71718362E+01
  0
LINE
  8
0
 62
7
 10
-2.19151038E+02
 20
-3.94218362E+01
 11
-2.20651075E+02
 21
-3.96863333E+01
  0
LINE
  8
0
 62
7
 10
-7.96510154E+01
 20
-6.96718362E+01
 11
-2.20651076E+02
 21
-6.96718362E+01
  0
LINE
  8
0
 62
7
 10
-7.96510154E+01
 20
-6.66718362E+01
 11
-2.20651076E+02
 21
-6.66718362E+01
  0
LINE
  8
0
 62
7
 10
-7.96510154E+01
 20
-6.51718362E+01
 11
-2.20651076E+02
 21
-6.51718362E+01
  0
LINE
  8
0
 62
7
 10
-7.96510154E+01
 20
-2.61718362E+01
 11
-2.20651076E+02
 21
-2.61718362E+01
  0
LINE
  8
0
 62
7
 10
-7.96510154E+01
 20
-2.16718362E+01
 11
-2.20651076E+02
 21
-2.16718362E+01
  0
LINE
  8
0
 62
7
 10
-7.96510154E+01
 20
-2.46718362E+01
 11
-2.20651076E+02
 21
-2.46718362E+01
  0
LINE
  8
0
 62
7
 10
-2.17651046E+02
 20
-5.06718362E+01
 11
-2.17651046E+02
 21
-5.66718362E+01
  0
LINE
  8
0
 62
7
 10
-2.17151046E+02
 20
-3.46718362E+01
 11
-2.17151046E+02
 21
-3.41718362E+01
  0
LINE
  8
0
 62
7
 10
-1.33151046E+02
 20
-3.46718362E+01
 11
-1.33151046E+02
 21
-3.41718362E+01
  0
LINE
  8
0
 62
7
 10
-1.33151046E+02
 20
-5.66718362E+01
 11
-1.33151046E+02
 21
-5.71718362E+01
  0
LINE
  8
0
 62
7
 10
-2.17151046E+02
 20
-5.66718362E+01
 11
-2.17151046E+02
 21
-5.71718362E+01
  0
LINE
  8
0
 62
7
 10
-2.17151046E+02
 20
-5.66718362E+01
 11
-2.17651046E+02
 21
-5.66718362E+01
  0
LINE
  8
0
 62
7
 10
-2.17151046E+02
 20
-3.46718362E+01
 11
-2.17651046E+02
 21
-3.46718362E+01
  0
LINE
  8
0
 62
7
 10
-1.33151046E+02
 20
-5.66718362E+01
 11
-1.32651046E+02
 21
-5.66718362E+01
  0
LINE
  8
0
 62
7
 10
-1.33151046E+02
 20
-3.46718362E+01
 11
-1.32651046E+02
 21
-3.46718362E+01
  0
LINE
  8
0
 62
7
 10
-2.17651046E+02
 20
-3.46718362E+01
 11
-2.17651046E+02
 21
-4.06718362E+01
  0
LINE
  8
0
 62
7
 10
-1.32651046E+02
 20
-3.46718362E+01
 11
-1.32651046E+02
 21
-5.66718362E+01
  0
LINE
  8
0
  6
DASHED
 62
6
 10
-2.20651076E+02
 20
-5.06718362E+01
 11
-2.21151046E+02
 21
-5.06718362E+01
  0
LINE
  8
0
  6
DASHED
 62
6
 10
-2.20651076E+02
 20
-4.06718362E+01
 11
-2.21151046E+02
 21
-4.06718362E+01
  0
LINE
  8
0
 62
6
 10
-2.47151046E+02
 20
-5.11718362E+01
 11
-2.73151046E+02
 21
-5.11718362E+01
  0
LINE
  8
0
 62
6
 10
-2.47151046E+02
 20
-4.01718362E+01
 11
-2.73151046E+02
 21
-4.01718362E+01
  0
LINE
  8
0
 62
4
 10
-2.47151046E+02
 20
-3.96718362E+01
 11
-2.72651046E+02
 21
-3.96718362E+01
  0
LINE
  8
0
 62
4
 10
-2.47151046E+02
 20
-5.16718362E+01
 11
-2.72651046E+02
 21
-5.16718362E+01
  0
LINE
  8
0
 62
4
 10
-2.47151046E+02
 20
-3.86718362E+01
 11
-2.47151046E+02
 21
-5.26718362E+01
  0
LINE
  8
0
 62
4
 10
-2.73651046E+02
 20
-4.63218377E+01
 11
-2.73651046E+02
 21
-5.06718362E+01
  0
LINE
  8
0
 62
6
 10
-2.72651046E+02
 20
-4.63218377E+01
 11
-2.72651046E+02
 21
-5.16718362E+01
  0
LINE
  8
0
 62
7
 10
-2.72151046E+02
 20
-4.50218346E+01
 11
-2.72151046E+02
 21
-4.63218377E+01
  0
LINE
  8
0
 62
4
 10
-2.72151046E+02
 20
-4.50218346E+01
 11
-2.73651046E+02
 21
-4.50218346E+01
  0
LINE
  8
0
 62
4
 10
-2.72151046E+02
 20
-4.63218377E+01
 11
-2.73651046E+02
 21
-4.63218377E+01
  0
LINE
  8
0
  6
DASHED
 62
6
 10
-2.07651046E+02
 20
-4.39218362E+01
 11
-2.17651046E+02
 21
-4.39218362E+01
  0
LINE
  8
0
 62
4
 10
-2.17651046E+02
 20
-5.06718362E+01
 11
-2.20651076E+02
 21
-5.06718362E+01
  0
LINE
  8
0
  6
DASHED
 62
6
 10
-2.21151046E+02
 20
-5.06718338E+01
 11
-2.22151045E+02
 21
-5.16718325E+01
  0
LINE
  8
0
  6
DASHED
 62
6
 10
-2.21151048E+02
 20
-4.06718341E+01
 11
-2.22151050E+02
 21
-3.96718331E+01
  0
LINE
  8
0
 62
4
 10
-2.17651046E+02
 20
-4.06718362E+01
 11
-2.20651076E+02
 21
-4.06718362E+01
  0
LINE
  8
0
  6
DASHED
 62
6
 10
-2.07651046E+02
 20
-4.74218362E+01
 11
-2.17651046E+02
 21
-4.74218362E+01
  0
LINE
  8
0
 62
7
 10
-2.73651049E+02
 20
-5.06718339E+01
 11
-2.72651048E+02
 21
-5.16718349E+01
  0
LINE
  8
0
 62
7
 10
-2.72651050E+02
 20
-3.96718338E+01
 11
-2.73651050E+02
 21
-4.06718336E+01
  0
LINE
  8
0
  6
DASHED
 62
6
 10
-2.22151046E+02
 20
-3.96718362E+01
 11
-2.22151046E+02
 21
-5.16718362E+01
  0
LINE
  8
0
  6
DASHED
 62
6
 10
-2.21151046E+02
 20
-4.06718362E+01
 11
-2.21151046E+02
 21
-5.06718362E+01
  0
LINE
  8
0
 62
6
 10
-2.72651046E+02
 20
-3.96718362E+01
 11
-2.72651046E+02
 21
-4.50218346E+01
  0
LINE
  8
0
  6
DASHED
 62
6
 10
-2.07651046E+02
 20
-4.39218362E+01
 11
-2.07651046E+02
 21
-4.74218362E+01
  0
LINE
  8
0
 62
4
 10
-2.73651046E+02
 20
-4.06718362E+01
 11
-2.73651046E+02
 21
-4.50218346E+01
  0
LINE
  8
0
 62
4
 10
-2.01883098E+02
 20
-3.36718353E+01
 11
-2.01017070E+02
 21
-3.51718395E+01
  0
LINE
  8
0
 62
4
 10
-2.01017070E+02
 20
-3.51718362E+01
 11
-1.99285022E+02
 21
-3.51718362E+01
  0
LINE
  8
0
 62
4
 10
-1.99285017E+02
 20
-3.51718370E+01
 11
-1.98418991E+02
 21
-3.36718362E+01
  0
LINE
  8
0
 62
4
 10
-1.98418994E+02
 20
-3.36718395E+01
 11
-1.99285022E+02
 21
-3.21718353E+01
  0
LINE
  8
0
 62
4
 10
-2.01017070E+02
 20
-3.21718362E+01
 11
-1.99285022E+02
 21
-3.21718362E+01
  0
LINE
  8
0
 62
4
 10
-2.01883094E+02
 20
-3.36718370E+01
 11
-2.01017068E+02
 21
-3.21718362E+01
  0
LINE
  8
0
 62
4
 10
-2.01883097E+02
 20
-5.76718357E+01
 11
-2.01017071E+02
 21
-5.91718366E+01
  0
LINE
  8
0
 62
4
 10
-2.01017070E+02
 20
-5.91718362E+01
 11
-1.99285022E+02
 21
-5.91718362E+01
  0
LINE
  8
0
 62
4
 10
-1.36151042E+02
 20
-5.06718362E+01
 11
-1.32651042E+02
 21
-5.06718362E+01
  0
LINE
  8
0
 62
7
 10
-1.33151042E+02
 20
-4.56718362E+01
 11
-1.36151042E+02
 21
-4.56718362E+01
  0
LINE
  8
0
 62
4
 10
-1.36151042E+02
 20
-4.06718362E+01
 11
-1.32651042E+02
 21
-4.06718362E+01
  0
LINE
  8
0
 62
4
 10
-2.17151046E+02
 20
-4.56718362E+01
 11
-2.14151046E+02
 21
-4.56718362E+01
  0
LINE
  8
0
 62
4
 10
-2.17651046E+02
 20
-5.06718400E+01
 11
-2.17651046E+02
 21
-4.06718362E+01
  0
LINE
  8
0
 62
4
 10
-2.14151046E+02
 20
-5.06718400E+01
 11
-2.17651046E+02
 21
-5.06718400E+01
  0
LINE
  8
0
 62
4
 10
-1.51883097E+02
 20
-3.36718343E+01
 11
-1.51017072E+02
 21
-3.51718352E+01
  0
LINE
  8
0
 62
4
 10
-1.49285018E+02
 20
-3.51718328E+01
 11
-1.48418994E+02
 21
-3.36718353E+01
  0
LINE
  8
0
 62
4
 10
-1.48418995E+02
 20
-3.36718352E+01
 11
-1.49285021E+02
 21
-3.21718343E+01
  0
LINE
  8
0
 62
4
 10
-1.51017070E+02
 20
-3.51718362E+01
 11
-1.49285022E+02
 21
-3.51718362E+01
  0
LINE
  8
0
 62
4
 10
-2.14151046E+02
 20
-4.06718362E+01
 11
-2.17651046E+02
 21
-4.06718362E+01
  0
LINE
  8
0
 62
4
 10
-1.51017070E+02
 20
-5.91718362E+01
 11
-1.49285022E+02
 21
-5.91718362E+01
  0
LINE
  8
0
 62
4
 10
-2.01883094E+02
 20
-5.76718376E+01
 11
-2.01017068E+02
 21
-5.61718368E+01
  0
LINE
  8
0
 62
4
 10
-2.01017070E+02
 20
-5.61718362E+01
 11
-1.99285022E+02
 21
-5.61718362E+01
  0
LINE
  8
0
 62
4
 10
-1.51017070E+02
 20
-5.61718362E+01
 11
-1.49285022E+02
 21
-5.61718362E+01
  0
LINE
  8
0
 62
4
 10
-1.51883097E+02
 20
-5.76718366E+01
 11
-1.51017073E+02
 21
-5.61718390E+01
  0
LINE
  8
0
 62
4
 10
-1.51883093E+02
 20
-5.76718330E+01
 11
-1.51017068E+02
 21
-5.91718339E+01
  0
LINE
  8
0
  6
CENTER
 62
6
 10
-1.64151046E+02
 20
-5.76718362E+01
 11
-1.44151042E+02
 21
-5.76718362E+01
  0
LINE
  8
0
 62
4
 10
-1.51883095E+02
 20
-3.36718328E+01
 11
-1.51017071E+02
 21
-3.21718353E+01
  0
LINE
  8
0
  6
CENTER
 62
6
 10
-1.50151046E+02
 20
-6.36718362E+01
 11
-1.50151046E+02
 21
-5.16718362E+01
  0
LINE
  8
0
 62
4
 10
-1.48418991E+02
 20
-5.76718339E+01
 11
-1.49285017E+02
 21
-5.61718330E+01
  0
LINE
  8
0
 62
4
 10
-1.49285021E+02
 20
-5.91718370E+01
 11
-1.48418997E+02
 21
-5.76718394E+01
  0
LINE
  8
0
 62
4
 10
-2.14151046E+02
 20
-6.31718362E+01
 11
-2.14151046E+02
 21
-2.81718362E+01
  0
LINE
  8
0
  6
CENTER
 62
6
 10
-1.60151046E+02
 20
-5.36718362E+01
 11
-1.60151046E+02
 21
-6.16718362E+01
  0
LINE
  8
0
 62
4
 10
-1.51017070E+02
 20
-3.21718362E+01
 11
-1.49285022E+02
 21
-3.21718362E+01
  0
LINE
  8
0
  6
CENTER
 62
6
 10
-2.00151046E+02
 20
-2.76718362E+01
 11
-2.00151046E+02
 21
-3.96718362E+01
  0
LINE
  8
0
  6
CENTER
 62
6
 10
-1.60151046E+02
 20
-3.76718362E+01
 11
-1.60151046E+02
 21
-2.96718362E+01
  0
LINE
  8
0
 62
4
 10
-1.99285018E+02
 20
-5.91718376E+01
 11
-1.98418992E+02
 21
-5.76718368E+01
  0
LINE
  8
0
  6
CENTER
 62
6
 10
-1.64151046E+02
 20
-3.36718362E+01
 11
-1.44151042E+02
 21
-3.36718362E+01
  0
LINE
  8
0
 62
4
 10
-1.36151042E+02
 20
-6.31718362E+01
 11
-1.36151042E+02
 21
-2.81718362E+01
  0
LINE
  8
0
  6
CENTER
 62
6
 10
-1.90151046E+02
 20
-3.76718362E+01
 11
-1.90151046E+02
 21
-2.96718362E+01
  0
LINE
  8
0
  6
CENTER
 62
6
 10
-1.86151046E+02
 20
-3.36718362E+01
 11
-2.06151046E+02
 21
-3.36718362E+01
  0
LINE
  8
0
  6
CENTER
 62
6
 10
-1.50151046E+02
 20
-2.76718362E+01
 11
-1.50151046E+02
 21
-3.96718362E+01
  0
LINE
  8
0
 62
4
 10
-1.36151042E+02
 20
-2.81718362E+01
 11
-2.14151046E+02
 21
-2.81718362E+01
  0
LINE
  8
0
 62
4
 10
-1.36151042E+02
 20
-6.31718362E+01
 11
-2.14151046E+02
 21
-6.31718362E+01
  0
LINE
  8
0
 62
4
 10
-1.98418996E+02
 20
-5.76718373E+01
 11
-1.99285022E+02
 21
-5.61718364E+01
  0
LINE
  8
0
  6
CENTER
 62
6
 10
-1.86151046E+02
 20
-5.76718362E+01
 11
-2.06151046E+02
 21
-5.76718362E+01
  0
LINE
  8
0
  6
CENTER
 62
6
 10
-2.00151046E+02
 20
-6.36718362E+01
 11
-2.00151046E+02
 21
-5.16718362E+01
  0
LINE
  8
0
  6
CENTER
 62
6
 10
-1.90151046E+02
 20
-5.36718362E+01
 11
-1.90151046E+02
 21
-6.16718362E+01
  0
LINE
  8
0
 62
4
 10
-1.36151042E+02
 20
-3.96718362E+01
 11
-2.14151046E+02
 21
-3.96718362E+01
  0
LINE
  8
0
 62
4
 10
-1.36151042E+02
 20
-5.16718362E+01
 11
-2.14151046E+02
 21
-5.16718362E+01
  0
LINE
  8
0
 62
4
 10
-1.36151042E+02
 20
-5.21718362E+01
 11
-2.14151046E+02
 21
-5.21718362E+01
  0
LINE
  8
0
 62
4
 10
-1.36151042E+02
 20
-3.91718362E+01
 11
-2.14151046E+02
 21
-3.91718362E+01
  0
LINE
  8
0
 62
4
 10
-2.43151046E+02
 20
-7.86718362E+01
 11
-2.43151046E+02
 21
-1.26718362E+01
  0
LINE
  8
0
  6
DASHED
 62
6
 10
-2.20651076E+02
 20
-3.96718362E+01
 11
-2.43151046E+02
 21
-3.96718362E+01
  0
LINE
  8
0
  6
DASHED
 62
6
 10
-2.20651076E+02
 20
-5.16718362E+01
 11
-2.43151046E+02
 21
-5.16718362E+01
  0
LINE
  8
0
 62
4
 10
-1.95151061E+02
 20
-7.86718362E+01
 11
-2.43151046E+02
 21
-7.86718362E+01
  0
LINE
  8
0
 62
4
 10
-1.95151061E+02
 20
-1.26718362E+01
 11
-2.43151046E+02
 21
-1.26718362E+01
  0
LINE
  8
0
 62
4
 10
-2.23008285E+02
 20
-6.25063393E+01
 11
-2.40125777E+02
 21
-6.25063393E+01
  0
LINE
  8
0
  6
CENTER
 62
6
 10
-2.00151061E+02
 20
-8.01718362E+01
 11
-2.00151061E+02
 21
-6.81718362E+01
  0
LINE
  8
0
  6
CENTER
 62
6
 10
-1.94151061E+02
 20
-7.41718362E+01
 11
-2.14151061E+02
 21
-7.41718362E+01
  0
LINE
  8
0
  6
CENTER
 62
6
 10
-2.08151061E+02
 20
-8.01718362E+01
 11
-2.08151061E+02
 21
-6.81718362E+01
  0
LINE
  8
0
 62
4
 10
-2.23008285E+02
 20
-2.88373330E+01
 11
-2.40125777E+02
 21
-2.88373330E+01
  0
LINE
  8
0
  6
CENTER
 62
6
 10
-2.00151061E+02
 20
-1.11718362E+01
 11
-2.00151061E+02
 21
-2.31718362E+01
  0
LINE
  8
0
  6
DASHED
 62
6
 10
-2.20651076E+02
 20
-4.01718362E+01
 11
-2.43151046E+02
 21
-4.01718362E+01
  0
LINE
  8
0
  6
CENTER
 62
6
 10
-2.08151061E+02
 20
-1.11718362E+01
 11
-2.08151061E+02
 21
-2.31718362E+01
  0
LINE
  8
0
  6
CENTER
 62
6
 10
-1.94151061E+02
 20
-1.71718362E+01
 11
-2.14151061E+02
 21
-1.71718362E+01
  0
LINE
  8
0
 62
4
 10
-1.95151061E+02
 20
-7.04218362E+01
 11
-1.95151061E+02
 21
-7.86718362E+01
  0
LINE
  8
0
 62
4
 10
-1.95151061E+02
 20
-7.04218362E+01
 11
-2.20651076E+02
 21
-7.04218362E+01
  0
LINE
  8
0
 62
4
 10
-2.20651076E+02
 20
-1.26718362E+01
 11
-2.20651076E+02
 21
-7.86718362E+01
  0
LINE
  8
0
 62
4
 10
-1.95151061E+02
 20
-2.09218362E+01
 11
-1.95151061E+02
 21
-1.26718362E+01
  0
LINE
  8
0
 62
4
 10
-1.95151061E+02
 20
-2.09218362E+01
 11
-2.20651076E+02
 21
-2.09218362E+01
  0
LINE
  8
0
  6
DASHED
 62
6
 10
-2.20651076E+02
 20
-5.11718362E+01
 11
-2.43151046E+02
 21
-5.11718362E+01
  0
LINE
  8
0
  6
CENTER
 62
6
 10
-1.99988871E+01
 20
-4.56718362E+01
 11
-2.75825416E+02
 21
-4.56718362E+01
  0
LINE
  8
0
  6
CENTER
 62
2
 10
-1.75151046E+02
 20
-7.76718362E+01
 11
-1.75151046E+02
 21
-1.36718362E+01
  0
LINE
  8
0
  6
DASHED
 62
6
 10
-7.96510154E+01
 20
-3.96718362E+01
 11
-5.71510459E+01
 21
-3.96718362E+01
  0
LINE
  8
0
  6
DASHED
 62
6
 10
-7.96510154E+01
 20
-5.16718362E+01
 11
-5.71510459E+01
 21
-5.16718362E+01
  0
LINE
  8
0
 62
4
 10
-1.05151031E+02
 20
-7.86718362E+01
 11
-5.71510459E+01
 21
-7.86718362E+01
  0
LINE
  8
0
 62
4
 10
-1.05151031E+02
 20
-1.26718362E+01
 11
-5.71510459E+01
 21
-1.26718362E+01
  0
LINE
  8
0
 62
4
 10
-7.72938071E+01
 20
-6.25063393E+01
 11
-6.01763144E+01
 21
-6.25063393E+01
  0
LINE
  8
0
 62
4
 10
-7.72938071E+01
 20
-2.88373330E+01
 11
-6.01763144E+01
 21
-2.88373330E+01
  0
LINE
  8
0
  6
DASHED
 62
6
 10
-7.96510154E+01
 20
-4.01718362E+01
 11
-5.71510459E+01
 21
-4.01718362E+01
  0
LINE
  8
0
  6
DASHED
 62
6
 10
-7.96510154E+01
 20
-5.11718362E+01
 11
-5.71510459E+01
 21
-5.11718362E+01
  0
LINE
  8
0
 62
4
 10
-5.71510459E+01
 20
-7.86718362E+01
 11
-5.71510459E+01
 21
-1.26718362E+01
  0
LINE
  8
0
 62
4
 10
-2.66510459E+01
 20
-4.06718362E+01
 11
-2.66510459E+01
 21
-4.50218346E+01
  0
LINE
  8
0
 62
6
 10
-2.76510459E+01
 20
-3.96718362E+01
 11
-2.76510459E+01
 21
-4.50218346E+01
  0
LINE
  8
0
 62
4
 10
-2.76510418E+01
 20
-3.96718338E+01
 11
-2.66510421E+01
 21
-4.06718336E+01
  0
LINE
  8
0
 62
4
 10
-2.66510425E+01
 20
-5.06718339E+01
 11
-2.76510436E+01
 21
-5.16718349E+01
  0
LINE
  8
0
 62
4
 10
-2.81510459E+01
 20
-4.63218377E+01
 11
-2.66510459E+01
 21
-4.63218377E+01
  0
LINE
  8
0
 62
4
 10
-2.81510459E+01
 20
-4.50218346E+01
 11
-2.66510459E+01
 21
-4.50218346E+01
  0
LINE
  8
0
 62
4
 10
-2.81510459E+01
 20
-4.50218346E+01
 11
-2.81510459E+01
 21
-4.63218377E+01
  0
LINE
  8
0
 62
6
 10
-2.76510459E+01
 20
-4.63218377E+01
 11
-2.76510459E+01
 21
-5.16718362E+01
  0
LINE
  8
0
 62
4
 10
-2.66510459E+01
 20
-4.63218377E+01
 11
-2.66510459E+01
 21
-5.06718362E+01
  0
LINE
  8
0
 62
4
 10
-5.31510459E+01
 20
-3.86718362E+01
 11
-5.31510459E+01
 21
-5.26718362E+01
  0
LINE
  8
0
 62
4
 10
-5.31510459E+01
 20
-5.16718362E+01
 11
-2.76510459E+01
 21
-5.16718362E+01
  0
LINE
  8
0
 62
4
 10
-5.31510459E+01
 20
-3.96718362E+01
 11
-2.76510459E+01
 21
-3.96718362E+01
  0
LINE
  8
0
 62
6
 10
-5.31510459E+01
 20
-4.01718362E+01
 11
-2.71510459E+01
 21
-4.01718362E+01
  0
LINE
  8
0
 62
6
 10
-5.31510459E+01
 20
-5.11718362E+01
 11
-2.71510459E+01
 21
-5.11718362E+01
  0
LINE
  8
0
 62
4
 10
-5.71510459E+01
 20
-3.86718362E+01
 11
-5.31510459E+01
 21
-3.86718362E+01
  0
LINE
  8
0
 62
4
 10
-5.71510459E+01
 20
-5.26718362E+01
 11
-5.31510459E+01
 21
-5.26718362E+01
  0
LINE
  8
0
 62
4
 10
-5.31510459E+01
 20
-4.56718362E+01
 11
-5.65510474E+01
 21
-4.56718362E+01
  0
LINE
  8
0
  6
CENTER
 62
6
 10
-1.00151031E+02
 20
-1.11718362E+01
 11
-1.00151031E+02
 21
-2.31718362E+01
  0
LINE
  8
0
  6
CENTER
 62
6
 10
-9.21510306E+01
 20
-1.11718362E+01
 11
-9.21510306E+01
 21
-2.31718362E+01
  0
LINE
  8
0
 62
4
 10
-7.96510154E+01
 20
-1.26718362E+01
 11
-7.96510154E+01
 21
-7.86718362E+01
  0
LINE
  8
0
 62
4
 10
-1.05151031E+02
 20
-2.09218362E+01
 11
-7.96510154E+01
 21
-2.09218362E+01
  0
LINE
  8
0
 62
4
 10
-1.05151031E+02
 20
-2.09218362E+01
 11
-1.05151031E+02
 21
-1.26718362E+01
  0
LINE
  8
0
  6
CENTER
 62
6
 10
-1.06151031E+02
 20
-1.71718362E+01
 11
-8.61510306E+01
 21
-1.71718362E+01
  0
CIRCLE
  8
0
 62
4
 10
-9.21510306E+01
 20
-1.71718362E+01
 40
2.25000000E+00
  0
CIRCLE
  8
0
 62
4
 10
-1.00151031E+02
 20
-1.71718362E+01
 40
2.25000000E+00
  0
LINE
  8
0
  6
CENTER
 62
6
 10
-1.00151031E+02
 20
-8.01718362E+01
 11
-1.00151031E+02
 21
-6.81718362E+01
  0
LINE
  8
0
  6
CENTER
 62
6
 10
-9.21510306E+01
 20
-8.01718362E+01
 11
-9.21510306E+01
 21
-6.81718362E+01
  0
LINE
  8
0
 62
4
 10
-1.05151031E+02
 20
-7.04218362E+01
 11
-7.96510154E+01
 21
-7.04218362E+01
  0
LINE
  8
0
 62
4
 10
-1.05151031E+02
 20
-7.04218362E+01
 11
-1.05151031E+02
 21
-7.86718362E+01
  0
LINE
  8
0
  6
CENTER
 62
6
 10
-1.06151031E+02
 20
-7.41718362E+01
 11
-8.61510306E+01
 21
-7.41718362E+01
  0
CIRCLE
  8
0
 62
4
 10
-1.00151031E+02
 20
-7.41718362E+01
 40
2.25000000E+00
  0
CIRCLE
  8
0
 62
4
 10
-9.21510306E+01
 20
-7.41718362E+01
 40
2.25000000E+00
  0
LINE
  8
0
 62
4
 10
-8.26510459E+01
 20
-4.06718362E+01
 11
-7.96510154E+01
 21
-4.06718362E+01
  0
LINE
  8
0
  6
DASHED
 62
6
 10
-7.81510459E+01
 20
-3.96718362E+01
 11
-7.81510459E+01
 21
-5.16718362E+01
  0
LINE
  8
0
  6
DASHED
 62
6
 10
-7.91510459E+01
 20
-4.06718362E+01
 11
-7.91510459E+01
 21
-5.06718362E+01
  0
LINE
  8
0
  6
DASHED
 62
6
 10
-7.91510434E+01
 20
-4.06718341E+01
 11
-7.81510422E+01
 21
-3.96718331E+01
  0
LINE
  8
0
  6
DASHED
 62
6
 10
-7.96510154E+01
 20
-4.06718362E+01
 11
-7.91510459E+01
 21
-4.06718362E+01
  0
LINE
  8
0
 62
7
 10
-8.11510541E+01
 20
-3.94218362E+01
 11
-7.96510165E+01
 21
-3.96863333E+01
  0
LINE
  8
0
 62
7
 10
-8.11510459E+01
 20
-3.94218362E+01
 11
-8.11510459E+01
 21
-3.79218362E+01
  0
LINE
  8
0
 62
7
 10
-8.11510594E+01
 20
-3.61718380E+01
 11
-7.96510162E+01
 21
-3.64363361E+01
  0
LINE
  8
0
 62
7
 10
-8.11510459E+01
 20
-3.61718362E+01
 11
-8.11510459E+01
 21
-3.41718362E+01
  0
LINE
  8
0
 62
7
 10
-7.96510154E+01
 20
-3.41718362E+01
 11
-8.11510459E+01
 21
-3.41718362E+01
  0
LINE
  8
0
 62
7
 10
-8.11510417E+01
 20
-3.79218243E+01
 11
-7.96510154E+01
 21
-3.76573292E+01
  0
LINE
  8
0
 62
4
 10
-8.26510459E+01
 20
-5.06718362E+01
 11
-7.96510154E+01
 21
-5.06718362E+01
  0
LINE
  8
0
  6
DASHED
 62
6
 10
-7.91510455E+01
 20
-5.06718338E+01
 11
-7.81510467E+01
 21
-5.16718325E+01
  0
LINE
  8
0
  6
DASHED
 62
6
 10
-7.96510154E+01
 20
-5.06718362E+01
 11
-7.91510459E+01
 21
-5.06718362E+01
  0
LINE
  8
0
 62
7
 10
-7.96510154E+01
 20
-5.71718362E+01
 11
-8.11510459E+01
 21
-5.71718362E+01
  0
LINE
  8
0
 62
7
 10
-8.11510544E+01
 20
-5.34218466E+01
 11
-7.96510154E+01
 21
-5.36863440E+01
  0
LINE
  8
0
 62
7
 10
-8.11510459E+01
 20
-5.71718362E+01
 11
-8.11510459E+01
 21
-5.51718362E+01
  0
LINE
  8
0
 62
7
 10
-8.11510460E+01
 20
-5.51718367E+01
 11
-7.96510160E+01
 21
-5.49073409E+01
  0
LINE
  8
0
 62
7
 10
-8.11510459E+01
 20
-5.19218362E+01
 11
-8.11510459E+01
 21
-5.34218362E+01
  0
LINE
  8
0
 62
7
 10
-8.11510406E+01
 20
-5.19218385E+01
 11
-7.96510154E+01
 21
-5.16573435E+01
  0
LINE
  8
0
 62
4
 10
-9.26510459E+01
 20
-4.39218362E+01
 11
-8.26510459E+01
 21
-4.39218362E+01
  0
LINE
  8
0
 62
4
 10
-9.26510459E+01
 20
-4.39218362E+01
 11
-9.26510459E+01
 21
-4.74218362E+01
  0
LINE
  8
0
 62
4
 10
-9.26510459E+01
 20
-4.74218362E+01
 11
-8.26510459E+01
 21
-4.74218362E+01
  0
LINE
  8
0
 62
7
 10
-9.11510459E+01
 20
-6.66718362E+01
 11
-9.11510459E+01
 21
-6.91718362E+01
  0
LINE
  8
0
 62
7
 10
-7.96510154E+01
 20
-6.91718362E+01
 11
-9.11510459E+01
 21
-6.91718362E+01
  0
LINE
  8
0
 62
7
 10
-9.11510459E+01
 20
-2.46718362E+01
 11
-9.11510459E+01
 21
-2.21718362E+01
  0
LINE
  8
0
 62
7
 10
-7.96510154E+01
 20
-2.21718362E+01
 11
-9.11510459E+01
 21
-2.21718362E+01
  0
LINE
  8
0
 62
4
 10
-8.26510459E+01
 20
-5.06718361E+01
 11
-8.26510459E+01
 21
-4.06718361E+01
  0
ARC
  8
0
 62
4
 10
-4.66427146E+01
 20
-4.91718362E+01
 40
1.05083332E+01
 50
1.60544840E+02
 51
1.99455157E+02
  0
ARC
  8
0
 62
4
 10
-4.66427146E+01
 20
-4.21718362E+01
 40
1.05083332E+01
 50
1.60544840E+02
 51
1.99455157E+02
  0
ARC
  8
0
 62
7
 10
7.99824168E+01
 20
6.03750000E+01
 40
1.50000000E+00
 50
1.79999991E+02
 51
2.70000000E+02
  0
ARC
  8
0
 62
7
 10
7.99824168E+01
 20
1.05375000E+02
 40
1.50000000E+00
 50
9.00000002E+01
 51
1.80000005E+02
  0
ARC
  8
0
 62
7
 10
9.04824168E+01
 20
9.38750000E+01
 40
6.00000000E+00
 50
3.26442690E+02
 51
3.35573170E+01
  0
ARC
  8
0
 62
7
 10
9.04824168E+01
 20
7.18750000E+01
 40
6.00000000E+00
 50
3.26442690E+02
 51
3.35573170E+01
  0
CIRCLE
  8
0
 62
7
 10
9.04824168E+01
 20
7.18750000E+01
 40
2.40000010E+00
  0
CIRCLE
  8
0
 62
7
 10
9.04824168E+01
 20
9.38750000E+01
 40
2.40000010E+00
  0
CIRCLE
  8
0
 62
7
 10
9.04824168E+01
 20
7.18750000E+01
 40
4.00000000E+00
  0
CIRCLE
  8
0
 62
7
 10
9.04824168E+01
 20
9.38750000E+01
 40
4.00000000E+00
  0
CIRCLE
  8
0
 62
4
 10
1.88982417E+02
 20
6.18750000E+01
 40
1.35000002E+00
  0
CIRCLE
  8
0
 62
6
 10
1.88982417E+02
 20
6.18750000E+01
 40
2.00000000E+00
  0
CIRCLE
  8
0
 62
4
 10
1.03982417E+02
 20
6.18750000E+01
 40
1.35000002E+00
  0
CIRCLE
  8
0
 62
6
 10
1.03982417E+02
 20
6.18750000E+01
 40
2.00000000E+00
  0
CIRCLE
  8
0
 62
4
 10
1.88982417E+02
 20
1.03875000E+02
 40
1.35000002E+00
  0
CIRCLE
  8
0
 62
6
 10
1.88982417E+02
 20
1.03875000E+02
 40
2.00000000E+00
  0
CIRCLE
  8
0
 62
4
 10
1.03982417E+02
 20
1.03875000E+02
 40
1.35000002E+00
  0
CIRCLE
  8
0
 62
6
 10
1.03982417E+02
 20
1.03875000E+02
 40
2.00000000E+00
  0
ARC
  8
0
 62
4
 10
1.99982417E+02
 20
7.18750000E+01
 40
7.50000000E+00
 50
1.50073559E+02
 51
2.09926438E+02
  0
ARC
  8
0
 62
4
 10
1.90482417E+02
 20
6.03750000E+01
 40
3.00000000E+00
 50
2.70000000E+02
 51
1.35703667E-13
  0
ARC
  8
0
 62
4
 10
1.02482417E+02
 20
6.03750000E+01
 40
3.00000000E+00
 50
1.79999991E+02
 51
2.70000000E+02
  0
ARC
  8
0
 62
4
 10
1.90482417E+02
 20
1.05375000E+02
 40
3.00000000E+00
 50
0.00000000E+00
 51
9.00000002E+01
  0
ARC
  8
0
 62
4
 10
1.99982417E+02
 20
9.38750000E+01
 40
7.50000000E+00
 50
1.50073559E+02
 51
2.09926438E+02
  0
ARC
  8
0
 62
4
 10
9.29824168E+01
 20
7.18750000E+01
 40
7.50000000E+00
 50
3.30073564E+02
 51
2.99264363E+01
  0
ARC
  8
0
 62
4
 10
1.02482417E+02
 20
1.05375000E+02
 40
3.00000000E+00
 50
9.00000002E+01
 51
1.80000005E+02
  0
ARC
  8
0
 62
4
 10
1.09682414E+02
 20
9.53750000E+01
 40
6.00000000E+00
 50
9.00000002E+01
 51
1.80000005E+02
  0
ARC
  8
0
 62
4
 10
1.82982417E+02
 20
7.03750000E+01
 40
6.00000000E+00
 50
2.70000000E+02
 51
0.00000000E+00
  0
ARC
  8
0
 62
4
 10
9.29824168E+01
 20
9.38750000E+01
 40
7.50000000E+00
 50
3.30073564E+02
 51
2.99264363E+01
  0
ARC
  8
0
 62
4
 10
1.09682414E+02
 20
7.03750000E+01
 40
6.00000000E+00
 50
1.79999991E+02
 51
2.70000000E+02
  0
ARC
  8
0
 62
4
 10
1.82982417E+02
 20
9.53750000E+01
 40
6.00000000E+00
 50
0.00000000E+00
 51
9.00000002E+01
  0
ARC
  8
0
 62
7
 10
1.82482417E+02
 20
9.43750000E+01
 40
6.00000000E+00
 50
0.00000000E+00
 51
9.00000002E+01
  0
CIRCLE
  8
0
 62
2
 10
1.71482417E+02
 20
9.48750000E+01
 40
2.00000000E+00
  0
CIRCLE
  8
0
 62
7
 10
1.71482417E+02
 20
9.48750000E+01
 40
1.35000002E+00
  0
CIRCLE
  8
0
 62
7
 10
1.71482417E+02
 20
7.08750000E+01
 40
1.35000002E+00
  0
ARC
  8
0
 62
7
 10
1.10482417E+02
 20
9.43750000E+01
 40
6.00000000E+00
 50
9.00000002E+01
 51
1.80000005E+02
  0
ARC
  8
0
 62
7
 10
1.82482417E+02
 20
7.13750000E+01
 40
6.00000000E+00
 50
2.70000000E+02
 51
0.00000000E+00
  0
ARC
  8
0
 62
7
 10
1.10482417E+02
 20
7.13750000E+01
 40
6.00000000E+00
 50
1.79999991E+02
 51
2.70000000E+02
  0
CIRCLE
  8
0
 62
2
 10
1.71482417E+02
 20
7.08750000E+01
 40
2.00000000E+00
  0
CIRCLE
  8
0
 62
7
 10
1.21482417E+02
 20
7.08750000E+01
 40
1.35000002E+00
  0
CIRCLE
  8
0
 62
2
 10
1.21482417E+02
 20
7.08750000E+01
 40
2.00000000E+00
  0
CIRCLE
  8
0
 62
7
 10
1.21482417E+02
 20
9.48750000E+01
 40
1.35000002E+00
  0
CIRCLE
  8
0
 62
2
 10
1.21482417E+02
 20
9.48750000E+01
 40
2.00000000E+00
  0
ARC
  8
0
 62
7
 10
1.09982417E+02
 20
8.93750000E+01
 40
1.00000000E+00
 50
9.00000002E+01
 51
1.80000005E+02
  0
ARC
  8
0
 62
7
 10
1.09982417E+02
 20
7.63750000E+01
 40
1.00000000E+00
 50
1.79999991E+02
 51
2.70000000E+02
  0
ARC
  8
0
 62
7
 10
1.82982417E+02
 20
7.63750000E+01
 40
1.00000000E+00
 50
2.70000000E+02
 51
0.00000000E+00
  0
ARC
  8
0
 62
7
 10
1.82982417E+02
 20
8.93750000E+01
 40
1.00000000E+00
 50
0.00000000E+00
 51
9.00000002E+01
  0
LINE
  8
0
 62
7
 10
1.93482417E+02
 20
8.88750000E+01
 11
1.99534898E+02
 21
8.88750000E+01
  0
LINE
  8
0
 62
7
 10
1.93482417E+02
 20
7.68750000E+01
 11
2.01650822E+02
 21
7.68750000E+01
  0
LINE
  8
0
 62
7
 10
1.93482417E+02
 20
5.88750000E+01
 11
2.04824707E+02
 21
5.88750000E+01
  0
LINE
  8
0
 62
7
 10
1.93482417E+02
 20
6.18750000E+01
 11
2.04295727E+02
 21
6.18750000E+01
  0
LINE
  8
0
 62
7
 10
1.93482417E+02
 20
1.02375000E+02
 11
1.97154484E+02
 21
1.02375000E+02
  0
LINE
  8
0
 62
7
 10
1.93482417E+02
 20
1.03875000E+02
 11
1.96889993E+02
 21
1.03875000E+02
  0
LINE
  8
0
 62
7
 10
1.93080493E+02
 20
1.06874992E+02
 11
1.96361014E+02
 21
1.06874992E+02
  0
LINE
  8
0
 62
7
 10
9.54824168E+01
 20
7.68750000E+01
 11
9.94824168E+01
 21
7.68750000E+01
  0
LINE
  8
0
 62
7
 10
9.54824168E+01
 20
8.88750000E+01
 11
9.94824168E+01
 21
8.88750000E+01
  0
LINE
  8
0
 62
7
 10
9.54824168E+01
 20
1.06374992E+02
 11
9.96539867E+01
 21
1.06374992E+02
  0
LINE
  8
0
 62
7
 10
9.54824168E+01
 20
5.93750000E+01
 11
9.94824168E+01
 21
5.93750000E+01
  0
LINE
  8
0
  6
CENTER
 62
2
 10
9.54824168E+01
 20
7.18750000E+01
 11
8.54824168E+01
 21
7.18750000E+01
  0
LINE
  8
0
  6
CENTER
 62
2
 10
9.04824168E+01
 20
7.68750000E+01
 11
9.04824168E+01
 21
6.68750000E+01
  0
LINE
  8
0
 62
7
 10
9.54824168E+01
 20
8.53750000E+01
 11
7.84824168E+01
 21
8.53750000E+01
  0
LINE
  8
0
 62
7
 10
9.54824168E+01
 20
8.03750000E+01
 11
7.84824168E+01
 21
8.03750000E+01
  0
LINE
  8
0
 62
7
 10
9.54824168E+01
 20
7.51916199E+01
 11
9.54824168E+01
 21
9.05583801E+01
  0
LINE
  8
0
 62
7
 10
9.54824168E+01
 20
9.71916199E+01
 11
9.54824168E+01
 21
1.06874992E+02
  0
LINE
  8
0
 62
7
 10
9.54824168E+01
 20
5.88750000E+01
 11
7.99824168E+01
 21
5.88750000E+01
  0
LINE
  8
0
 62
7
 10
9.54824168E+01
 20
1.06874992E+02
 11
7.99824168E+01
 21
1.06874992E+02
  0
LINE
  8
0
  6
CENTER
 62
2
 10
9.04824168E+01
 20
9.88750000E+01
 11
9.04824168E+01
 21
8.88750000E+01
  0
LINE
  8
0
 62
7
 10
7.84824168E+01
 20
6.03750000E+01
 11
7.84824168E+01
 21
1.05375000E+02
  0
LINE
  8
0
  6
CENTER
 62
2
 10
9.54824168E+01
 20
9.38750000E+01
 11
8.54824168E+01
 21
9.38750000E+01
  0
LINE
  8
0
 62
7
 10
9.54824168E+01
 20
5.88750000E+01
 11
9.54824168E+01
 21
6.85583801E+01
  0
LINE
  8
0
 62
7
 10
9.54824168E+01
 20
5.88750000E+01
 11
9.98843333E+01
 21
5.88750000E+01
  0
LINE
  8
0
 62
7
 10
9.54824168E+01
 20
6.18750000E+01
 11
9.94824168E+01
 21
6.18750000E+01
  0
LINE
  8
0
 62
7
 10
9.54824168E+01
 20
1.06874992E+02
 11
9.98843333E+01
 21
1.06874992E+02
  0
LINE
  8
0
  6
CENTER
 62
2
 10
7.53338878E+01
 20
8.28750000E+01
 11
2.07010182E+02
 21
8.28750000E+01
  0
LINE
  8
0
 62
7
 10
9.54824168E+01
 20
1.03875000E+02
 11
9.94824168E+01
 21
1.03875000E+02
  0
LINE
  8
0
 62
4
 10
1.04282420E+02
 20
7.08750000E+01
 11
1.04282420E+02
 21
9.48750000E+01
  0
LINE
  8
0
 62
4
 10
1.04282420E+02
 20
7.08750000E+01
 11
1.03682414E+02
 21
7.08750000E+01
  0
LINE
  8
0
 62
4
 10
1.04282420E+02
 20
9.48750000E+01
 11
1.03682414E+02
 21
9.48750000E+01
  0
LINE
  8
0
  6
CENTER
 62
6
 10
1.88982417E+02
 20
5.88750000E+01
 11
1.88982417E+02
 21
6.48750000E+01
  0
LINE
  8
0
  6
CENTER
 62
6
 10
1.03982417E+02
 20
5.88750000E+01
 11
1.03982417E+02
 21
6.48750000E+01
  0
LINE
  8
0
  6
CENTER
 62
6
 10
1.06982417E+02
 20
6.18750000E+01
 11
1.00982417E+02
 21
6.18750000E+01
  0
LINE
  8
0
  6
CENTER
 62
6
 10
1.85982417E+02
 20
6.18750000E+01
 11
1.91982417E+02
 21
6.18750000E+01
  0
LINE
  8
0
  6
CENTER
 62
6
 10
1.88982417E+02
 20
1.06874992E+02
 11
1.88982417E+02
 21
1.00875000E+02
  0
LINE
  8
0
  6
CENTER
 62
6
 10
1.03982417E+02
 20
1.06874992E+02
 11
1.03982417E+02
 21
1.00875000E+02
  0
LINE
  8
0
  6
CENTER
 62
6
 10
1.06982417E+02
 20
1.03875000E+02
 11
1.00982417E+02
 21
1.03875000E+02
  0
LINE
  8
0
  6
CENTER
 62
6
 10
1.85982417E+02
 20
1.03875000E+02
 11
1.91982417E+02
 21
1.03875000E+02
  0
LINE
  8
0
 62
4
 10
1.88982417E+02
 20
9.53750000E+01
 11
1.88982417E+02
 21
7.03750000E+01
  0
LINE
  8
0
 62
4
 10
1.93482417E+02
 20
6.03750000E+01
 11
1.93482417E+02
 21
6.81333389E+01
  0
LINE
  8
0
 62
4
 10
1.93482417E+02
 20
1.05375000E+02
 11
1.93482417E+02
 21
9.76166611E+01
  0
LINE
  8
0
 62
4
 10
1.93482417E+02
 20
9.01333389E+01
 11
1.93482417E+02
 21
7.56166611E+01
  0
LINE
  8
0
 62
4
 10
9.94824168E+01
 20
6.03750000E+01
 11
9.94824168E+01
 21
6.81333389E+01
  0
LINE
  8
0
 62
4
 10
9.94824168E+01
 20
9.01333389E+01
 11
9.94824168E+01
 21
7.56166611E+01
  0
LINE
  8
0
 62
4
 10
9.94824168E+01
 20
1.05375000E+02
 11
9.94824168E+01
 21
9.76166611E+01
  0
LINE
  8
0
 62
4
 10
1.03682414E+02
 20
7.08750000E+01
 11
1.03682414E+02
 21
7.03750000E+01
  0
LINE
  8
0
 62
4
 10
1.09682414E+02
 20
6.43750000E+01
 11
1.82982417E+02
 21
6.43750000E+01
  0
LINE
  8
0
 62
4
 10
1.03682414E+02
 20
9.53750000E+01
 11
1.03682414E+02
 21
9.48750000E+01
  0
LINE
  8
0
 62
4
 10
1.09682414E+02
 20
1.01375000E+02
 11
1.82982417E+02
 21
1.01375000E+02
  0
LINE
  8
0
 62
4
 10
1.02482417E+02
 20
5.73750000E+01
 11
1.90482417E+02
 21
5.73750000E+01
  0
LINE
  8
0
 62
4
 10
1.02482417E+02
 20
1.08374992E+02
 11
1.90482417E+02
 21
1.08374992E+02
  0
LINE
  8
0
 62
7
 10
1.88482417E+02
 20
9.38750000E+01
 11
1.88482417E+02
 21
9.43750000E+01
  0
LINE
  8
0
 62
7
 10
1.04482417E+02
 20
9.38750000E+01
 11
1.04482417E+02
 21
9.43750000E+01
  0
LINE
  8
0
 62
7
 10
1.04482417E+02
 20
7.18750000E+01
 11
1.04482417E+02
 21
7.13750000E+01
  0
LINE
  8
0
 62
7
 10
1.88482417E+02
 20
7.18750000E+01
 11
1.88482417E+02
 21
7.13750000E+01
  0
LINE
  8
0
 62
7
 10
1.88482417E+02
 20
7.18750000E+01
 11
1.88982417E+02
 21
7.18750000E+01
  0
LINE
  8
0
 62
7
 10
1.88482417E+02
 20
9.38750000E+01
 11
1.88982417E+02
 21
9.38750000E+01
  0
LINE
  8
0
  6
CENTER
 62
2
 10
1.71482417E+02
 20
9.78750000E+01
 11
1.71482417E+02
 21
9.18750000E+01
  0
LINE
  8
0
  6
CENTER
 62
2
 10
1.68482417E+02
 20
9.48750000E+01
 11
1.74482417E+02
 21
9.48750000E+01
  0
LINE
  8
0
 62
7
 10
1.04482417E+02
 20
7.18750000E+01
 11
1.04282420E+02
 21
7.18750000E+01
  0
LINE
  8
0
 62
7
 10
1.04482417E+02
 20
9.38750000E+01
 11
1.04282420E+02
 21
9.38750000E+01
  0
LINE
  8
0
 62
7
 10
1.10482417E+02
 20
1.00375000E+02
 11
1.82482417E+02
 21
1.00375000E+02
  0
LINE
  8
0
 62
7
 10
1.10482417E+02
 20
6.53750000E+01
 11
1.82482417E+02
 21
6.53750000E+01
  0
LINE
  8
0
  6
CENTER
 62
2
 10
1.68482417E+02
 20
7.08750000E+01
 11
1.74482417E+02
 21
7.08750000E+01
  0
LINE
  8
0
  6
CENTER
 62
2
 10
1.71482417E+02
 20
6.78750000E+01
 11
1.71482417E+02
 21
7.38750000E+01
  0
LINE
  8
0
  6
CENTER
 62
2
 10
1.21482417E+02
 20
6.78750000E+01
 11
1.21482417E+02
 21
7.38750000E+01
  0
LINE
  8
0
  6
CENTER
 62
2
 10
1.24482417E+02
 20
7.08750000E+01
 11
1.18482417E+02
 21
7.08750000E+01
  0
LINE
  8
0
  6
CENTER
 62
2
 10
1.24482417E+02
 20
9.48750000E+01
 11
1.18482417E+02
 21
9.48750000E+01
  0
LINE
  8
0
  6
CENTER
 62
2
 10
1.21482417E+02
 20
9.78750000E+01
 11
1.21482417E+02
 21
9.18750000E+01
  0
LINE
  8
0
 62
7
 10
1.09982417E+02
 20
7.53750000E+01
 11
1.82982417E+02
 21
7.53750000E+01
  0
LINE
  8
0
 62
7
 10
1.83982417E+02
 20
7.63750000E+01
 11
1.83982417E+02
 21
8.93750000E+01
  0
LINE
  8
0
 62
7
 10
1.09982417E+02
 20
9.03750000E+01
 11
1.82982417E+02
 21
9.03750000E+01
  0
LINE
  8
0
 62
7
 10
1.08982417E+02
 20
7.63750000E+01
 11
1.08982417E+02
 21
8.93750000E+01
  0
LINE
  8
0
  6
PHANTOM
 10
2.05802305E+02
 20
5.33307674E+01
 11
1.95383415E+02
 21
1.12419233E+02
  0
LINE
  8
0
  6
CENTER
 62
2
 10
2.13982417E+02
 20
8.28750000E+01
 11
2.55982417E+02
 21
8.28750000E+01
  0
LINE
  8
0
 62
4
 10
2.17982417E+02
 20
5.73750000E+01
 11
2.24982417E+02
 21
5.73750000E+01
  0
LINE
  8
0
  6
CENTER
 62
2
 10
2.39482417E+02
 20
6.04549026E+01
 11
2.39482417E+02
 21
1.05062599E+02
  0
LINE
  8
0
 62
4
 10
2.17982417E+02
 20
1.08374992E+02
 11
2.24982417E+02
 21
1.08374992E+02
  0
LINE
  8
0
 62
4
 10
2.24982417E+02
 20
1.08374992E+02
 11
2.24982417E+02
 21
1.04875000E+02
  0
LINE
  8
0
 62
4
 10
2.17982417E+02
 20
1.08374992E+02
 11
2.17982417E+02
 21
5.73750000E+01
  0
LINE
  8
0
 62
7
 10
2.50982417E+02
 20
8.13750000E+01
 11
2.50982417E+02
 21
5.88750000E+01
  0
LINE
  8
0
 62
7
 10
2.49982417E+02
 20
8.13750000E+01
 11
2.50982417E+02
 21
8.13750000E+01
  0
LINE
  8
0
 62
7
 10
2.49982417E+02
 20
8.43750000E+01
 11
2.49982417E+02
 21
8.13750000E+01
  0
LINE
  8
0
 62
7
 10
2.49982417E+02
 20
8.43750000E+01
 11
2.50982417E+02
 21
8.43750000E+01
  0
LINE
  8
0
 62
7
 10
2.24482417E+02
 20
8.03750000E+01
 11
2.24482417E+02
 21
7.58750000E+01
  0
LINE
  8
0
 62
7
 10
2.24482417E+02
 20
8.98750000E+01
 11
2.24482417E+02
 21
8.53750000E+01
  0
LINE
  8
0
 62
7
 10
2.37482417E+02
 20
8.98750000E+01
 11
2.37482417E+02
 21
7.58750000E+01
  0
LINE
  8
0
 62
7
 10
2.24482417E+02
 20
8.98750000E+01
 11
2.37482417E+02
 21
8.98750000E+01
  0
LINE
  8
0
 62
7
 10
2.24482417E+02
 20
7.58750000E+01
 11
2.37482417E+02
 21
7.58750000E+01
  0
LINE
  8
0
 62
7
 10
2.40482417E+02
 20
1.01375000E+02
 11
2.36482417E+02
 21
1.01375000E+02
  0
LINE
  8
0
 62
7
 10
2.50982417E+02
 20
9.86250000E+01
 11
2.50289607E+02
 21
9.86250000E+01
  0
LINE
  8
0
 62
7
 10
2.34482417E+02
 20
1.03375000E+02
 11
2.34482417E+02
 21
1.06875000E+02
  0
LINE
  8
0
 62
7
 10
2.42482417E+02
 20
1.03375000E+02
 11
2.42482417E+02
 21
1.06875000E+02
  0
LINE
  8
0
 62
7
 10
2.50982417E+02
 20
1.06875000E+02
 11
2.50982417E+02
 21
8.43750000E+01
  0
LINE
  8
0
 62
7
 10
2.50982417E+02
 20
5.88750000E+01
 11
2.34182414E+02
 21
5.88750000E+01
  0
LINE
  8
0
 62
7
 10
2.50982417E+02
 20
1.06875000E+02
 11
2.38882411E+02
 21
1.06875000E+02
  0
LINE
  8
0
 62
7
 10
2.50982417E+02
 20
1.03125000E+02
 11
2.50289607E+02
 21
1.03125000E+02
  0
LINE
  8
0
 62
7
 10
2.20982417E+02
 20
6.88750000E+01
 11
2.20982417E+02
 21
8.03750000E+01
  0
LINE
  8
0
 62
7
 10
2.20982417E+02
 20
8.03750000E+01
 11
2.24482417E+02
 21
8.03750000E+01
  0
LINE
  8
0
 62
7
 10
2.20982417E+02
 20
8.53750000E+01
 11
2.24482417E+02
 21
8.53750000E+01
  0
LINE
  8
0
 62
7
 10
2.20982417E+02
 20
8.53750000E+01
 11
2.20982417E+02
 21
9.68750000E+01
  0
LINE
  8
0
 62
7
 10
2.34482415E+02
 20
1.06875004E+02
 11
2.28497519E+02
 21
1.06561349E+02
  0
LINE
  8
0
 62
7
 10
2.34182413E+02
 20
5.88750014E+01
 11
2.28576206E+02
 21
5.91688103E+01
  0
LINE
  8
0
 62
7
 10
2.21182414E+02
 20
8.03750000E+01
 11
2.21182414E+02
 21
8.53750000E+01
  0
LINE
  8
0
 62
7
 10
2.35382418E+02
 20
1.06575012E+02
 11
2.35382418E+02
 21
1.06075012E+02
  0
LINE
  8
0
 62
7
 10
2.40582415E+02
 20
1.02774994E+02
 11
2.38705783E+02
 21
1.02774994E+02
  0
LINE
  8
0
 62
7
 10
2.35382404E+02
 20
1.06075001E+02
 11
2.34882414E+02
 21
1.05575011E+02
  0
LINE
  8
0
 62
7
 10
2.34882418E+02
 20
1.05575012E+02
 11
2.34882418E+02
 21
1.03974976E+02
  0
LINE
  8
0
 62
7
 10
2.38582414E+02
 20
1.06075012E+02
 11
2.39082414E+02
 21
1.05575011E+02
  0
LINE
  8
0
 62
7
 10
2.40582415E+02
 20
1.05575012E+02
 11
2.39082415E+02
 21
1.05575012E+02
  0
LINE
  8
0
 62
7
 10
2.38582415E+02
 20
1.06575012E+02
 11
2.38582415E+02
 21
1.06075012E+02
  0
LINE
  8
0
 62
7
 10
2.35082423E+02
 20
1.06875000E+02
 11
2.34482417E+02
 21
1.06875000E+02
  0
LINE
  8
0
 62
7
 10
2.32348452E+02
 20
1.02374999E+02
 11
2.33214479E+02
 21
1.00874994E+02
  0
LINE
  8
0
 62
7
 10
2.32348445E+02
 20
9.93750000E+01
 11
2.30616389E+02
 21
9.93750000E+01
  0
LINE
  8
0
 62
7
 10
2.32348445E+02
 20
1.02375000E+02
 11
2.30616389E+02
 21
1.02375000E+02
  0
LINE
  8
0
 62
7
 10
2.29750375E+02
 20
1.00874999E+02
 11
2.30616403E+02
 21
9.93749945E+01
  0
LINE
  8
0
 62
7
 10
2.33214478E+02
 20
1.00874988E+02
 11
2.32348457E+02
 21
9.93749967E+01
  0
LINE
  8
0
 62
7
 10
2.30616401E+02
 20
1.02374988E+02
 11
2.29750381E+02
 21
1.00874997E+02
  0
LINE
  8
0
 62
7
 10
2.30616397E+02
 20
6.63749956E+01
 11
2.29750369E+02
 21
6.48749914E+01
  0
LINE
  8
0
 62
7
 10
2.33214473E+02
 20
6.48749956E+01
 11
2.32348445E+02
 21
6.33749914E+01
  0
LINE
  8
0
 62
7
 10
2.29750367E+02
 20
6.48749989E+01
 11
2.30616395E+02
 21
6.33749947E+01
  0
LINE
  8
0
 62
7
 10
2.32348445E+02
 20
6.63750000E+01
 11
2.30616389E+02
 21
6.63750000E+01
  0
LINE
  8
0
 62
7
 10
2.32348445E+02
 20
6.33750000E+01
 11
2.30616389E+02
 21
6.33750000E+01
  0
LINE
  8
0
 62
7
 10
2.32348443E+02
 20
6.63749989E+01
 11
2.33214471E+02
 21
6.48749947E+01
  0
LINE
  8
0
 62
7
 10
2.48714470E+02
 20
1.00874992E+02
 11
2.47848450E+02
 21
9.93750007E+01
  0
LINE
  8
0
 62
7
 10
2.45250368E+02
 20
1.00874995E+02
 11
2.46116396E+02
 21
9.93749905E+01
  0
LINE
  8
0
 62
7
 10
2.46116394E+02
 20
1.02374992E+02
 11
2.45250374E+02
 21
1.00875001E+02
  0
LINE
  8
0
 62
7
 10
2.47848445E+02
 20
1.02375000E+02
 11
2.46116389E+02
 21
1.02375000E+02
  0
LINE
  8
0
 62
7
 10
2.47848445E+02
 20
9.93750000E+01
 11
2.46116389E+02
 21
9.93750000E+01
  0
LINE
  8
0
 62
7
 10
2.47848444E+02
 20
1.02374995E+02
 11
2.48714472E+02
 21
1.00874991E+02
  0
LINE
  8
0
  6
CENTER
 62
2
 10
2.40482417E+02
 20
1.00875000E+02
 11
2.53482417E+02
 21
1.00875000E+02
  0
LINE
  8
0
  6
CENTER
 62
2
 10
2.46982417E+02
 20
9.43750000E+01
 11
2.46982417E+02
 21
1.07375000E+02
  0
LINE
  8
0
  6
CENTER
 62
2
 10
2.24982417E+02
 20
1.00875000E+02
 11
2.37982417E+02
 21
1.00875000E+02
  0
LINE
  8
0
  6
CENTER
 62
2
 10
2.31482417E+02
 20
9.43750000E+01
 11
2.31482417E+02
 21
1.07375000E+02
  0
LINE
  8
0
  6
CENTER
 62
2
 10
2.24982417E+02
 20
6.48750000E+01
 11
2.37982417E+02
 21
6.48750000E+01
  0
LINE
  8
0
  6
CENTER
 62
2
 10
2.31482417E+02
 20
5.83750000E+01
 11
2.31482417E+02
 21
7.13750000E+01
  0
ARC
  8
0
 62
7
 10
2.40482417E+02
 20
1.03375000E+02
 40
2.00000000E+00
 50
2.70000000E+02
 51
6.83245433E-07
  0
ARC
  8
0
 62
7
 10
2.30982417E+02
 20
6.88750000E+01
 40
1.00000000E+01
 50
1.79999989E+02
 51
2.56076801E+02
  0
ARC
  8
0
 62
7
 10
2.30982417E+02
 20
9.68750000E+01
 40
1.00000000E+01
 50
1.04388157E+02
 51
1.80000003E+02
  0
ARC
  8
0
 62
7
 10
2.36482417E+02
 20
1.03375000E+02
 40
2.00000000E+00
 50
1.79999989E+02
 51
2.70000000E+02
  0
ARC
  8
0
 62
7
 10
2.31482417E+02
 20
1.00875000E+02
 40
4.00000000E+00
 50
4.13030564E+01
 51
1.18268284E+01
  0
CIRCLE
  8
0
 62
7
 10
2.31482417E+02
 20
6.48750000E+01
 40
4.00000000E+00
  0
ARC
  8
0
 62
7
 10
2.46982417E+02
 20
1.00875000E+02
 40
4.00000000E+00
 50
3.42288655E+01
 51
3.25771136E+02
  0
ARC
  8
0
 62
7
 10
2.36982417E+02
 20
1.03974976E+02
 40
2.09999990E+00
 50
1.80000010E+02
 51
3.25150108E+02
  0
ARC
  8
0
 62
7
 10
2.35082423E+02
 20
1.06575012E+02
 40
3.00000012E-01
 50
4.32571161E-06
 51
9.00000002E+01
  0
ARC
  8
0
 62
7
 10
2.38882411E+02
 20
1.06575012E+02
 40
3.00000012E-01
 50
9.00000002E+01
 51
1.80000003E+02
  0
ARC
  8
0
 62
7
 10
2.40582415E+02
 20
1.04174988E+02
 40
1.39999998E+00
 50
2.70000000E+02
 51
9.00000002E+01
  0
CIRCLE
  8
0
 62
7
 10
2.31482417E+02
 20
1.00875000E+02
 40
3.50000000E+00
  0
CIRCLE
  8
0
 62
7
 10
2.31482417E+02
 20
6.48750000E+01
 40
3.50000000E+00
  0
CIRCLE
  8
0
 62
7
 10
2.46982417E+02
 20
1.00875000E+02
 40
3.50000000E+00
  0
LINE
  8
0
 62
4
 10
2.24982417E+02
 20
6.08750000E+01
 11
2.24982417E+02
 21
5.73750000E+01
  0
LINE
  8
0
  6
DASHED
 62
6
 10
1.39807493E+02
 20
-9.05677267E+01
 11
1.39807493E+02
 21
-8.42677236E+01
  0
LINE
  8
0
  6
DASHED
 62
6
 10
1.35307493E+02
 20
-9.05677267E+01
 11
1.35307493E+02
 21
-8.42677236E+01
  0
LINE
  8
0
  6
DASHED
 62
6
 10
1.04807493E+02
 20
-9.05677267E+01
 11
1.04807493E+02
 21
-8.42677236E+01
  0
LINE
  8
0
  6
DASHED
 62
6
 10
1.00307493E+02
 20
-9.05677267E+01
 11
1.00307493E+02
 21
-8.42677236E+01
  0
LINE
  8
0
  6
CENTER
 62
6
 10
1.37557493E+02
 20
-9.31720892E+01
 11
1.37557493E+02
 21
-8.09682699E+01
  0
LINE
  8
0
  6
CENTER
 62
6
 10
1.02557493E+02
 20
-9.30364919E+01
 11
1.02557493E+02
 21
-8.11038671E+01
  0
LINE
  8
0
 62
4
 10
1.45057493E+02
 20
-9.05677267E+01
 11
1.45057493E+02
 21
-8.42677236E+01
  0
LINE
  8
0
 62
4
 10
9.50574934E+01
 20
-9.05677267E+01
 11
9.50574934E+01
 21
-8.42677236E+01
  0
LINE
  8
0
  6
CENTER
 62
6
 10
1.20057493E+02
 20
-7.98834844E+01
 11
1.20057493E+02
 21
-9.55677267E+01
  0
LINE
  8
0
 62
4
 10
9.50574934E+01
 20
-8.42677236E+01
 11
1.45057493E+02
 21
-8.42677236E+01
  0
LINE
  8
0
 62
4
 10
9.50574934E+01
 20
-9.05677267E+01
 11
1.45057493E+02
 21
-9.05677267E+01
  0
ARC
  8
0
 62
4
 10
2.49757494E+02
 20
-8.45677267E+01
 40
3.00000012E-01
 50
0.00000000E+00
 51
9.00000002E+01
  0
ARC
  8
0
 62
4
 10
1.84357497E+02
 20
-8.45677267E+01
 40
3.00000012E-01
 50
9.00000002E+01
 51
1.80000005E+02
  0
LINE
  8
0
 62
4
 10
1.84057493E+02
 20
-9.05677267E+01
 11
1.93057493E+02
 21
-9.05677267E+01
  0
LINE
  8
0
 62
4
 10
2.41057493E+02
 20
-9.05677267E+01
 11
2.50057493E+02
 21
-9.05677267E+01
  0
LINE
  8
0
 62
4
 10
2.50057493E+02
 20
-9.05677267E+01
 11
2.50057493E+02
 21
-8.45677267E+01
  0
LINE
  8
0
  6
DASHED
 62
6
 10
2.43307493E+02
 20
-8.42677236E+01
 11
2.43307493E+02
 21
-9.05677267E+01
  0
LINE
  8
0
 62
4
 10
2.41057493E+02
 20
-8.42677236E+01
 11
2.49757494E+02
 21
-8.42677236E+01
  0
LINE
  8
0
  6
CENTER
 62
6
 10
1.88557493E+02
 20
-8.29583212E+01
 11
1.88557493E+02
 21
-9.30677267E+01
  0
LINE
  8
0
  6
CENTER
 62
6
 10
2.45557493E+02
 20
-8.28135687E+01
 11
2.45557493E+02
 21
-9.30677267E+01
  0
LINE
  8
0
  6
DASHED
 62
6
 10
1.90807493E+02
 20
-8.42677236E+01
 11
1.90807493E+02
 21
-9.05677267E+01
  0
LINE
  8
0
 62
4
 10
1.84057493E+02
 20
-9.05677267E+01
 11
1.84057493E+02
 21
-8.45677267E+01
  0
LINE
  8
0
  6
DASHED
 62
6
 10
1.86307493E+02
 20
-8.42677236E+01
 11
1.86307493E+02
 21
-9.05677267E+01
  0
LINE
  8
0
 62
4
 10
1.93057493E+02
 20
-8.42677236E+01
 11
1.84357497E+02
 21
-8.42677236E+01
  0
LINE
  8
0
  6
DASHED
 62
6
 10
2.47807493E+02
 20
-8.42677236E+01
 11
2.47807493E+02
 21
-9.05677267E+01
  0
TEXT
  8
0
 10
-1.45258382E+02
 20
-4.92183617E+00
 40
4.50000000E+00
  1
STRETCH LINE
 41
1.05263158E+00
  7
MONOTXT
  0
TEXT
  8
0
 10
-1.51508390E+02
 20
1.44182956E+02
 40
4.50000000E+00
  1
STRETCH LINE
 41
1.05263158E+00
  7
MONOTXT
  0
LINE
  8
0
 62
7
 10
5.93165690E+01
 20
1.75500000E+02
 11
2.82099854E+02
 21
1.75500000E+02
  0
LINE
  8
0
 62
7
 10
5.93165690E+01
 20
-1.49750000E+02
 11
2.82099854E+02
 21
-1.49750000E+02
  0
TEXT
  8
0
 62
7
 10
-1.13757812E+02
 20
-1.75655362E+02
 40
4.50000000E+00
  1
STRETCH LIST
 41
1.05263158E+00
  7
MONOTXT
  0
TEXT
  8
0
 62
7
 10
8.64921875E+01
 20
-1.89250000E+02
 40
4.50000000E+00
  1
950
 41
1.00000000E+00
  7
MONOTXT
  0
TEXT
  8
0
 62
7
 10
6.84921875E+01
 20
-1.89250000E+02
 40
4.50000000E+00
  1
850
 41
1.00000000E+00
  7
MONOTXT
  0
TEXT
  8
0
 62
7
 10
5.04921875E+01
 20
-1.89250000E+02
 40
4.50000000E+00
  1
800
 41
1.00000000E+00
  7
MONOTXT
  0
TEXT
  8
0
 62
7
 10
3.24921875E+01
 20
-1.89250000E+02
 40
4.50000000E+00
  1
750
 41
1.00000000E+00
  7
MONOTXT
  0
TEXT
  8
0
 62
7
 10
1.44921875E+01
 20
-1.89250000E+02
 40
4.50000000E+00
  1
700
 41
1.00000000E+00
  7
MONOTXT
  0
TEXT
  8
0
 62
7
 10
-3.50781250E+00
 20
-1.89250000E+02
 40
4.50000000E+00
  1
650
 41
1.00000000E+00
  7
MONOTXT
  0
TEXT
  8
0
 62
7
 10
-2.15078125E+01
 20
-1.89250000E+02
 40
4.50000000E+00
  1
600
 41
1.00000000E+00
  7
MONOTXT
  0
TEXT
  8
0
 62
7
 10
-3.95078125E+01
 20
-1.89250000E+02
 40
4.50000000E+00
  1
550
 41
1.00000000E+00
  7
MONOTXT
  0
TEXT
  8
0
 62
7
 10
-5.75078125E+01
 20
-1.89250000E+02
 40
4.50000000E+00
  1
500
 41
1.00000000E+00
  7
MONOTXT
  0
TEXT
  8
0
 62
7
 10
-7.55078125E+01
 20
-1.89250000E+02
 40
4.50000000E+00
  1
450
 41
1.00000000E+00
  7
MONOTXT
  0
TEXT
  8
0
 62
7
 10
-9.35078125E+01
 20
-1.89250000E+02
 40
4.50000000E+00
  1
400
 41
1.00000000E+00
  7
MONOTXT
  0
TEXT
  8
0
 62
7
 10
-1.11507812E+02
 20
-1.89250000E+02
 40
4.50000000E+00
  1
350
 41
1.00000000E+00
  7
MONOTXT
  0
TEXT
  8
0
 62
7
 10
-1.29507812E+02
 20
-1.89250000E+02
 40
4.50000000E+00
  1
300
 41
1.00000000E+00
  7
MONOTXT
  0
TEXT
  8
0
 62
7
 10
-1.47507812E+02
 20
-1.89250000E+02
 40
4.50000000E+00
  1
250
 41
1.00000000E+00
  7
MONOTXT
  0
TEXT
  8
0
 62
7
 10
-1.65507812E+02
 20
-1.89250000E+02
 40
4.50000000E+00
  1
200
 41
1.00000000E+00
  7
MONOTXT
  0
TEXT
  8
0
 62
7
 10
-1.83507812E+02
 20
-1.89250000E+02
 40
4.50000000E+00
  1
150
 41
1.00000000E+00
  7
MONOTXT
  0
LINE
  8
0
 62
7
 10
1.01750000E+02
 20
-1.90000000E+02
 11
1.01750000E+02
 21
-1.78000000E+02
  0
TEXT
  8
0
 62
7
 10
8.42421875E+01
 20
-1.83250000E+02
 40
4.50000000E+00
  1
1000
 41
1.00000000E+00
  7
MONOTXT
  0
TEXT
  8
0
 62
7
 10
8.47357222E+01
 20
-1.75655362E+02
 40
4.50000000E+00
  1
(mm)
 41
1.00000000E+00
  7
MONOTXT
  0
LINE
  8
0
 62
7
 10
8.37500000E+01
 20
-1.90000000E+02
 11
8.37500000E+01
 21
-1.78000000E+02
  0
TEXT
  8
0
 62
7
 10
6.84921875E+01
 20
-1.83250000E+02
 40
4.50000000E+00
  1
900
 41
1.00000000E+00
  7
MONOTXT
  0
TEXT
  8
0
 62
7
 10
5.04921875E+01
 20
-1.83250000E+02
 40
4.50000000E+00
  1
850
 41
1.00000000E+00
  7
MONOTXT
  0
TEXT
  8
0
 62
7
 10
3.24921875E+01
 20
-1.83250000E+02
 40
4.50000000E+00
  1
800
 41
1.00000000E+00
  7
MONOTXT
  0
TEXT
  8
0
 62
7
 10
1.44921875E+01
 20
-1.83250000E+02
 40
4.50000000E+00
  1
750
 41
1.00000000E+00
  7
MONOTXT
  0
TEXT
  8
0
 62
7
 10
-3.50781250E+00
 20
-1.83250000E+02
 40
4.50000000E+00
  1
700
 41
1.00000000E+00
  7
MONOTXT
  0
TEXT
  8
0
 62
7
 10
-2.15078125E+01
 20
-1.83250000E+02
 40
4.50000000E+00
  1
650
 41
1.00000000E+00
  7
MONOTXT
  0
TEXT
  8
0
 62
7
 10
-3.95078125E+01
 20
-1.83250000E+02
 40
4.50000000E+00
  1
600
 41
1.00000000E+00
  7
MONOTXT
  0
TEXT
  8
0
 62
7
 10
-5.75078125E+01
 20
-1.83250000E+02
 40
4.50000000E+00
  1
550
 41
1.00000000E+00
  7
MONOTXT
  0
TEXT
  8
0
 62
7
 10
-7.55078125E+01
 20
-1.83250000E+02
 40
4.50000000E+00
  1
500
 41
1.00000000E+00
  7
MONOTXT
  0
TEXT
  8
0
 62
7
 10
-9.35078125E+01
 20
-1.83250000E+02
 40
4.50000000E+00
  1
450
 41
1.00000000E+00
  7
MONOTXT
  0
TEXT
  8
0
 62
7
 10
-1.11507812E+02
 20
-1.83250000E+02
 40
4.50000000E+00
  1
400
 41
1.00000000E+00
  7
MONOTXT
  0
TEXT
  8
0
 62
7
 10
-1.29507812E+02
 20
-1.83250000E+02
 40
4.50000000E+00
  1
350
 41
1.00000000E+00
  7
MONOTXT
  0
TEXT
  8
0
 62
7
 10
-1.47507812E+02
 20
-1.83250000E+02
 40
4.50000000E+00
  1
300
 41
1.00000000E+00
  7
MONOTXT
  0
TEXT
  8
0
 62
7
 10
-1.65507812E+02
 20
-1.83250000E+02
 40
4.50000000E+00
  1
250
 41
1.00000000E+00
  7
MONOTXT
  0
TEXT
  8
0
 62
7
 10
-1.83507812E+02
 20
-1.83250000E+02
 40
4.50000000E+00
  1
200
 41
1.00000000E+00
  7
MONOTXT
  0
TEXT
  8
0
 62
7
 10
-2.73507812E+02
 20
-1.89250000E+02
 40
4.50000000E+00
  1
STRETCH
 41
1.00000000E+00
  7
MONOTXT
  0
TEXT
  8
0
 62
7
 10
-2.33007812E+02
 20
-1.89250000E+02
 40
4.50000000E+00
  1
0
 41
1.00000000E+00
  7
MONOTXT
  0
TEXT
  8
0
 62
7
 10
-2.17257812E+02
 20
-1.89250000E+02
 40
4.50000000E+00
  1
50
 41
1.00000000E+00
  7
MONOTXT
  0
TEXT
  8
0
 62
7
 10
-2.01507812E+02
 20
-1.89250000E+02
 40
4.50000000E+00
  1
100
 41
1.00000000E+00
  7
MONOTXT
  0
TEXT
  8
0
 62
7
 10
-2.01507812E+02
 20
-1.83250000E+02
 40
4.50000000E+00
  1
150
 41
1.00000000E+00
  7
MONOTXT
  0
TEXT
  8
0
 62
7
 10
-2.19507812E+02
 20
-1.83250000E+02
 40
4.50000000E+00
  1
100
 41
1.00000000E+00
  7
MONOTXT
  0
TEXT
  8
0
 62
7
 10
-2.35257812E+02
 20
-1.83250000E+02
 40
4.50000000E+00
  1
50
 41
1.00000000E+00
  7
MONOTXT
  0
TEXT
  8
0
 62
7
 10
-2.71257812E+02
 20
-1.83250000E+02
 40
4.50000000E+00
  1
STROKE
 41
1.00000000E+00
  7
MONOTXT
  0
LINE
  8
0
 62
7
 10
-9.62500000E+01
 20
-1.90000000E+02
 11
-9.62500000E+01
 21
-1.78000000E+02
  0
LINE
  8
0
 62
7
 10
-1.14250000E+02
 20
-1.90000000E+02
 11
-1.14250000E+02
 21
-1.78000000E+02
  0
LINE
  8
0
 62
7
 10
-1.32250000E+02
 20
-1.90000000E+02
 11
-1.32250000E+02
 21
-1.78000000E+02
  0
LINE
  8
0
 62
7
 10
-1.50250000E+02
 20
-1.90000000E+02
 11
-1.50250000E+02
 21
-1.78000000E+02
  0
LINE
  8
0
 62
7
 10
-1.68250000E+02
 20
-1.90000000E+02
 11
-1.68250000E+02
 21
-1.78000000E+02
  0
LINE
  8
0
 62
7
 10
-1.86250000E+02
 20
-1.90000000E+02
 11
-1.86250000E+02
 21
-1.78000000E+02
  0
LINE
  8
0
 62
7
 10
-2.04250000E+02
 20
-1.90000000E+02
 11
-2.04250000E+02
 21
-1.78000000E+02
  0
LINE
  8
0
 62
7
 10
-2.22250000E+02
 20
-1.90000000E+02
 11
-2.22250000E+02
 21
-1.78000000E+02
  0
LINE
  8
0
 62
7
 10
-2.40250000E+02
 20
-1.90000000E+02
 11
-2.40250000E+02
 21
-1.78000000E+02
  0
LINE
  8
0
 62
7
 10
-2.76250000E+02
 20
-1.90000000E+02
 11
-2.76250000E+02
 21
-1.78000000E+02
  0
LINE
  8
0
 62
7
 10
-2.76250000E+02
 20
-1.78000000E+02
 11
1.01750000E+02
 21
-1.78000000E+02
  0
LINE
  8
0
 62
7
 10
-2.76250000E+02
 20
-1.84000000E+02
 11
1.01750000E+02
 21
-1.84000000E+02
  0
LINE
  8
0
 62
7
 10
-2.76250000E+02
 20
-1.90000000E+02
 11
1.01750000E+02
 21
-1.90000000E+02
  0
LINE
  8
0
 62
7
 10
-7.82500000E+01
 20
-1.90000000E+02
 11
-7.82500000E+01
 21
-1.78000000E+02
  0
LINE
  8
0
 62
7
 10
-6.02500000E+01
 20
-1.90000000E+02
 11
-6.02500000E+01
 21
-1.78000000E+02
  0
LINE
  8
0
 62
7
 10
-4.22500000E+01
 20
-1.90000000E+02
 11
-4.22500000E+01
 21
-1.78000000E+02
  0
LINE
  8
0
 62
7
 10
-2.42500000E+01
 20
-1.90000000E+02
 11
-2.42500000E+01
 21
-1.78000000E+02
  0
LINE
  8
0
 62
7
 10
-6.25000000E+00
 20
-1.90000000E+02
 11
-6.25000000E+00
 21
-1.78000000E+02
  0
LINE
  8
0
 62
7
 10
1.17500000E+01
 20
-1.90000000E+02
 11
1.17500000E+01
 21
-1.78000000E+02
  0
LINE
  8
0
 62
7
 10
2.97500000E+01
 20
-1.90000000E+02
 11
2.97500000E+01
 21
-1.78000000E+02
  0
LINE
  8
0
 62
7
 10
4.77500000E+01
 20
-1.90000000E+02
 11
4.77500000E+01
 21
-1.78000000E+02
  0
LINE
  8
0
 62
7
 10
6.57500000E+01
 20
-1.90000000E+02
 11
6.57500000E+01
 21
-1.78000000E+02
  0
TEXT
  8
0
 62
7
 10
1.46450399E+02
 20
1.68250000E+02
 40
4.50000000E+00
  1
M-MOUNT(-M)
 41
1.00000000E+00
  7
MONOTXT
  0
LINE
  8
0
 62
7
 10
5.93165690E+01
 20
1.65500000E+02
 11
2.82099854E+02
 21
1.65500000E+02
  0
TEXT
  8
0
 62
7
 10
1.41950399E+02
 20
-7.00000000E+00
 40
4.50000000E+00
  1
F-SUPPORT(-F)
 41
1.00000000E+00
  7
MONOTXT
  0
LINE
  8
0
 62
7
 10
5.93165690E+01
 20
-9.75000000E+00
 11
2.82099854E+02
 21
-9.75000000E+00
  0
LINE
  8
0
 62
7
 10
5.93165690E+01
 20
2.50000000E-01
 11
2.82099854E+02
 21
2.50000000E-01
  0
LINE
  8
0
 62
7
 10
5.93165690E+01
 20
1.75500000E+02
 11
5.93165690E+01
 21
-1.49750000E+02
  0
TEXT
  8
0
 62
7
 10
-2.70750283E+02
 20
1.82350000E+02
 40
6.30000019E+00
  1
RODLESS CYLINDER
 41
1.03896104E+00
  7
MONOTXT
  0
TEXT
  8
0
 62
7
 10
-2.67600562E+02
 20
1.57350000E+02
 40
6.30000019E+00
  1
MODEL:ORV20*ST(50)
 41
1.00000000E+00
  7
MONOTXT
  0
TEXT
  8
0
 62
7
 10
-2.70025204E+02
 20
1.47779640E+02
 40
6.30000019E+00
  1
(WITH SENSOR SWITCH)
 41
9.28740262E-01
  7
MONOTXT
  0
TEXT
  8
0
 62
7
 10
-2.67980235E+02
 20
2.09636904E+00
 40
6.30000019E+00
  1
MODEL:ORV20*ST(50)-K2
 41
1.00000000E+00
  7
MONOTXT
  0
LINE
  8
0
  6
PHANTOM
 62
2
 10
9.50574934E+01
 20
-8.70298086E+01
 11
8.56535947E+01
 21
-8.70298086E+01
  0
LINE
  8
0
  6
PHANTOM
 62
2
 10
1.45057493E+02
 20
-8.70298086E+01
 11
1.57024224E+02
 21
-8.70298086E+01
  0
LINE
  8
0
  6
PHANTOM
 62
2
 10
1.45057493E+02
 20
-9.05677267E+01
 11
1.57648054E+02
 21
-9.05677267E+01
  0
LINE
  8
0
  6
PHANTOM
 62
2
 10
8.50431362E+01
 20
-8.35677267E+01
 11
1.56413766E+02
 21
-8.35677267E+01
  0
LINE
  8
0
  6
CENTER
 62
2
 10
2.17057493E+02
 20
-9.61802083E+01
 11
2.17057493E+02
 21
-5.57085119E+01
  0
LINE
  8
0
  6
PHANTOM
 62
2
 10
2.15557493E+02
 20
-9.05677267E+01
 11
1.93057493E+02
 21
-9.05677267E+01
  0
LINE
  8
0
  6
PHANTOM
 62
2
 10
2.15557493E+02
 20
-8.95677267E+01
 11
2.15557493E+02
 21
-9.05677267E+01
  0
LINE
  8
0
  6
PHANTOM
 62
2
 10
2.18557493E+02
 20
-8.95677267E+01
 11
2.15557493E+02
 21
-8.95677267E+01
  0
LINE
  8
0
  6
PHANTOM
 62
2
 10
2.18557493E+02
 20
-8.95677267E+01
 11
2.18557493E+02
 21
-9.05677267E+01
  0
LINE
  8
0
  6
PHANTOM
 62
2
 10
2.41057493E+02
 20
-9.05677267E+01
 11
2.18557493E+02
 21
-9.05677267E+01
  0
LINE
  8
0
  6
PHANTOM
 62
2
 10
1.93057493E+02
 20
-9.05677267E+01
 11
1.93057493E+02
 21
-7.37677236E+01
  0
LINE
  8
0
  6
PHANTOM
 62
2
 10
2.03057493E+02
 20
-6.05677267E+01
 11
2.14557493E+02
 21
-6.05677267E+01
  0
LINE
  8
0
  6
PHANTOM
 62
2
 10
2.19557493E+02
 20
-6.05677267E+01
 11
2.31057493E+02
 21
-6.05677267E+01
  0
LINE
  8
0
  6
PHANTOM
 62
2
 10
2.41057497E+02
 20
-7.40677253E+01
 11
2.40743842E+02
 21
-6.80828286E+01
  0
LINE
  8
0
  6
PHANTOM
 62
2
 10
1.93057495E+02
 20
-7.37677228E+01
 11
1.93351304E+02
 21
-6.81615154E+01
  0
LINE
  8
0
  6
PHANTOM
 62
2
 10
2.14557493E+02
 20
-6.07677236E+01
 11
2.19557493E+02
 21
-6.07677236E+01
  0
LINE
  8
0
  6
PHANTOM
 62
2
 10
2.41057493E+02
 20
-9.05677267E+01
 11
2.41057493E+02
 21
-7.40677267E+01
  0
LINE
  8
0
  6
PHANTOM
 62
2
 10
1.99557493E+02
 20
-6.12002264E+01
 11
1.99557493E+02
 21
-5.85677267E+01
  0
LINE
  8
0
  6
PHANTOM
 62
2
 10
2.34557493E+02
 20
-6.12002264E+01
 11
2.34557493E+02
 21
-5.85677267E+01
  0
LINE
  8
0
  6
PHANTOM
 62
2
 10
1.99557493E+02
 20
-5.85677267E+01
 11
2.34557493E+02
 21
-5.85677267E+01
  0
ARC
  8
0
  6
PHANTOM
 62
2
 10
2.03057493E+02
 20
-7.05677267E+01
 40
1.00000000E+01
 50
9.00000002E+01
 51
1.66076801E+02
  0
ARC
  8
0
  6
PHANTOM
 62
2
 10
2.31057493E+02
 20
-7.05677267E+01
 40
1.00000000E+01
 50
1.43881572E+01
 51
9.00000002E+01
  0
LINE
  8
0
  6
PHANTOM
 62
2
 10
9.50574934E+01
 20
-9.05677267E+01
 11
8.62774251E+01
 21
-9.05677267E+01
  0
LINE
  8
0
  6
PHANTOM
 62
2
 10
8.06349617E+01
 20
-5.85677267E+01
 11
1.52005591E+02
 21
-5.85677267E+01
  0
LINE
  8
0
  6
PHANTOM
 62
2
 10
8.09876157E+01
 20
-6.05677267E+01
 11
1.52358245E+02
 21
-6.05677267E+01
  0
LINE
  8
0
  6
PHANTOM
 10
1.58749254E+02
 20
-9.68129408E+01
 11
1.51281370E+02
 21
-5.44604680E+01
  0
LINE
  8
0
  6
PHANTOM
 10
8.73786248E+01
 20
-9.68129408E+01
 11
7.99107412E+01
 21
-5.44604680E+01
  0
LINE
  8
0
 62
7
 10
2.82099854E+02
 20
1.95500000E+02
 11
2.82099854E+02
 21
-1.95000000E+02
  0
LINE
  8
0
 62
7
 10
-2.81250000E+02
 20
1.95500000E+02
 11
2.82099854E+02
 21
1.95500000E+02
  0
LINE
  8
0
 62
7
 10
-2.81250000E+02
 20
1.95500000E+02
 11
-2.81250000E+02
 21
-1.95000000E+02
  0
LINE
  8
0
 62
7
 10
-2.81250000E+02
 20
-1.95000000E+02
 11
2.82099854E+02
 21
-1.95000000E+02
  0
LINE
  8
0
 62
7
 10
1.62099976E+02
 20
-1.75000000E+02
 11
1.62099976E+02
 21
-1.95000000E+02
  0
LINE
  8
0
 62
7
 10
1.62099976E+02
 20
-1.75000000E+02
 11
2.82099854E+02
 21
-1.75000000E+02
  0
LINE
  8
0
 62
7
 10
-2.81250000E+02
 20
1.75500000E+02
 11
-1.61250000E+02
 21
1.75500000E+02
  0
LINE
  8
0
 62
7
 10
1.62099976E+02
 20
1.95500000E+02
 11
1.62099976E+02
 21
1.75500000E+02
  0
LINE
  8
0
 62
7
 10
-1.61250000E+02
 20
1.95500000E+02
 11
-1.61250000E+02
 21
1.75500000E+02
  0
TEXT
  8
0
 62
7
 10
1.97799694E+02
 20
1.82350000E+02
 40
6.30000019E+00
  1
Ver. 1.0
 41
1.08108108E+00
  7
MONOTXT
  0
TEXT
  8
0
 62
7
 10
1.69885289E+02
 20
-1.89500000E+02
 40
9.00000000E+00
  1
KOGANEI CORP.
 41
1.04838710E+00
  7
MONOTXT
  0
ENDSEC
  0
EOF
