  0
SECTION
  2
HEADER
  0
ENDSEC
  0
SECTION
  2
TABLES
  0
TABLE
  2
LTYPE
 70
     4
  0
LTYPE
  2
CONTINUOUS
 70
    64
  3
Solid line
 72
    65
 73
     0
 40
0.000000
  0
LTYPE
  2
DASHED
 70
    64
  3
__ __ __ __ __ __ __ __ __ __ __ __ __ __ __
 72
    65
 73
     2
 40
3.500000
 49
2.000000
 49
-1.500000
  0
LTYPE
  2
CENTER
 70
    64
  3
____ _ ____ _ ____ _ ____ _ ____ _ ____ _ ____
 72
    65
 73
     4
 40
17.500000
 49
13.000000
 49
-1.500000
 49
1.500000
 49
-1.500000
  0
LTYPE
  2
PHANTOM
 70
    64
  3
_____ _ _ _____ _ _ _____ _ _ _____ _ _ ____  
 72
    65
 73
     6
 40
15.500000
 49
8.000000
 49
-1.500000
 49
1.500000
 49
-1.500000
 49
1.500000
 49
-1.500000
  0
ENDTAB
  0
TABLE
  2
LAYER
 70
     1
  0
LAYER
  2
0
 70
     0
 62
     7
  6
CONTINUOUS
  0
ENDTAB
  0
TABLE
  2
STYLE
 70
     1
  0
STYLE
  2
STANDARD
 70
     0
 40
0.000000
 41
1.000000
 50
0.000000
 71
     0
 42
0.200000
  3
txt
  4
BIGFONT
  0
ENDTAB
  0
TABLE
  2
VIEW
 70
     0
  0
ENDTAB
  0
ENDSEC
  0
SECTION
  2
BLOCKS
  0
ENDSEC
  0
SECTION
  2
ENTITIES
  0
LINE
  8
0
  6
PHANTOM
 62
3
 10
203.203003
 20
-150.820999
 11
197.181000
 21
-116.667000
  0
LINE
  8
0
  6
CONTINUOUS
 62
3
 10
138.203003
 20
-150.820999
 11
132.179993
 21
-116.667000
  0
LINE
  8
0
  6
CONTINUOUS
 62
7
 10
-393.825012
 20
-251.500000
 11
-393.825012
 21
-271.500000
  0
LINE
  8
0
  6
CONTINUOUS
 62
7
 10
17.074900
 20
-251.500000
 11
17.074900
 21
-271.500000
  0
LINE
  8
0
  6
CONTINUOUS
 62
7
 10
-12.925100
 20
-251.500000
 11
-12.925100
 21
-271.500000
  0
LINE
  8
0
  6
CONTINUOUS
 62
7
 10
-43.425098
 20
-251.500000
 11
-43.425098
 21
-271.500000
  0
LINE
  8
0
  6
CONTINUOUS
 62
7
 10
-73.425102
 20
-251.500000
 11
-73.425102
 21
-271.500000
  0
LINE
  8
0
  6
CONTINUOUS
 62
7
 10
-103.425003
 20
-251.500000
 11
-103.425003
 21
-271.500000
  0
LINE
  8
0
  6
CONTINUOUS
 62
7
 10
-133.425003
 20
-251.500000
 11
-133.425003
 21
-271.500000
  0
LINE
  8
0
  6
CONTINUOUS
 62
7
 10
-163.425003
 20
-251.500000
 11
-163.425003
 21
-271.500000
  0
LINE
  8
0
  6
CONTINUOUS
 62
7
 10
-193.425003
 20
-251.500000
 11
-193.425003
 21
-271.500000
  0
LINE
  8
0
  6
CONTINUOUS
 62
7
 10
-223.425003
 20
-251.500000
 11
-223.425003
 21
-271.500000
  0
LINE
  8
0
  6
CONTINUOUS
 62
7
 10
-253.425003
 20
-251.500000
 11
-253.425003
 21
-271.500000
  0
LINE
  8
0
  6
CONTINUOUS
 62
7
 10
-283.424988
 20
-251.500000
 11
-283.424988
 21
-271.500000
  0
LINE
  8
0
  6
CONTINUOUS
 62
7
 10
-393.825012
 20
-261.500000
 11
77.074898
 21
-261.500000
  0
LINE
  8
0
  6
CONTINUOUS
 62
7
 10
-313.424988
 20
-251.500000
 11
-313.424988
 21
-271.500000
  0
LINE
  8
0
  6
CONTINUOUS
 62
7
 10
-393.825012
 20
-271.500000
 11
77.074898
 21
-271.500000
  0
LINE
  8
0
  6
CONTINUOUS
 62
7
 10
-393.825012
 20
-251.500000
 11
77.074898
 21
-251.500000
  0
LINE
  8
0
  6
CONTINUOUS
 62
7
 10
-343.424988
 20
-251.500000
 11
-343.424988
 21
-271.500000
  0
LINE
  8
0
  6
CONTINUOUS
 62
7
 10
-163.425003
 20
-251.500000
 11
-163.425003
 21
-271.500000
  0
LINE
  8
0
  6
CONTINUOUS
 62
7
 10
47.574902
 20
-251.500000
 11
47.574902
 21
-271.500000
  0
LINE
  8
0
  6
CONTINUOUS
 62
7
 10
77.574898
 20
-251.500000
 11
77.574898
 21
-271.500000
  0
LINE
  8
0
  6
CONTINUOUS
 62
7
 10
77.074898
 20
-261.500000
 11
227.074997
 21
-261.500000
  0
LINE
  8
0
  6
CONTINUOUS
 62
7
 10
77.074898
 20
-271.500000
 11
227.074997
 21
-271.500000
  0
LINE
  8
0
  6
CONTINUOUS
 62
7
 10
77.074898
 20
-251.500000
 11
227.074997
 21
-251.500000
  0
LINE
  8
0
  6
CONTINUOUS
 62
7
 10
227.074997
 20
-251.500000
 11
227.074997
 21
-271.500000
  0
LINE
  8
0
  6
CONTINUOUS
 62
7
 10
197.574997
 20
-251.500000
 11
197.574997
 21
-271.500000
  0
LINE
  8
0
  6
CONTINUOUS
 62
7
 10
167.574997
 20
-251.500000
 11
167.574997
 21
-271.500000
  0
LINE
  8
0
  6
CONTINUOUS
 62
7
 10
137.574997
 20
-251.500000
 11
137.574997
 21
-271.500000
  0
LINE
  8
0
  6
CONTINUOUS
 62
7
 10
107.574997
 20
-251.500000
 11
107.574997
 21
-271.500000
  0
LINE
  8
0
  6
CONTINUOUS
 62
7
 10
113.875000
 20
-233.292007
 11
400.225006
 21
-233.292007
  0
LINE
  8
0
  6
CONTINUOUS
 62
7
 10
113.875000
 20
-233.292007
 11
113.875000
 21
251.500000
  0
LINE
  8
0
  6
CONTINUOUS
 62
3
 10
136.710999
 20
-142.360001
 11
142.548004
 21
-142.360001
  0
LINE
  8
0
  6
CONTINUOUS
 62
3
 10
135.929993
 20
-137.932007
 11
200.929993
 21
-137.932007
  0
LINE
  8
0
  6
CONTINUOUS
 62
3
 10
137.492004
 20
-146.789001
 11
202.492004
 21
-146.789001
  0
LINE
  8
0
  6
CONTINUOUS
 62
3
 10
132.819000
 20
-120.289001
 11
197.819000
 21
-120.289001
  0
LINE
  8
0
  6
CENTER
 62
1
 10
167.548004
 20
-135.488998
 11
167.548004
 21
-150.503006
  0
LINE
  8
0
  6
CONTINUOUS
 62
4
 10
276.048004
 20
-146.488998
 11
276.048004
 21
-142.645996
  0
LINE
  8
0
  6
CONTINUOUS
 62
3
 10
284.048004
 20
-109.789001
 11
324.048004
 21
-109.789001
  0
LINE
  8
0
  6
CONTINUOUS
 62
4
 10
332.048004
 20
-146.488998
 11
332.048004
 21
-142.645996
  0
LINE
  8
0
  6
CENTER
 62
3
 10
304.048004
 20
-151.289001
 11
304.048004
 21
-104.789001
  0
LINE
  8
0
  6
CONTINUOUS
 62
3
 10
192.548004
 20
-142.360001
 11
201.710999
 21
-142.360001
  0
LINE
  8
0
  6
CONTINUOUS
 62
7
 10
-238.824997
 20
276.500000
 11
-238.824997
 21
251.500000
  0
LINE
  8
0
  6
CONTINUOUS
 62
7
 10
240.225006
 20
251.500000
 11
240.225006
 21
276.500000
  0
LINE
  8
0
  6
CONTINUOUS
 62
7
 10
240.225006
 20
-251.500000
 11
240.225006
 21
-276.500000
  0
LINE
  8
0
  6
CONTINUOUS
 62
7
 10
-398.825012
 20
251.500000
 11
-238.824997
 21
251.500000
  0
LINE
  8
0
  6
CONTINUOUS
 62
7
 10
113.875000
 20
251.500000
 11
400.225006
 21
251.500000
  0
LINE
  8
0
  6
CONTINUOUS
 62
7
 10
240.225006
 20
-251.500000
 11
400.225006
 21
-251.500000
  0
LINE
  8
0
  6
CONTINUOUS
 62
7
 10
-398.825012
 20
-276.500000
 11
400.225006
 21
-276.500000
  0
LINE
  8
0
  6
CONTINUOUS
 62
7
 10
-398.825012
 20
276.500000
 11
400.225006
 21
276.500000
  0
LINE
  8
0
  6
CONTINUOUS
 62
7
 10
-398.825012
 20
276.500000
 11
-398.825012
 21
-276.500000
  0
LINE
  8
0
  6
CONTINUOUS
 62
7
 10
400.225006
 20
276.500000
 11
400.225006
 21
-276.500000
  0
LINE
  8
0
  6
CONTINUOUS
 62
7
 10
113.875000
 20
0.000000
 11
400.225006
 21
0.000000
  0
LINE
  8
0
  6
CONTINUOUS
 62
7
 10
113.875000
 20
-15.000000
 11
400.225006
 21
-15.000000
  0
LINE
  8
0
  6
CONTINUOUS
 62
3
 10
324.054993
 20
-109.789001
 11
324.054993
 21
-112.474998
  0
LINE
  8
0
  6
CONTINUOUS
 62
3
 10
284.054993
 20
-109.789001
 11
284.054993
 21
-112.474998
  0
LINE
  8
0
  6
CONTINUOUS
 62
3
 10
276.054993
 20
-146.789001
 11
276.054993
 21
-123.789001
  0
LINE
  8
0
  6
CONTINUOUS
 62
3
 10
332.054993
 20
-146.789001
 11
305.554993
 21
-146.789001
  0
LINE
  8
0
  6
CONTINUOUS
 62
3
 10
320.054993
 20
-111.789001
 11
288.054993
 21
-111.789001
  0
LINE
  8
0
  6
CONTINUOUS
 62
3
 10
326.855011
 20
-130.488998
 11
326.855011
 21
-134.789001
  0
LINE
  8
0
  6
CONTINUOUS
 62
3
 10
332.054993
 20
-123.789001
 11
332.054993
 21
-128.488998
  0
LINE
  8
0
  6
CONTINUOUS
 62
3
 10
332.054993
 20
-136.789001
 11
328.855011
 21
-136.789001
  0
LINE
  8
0
  6
CONTINUOUS
 62
3
 10
332.054993
 20
-128.488998
 11
328.855011
 21
-128.488998
  0
LINE
  8
0
  6
CONTINUOUS
 62
3
 10
302.554993
 20
-145.789001
 11
302.554993
 21
-146.789001
  0
LINE
  8
0
  6
CONTINUOUS
 62
3
 10
332.054993
 20
-136.789001
 11
332.054993
 21
-146.789001
  0
LINE
  8
0
  6
CONTINUOUS
 62
3
 10
305.554993
 20
-145.789001
 11
305.554993
 21
-146.789001
  0
LINE
  8
0
  6
CONTINUOUS
 62
3
 10
302.554993
 20
-146.789001
 11
276.054993
 21
-146.789001
  0
LINE
  8
0
  6
CONTINUOUS
 62
3
 10
302.554993
 20
-145.789001
 11
305.554993
 21
-145.789001
  0
LINE
  8
0
  6
CONTINUOUS
 62
7
 10
113.875000
 20
236.500000
 11
400.225006
 21
236.500000
  0
LINE
  8
0
  6
CONTINUOUS
 62
7
 10
-186.716003
 20
157.492004
 11
-133.240997
 21
157.492004
  0
LINE
  8
0
  6
CONTINUOUS
 62
7
 10
-186.716003
 20
171.492004
 11
-133.322998
 21
171.492004
  0
LINE
  8
0
  6
CONTINUOUS
 62
7
 10
-308.716003
 20
136.492004
 11
-109.716003
 21
136.492004
  0
LINE
  8
0
  6
CONTINUOUS
 62
7
 10
-308.716003
 20
192.492004
 11
-109.716003
 21
192.492004
  0
LINE
  8
0
  6
CENTER
 62
2
 10
-314.893005
 20
164.492004
 11
-103.292999
 21
164.492004
  0
LINE
  8
0
  6
CENTER
 62
2
 10
-234.216003
 20
129.927994
 11
-234.216003
 21
197.621994
  0
LINE
  8
0
  6
CENTER
 62
2
 10
-297.216003
 20
158.044006
 11
-297.216003
 21
144.701004
  0
LINE
  8
0
  6
CENTER
 62
2
 10
-297.216003
 20
183.807999
 11
-297.216003
 21
171.041000
  0
LINE
  8
0
  6
CENTER
 62
2
 10
-290.738007
 20
177.492004
 11
-303.966003
 21
177.492004
  0
LINE
  8
0
  6
CENTER
 62
2
 10
-290.738007
 20
151.492004
 11
-303.966003
 21
151.492004
  0
LINE
  8
0
  6
CENTER
 62
2
 10
-121.216003
 20
184.087006
 11
-121.216003
 21
170.309006
  0
LINE
  8
0
  6
CENTER
 62
2
 10
-128.216995
 20
177.492004
 11
-113.625999
 21
177.492004
  0
LINE
  8
0
  6
CONTINUOUS
 62
7
 10
-135.716003
 20
169.063004
 11
-135.716003
 21
167.906006
  0
LINE
  8
0
  6
CONTINUOUS
 62
7
 10
-135.716003
 20
159.906006
 11
-135.716003
 21
161.063004
  0
LINE
  8
0
  6
CENTER
 62
2
 10
-204.216003
 20
147.492004
 11
-204.216003
 21
155.492004
  0
LINE
  8
0
  6
CENTER
 62
2
 10
-268.216003
 20
151.492004
 11
-260.216003
 21
151.492004
  0
LINE
  8
0
  6
CENTER
 62
2
 10
-264.216003
 20
147.492004
 11
-264.216003
 21
155.492004
  0
LINE
  8
0
  6
CENTER
 62
2
 10
-200.216003
 20
151.492004
 11
-208.216003
 21
151.492004
  0
LINE
  8
0
  6
CENTER
 62
2
 10
-200.216003
 20
177.492004
 11
-208.216003
 21
177.492004
  0
LINE
  8
0
  6
CENTER
 62
2
 10
-204.216003
 20
181.492004
 11
-204.216003
 21
173.492004
  0
LINE
  8
0
  6
CENTER
 62
2
 10
-268.216003
 20
177.492004
 11
-260.216003
 21
177.492004
  0
LINE
  8
0
  6
CENTER
 62
2
 10
-264.216003
 20
181.492004
 11
-264.216003
 21
173.492004
  0
LINE
  8
0
  6
CONTINUOUS
 62
7
 10
-275.716003
 20
155.992004
 11
-192.716003
 21
155.992004
  0
LINE
  8
0
  6
CONTINUOUS
 62
7
 10
-275.716003
 20
172.992004
 11
-192.716003
 21
172.992004
  0
LINE
  8
0
  6
CONTINUOUS
 62
7
 10
-276.716003
 20
171.992004
 11
-276.716003
 21
156.992004
  0
LINE
  8
0
  6
CONTINUOUS
 62
7
 10
-191.716003
 20
171.992004
 11
-191.716003
 21
156.992004
  0
LINE
  8
0
  6
CONTINUOUS
 62
7
 10
-274.158997
 20
144.492004
 11
-194.216003
 21
144.492004
  0
LINE
  8
0
  6
CONTINUOUS
 62
7
 10
-274.158997
 20
184.492004
 11
-194.216003
 21
184.492004
  0
LINE
  8
0
  6
CONTINUOUS
 62
7
 10
-134.716003
 20
151.992004
 11
-134.716003
 21
153.992004
  0
LINE
  8
0
  6
CONTINUOUS
 62
7
 10
-134.716003
 20
151.992004
 11
-132.216003
 21
151.992004
  0
LINE
  8
0
  6
CONTINUOUS
 62
7
 10
-132.216003
 20
190.492004
 11
-132.216003
 21
176.992004
  0
LINE
  8
0
  6
CONTINUOUS
 62
7
 10
-132.216003
 20
138.492004
 11
-132.216003
 21
151.992004
  0
LINE
  8
0
  6
CONTINUOUS
 62
7
 10
-134.716003
 20
176.992004
 11
-132.216003
 21
176.992004
  0
LINE
  8
0
  6
CONTINUOUS
 62
7
 10
-134.716003
 20
155.733994
 11
-132.888000
 21
155.406006
  0
LINE
  8
0
  6
CONTINUOUS
 62
7
 10
-135.315994
 20
167.406006
 11
-132.830994
 21
166.977005
  0
LINE
  8
0
  6
CONTINUOUS
 62
7
 10
-134.716003
 20
173.233994
 11
-132.888000
 21
173.563004
  0
LINE
  8
0
  6
CONTINUOUS
 62
7
 10
-134.716003
 20
171.733994
 11
-132.830994
 21
171.406006
  0
LINE
  8
0
  6
CONTINUOUS
 62
7
 10
-132.416000
 20
166.063004
 11
-132.416000
 21
166.477005
  0
LINE
  8
0
  6
CONTINUOUS
 62
7
 10
-134.716003
 20
165.233994
 11
-132.830994
 21
165.563004
  0
LINE
  8
0
  6
CONTINUOUS
 62
7
 10
-134.716003
 20
163.733994
 11
-132.830994
 21
163.406006
  0
LINE
  8
0
  6
CONTINUOUS
 62
7
 10
-134.716003
 20
155.733994
 11
-134.716003
 21
157.233994
  0
LINE
  8
0
  6
CONTINUOUS
 62
7
 10
-135.315994
 20
169.563004
 11
-132.830994
 21
169.992004
  0
LINE
  8
0
  6
CONTINUOUS
 62
7
 10
-132.416000
 20
162.906006
 11
-132.416000
 21
162.492004
  0
LINE
  8
0
  6
CONTINUOUS
 62
7
 10
-134.716003
 20
163.733994
 11
-134.716003
 21
165.233994
  0
LINE
  8
0
  6
CONTINUOUS
 62
7
 10
-134.716003
 20
171.733994
 11
-134.716003
 21
173.233994
  0
LINE
  8
0
  6
CONTINUOUS
 62
7
 10
-134.716003
 20
174.992004
 11
-134.716003
 21
176.992004
  0
LINE
  8
0
  6
CONTINUOUS
 62
7
 10
-134.716003
 20
153.992004
 11
-132.888000
 21
154.306000
  0
LINE
  8
0
  6
CONTINUOUS
 62
7
 10
-134.716003
 20
174.992004
 11
-132.888000
 21
174.662994
  0
LINE
  8
0
  6
CONTINUOUS
 62
7
 10
-134.716003
 20
157.233994
 11
-132.830994
 21
157.563004
  0
LINE
  8
0
  6
CONTINUOUS
 62
7
 10
-132.416000
 20
158.063004
 11
-132.416000
 21
158.477005
  0
LINE
  8
0
  6
CONTINUOUS
 62
7
 10
-135.315994
 20
159.406006
 11
-132.830994
 21
158.977005
  0
LINE
  8
0
  6
CONTINUOUS
 62
7
 10
-135.315994
 20
161.563004
 11
-132.830994
 21
161.992004
  0
LINE
  8
0
  6
CONTINUOUS
 62
7
 10
-132.416000
 20
170.906006
 11
-132.416000
 21
170.492004
  0
LINE
  8
0
  6
CONTINUOUS
 62
7
 10
-126.716003
 20
166.992004
 11
-126.716003
 21
161.992004
  0
LINE
  8
0
  6
CENTER
 62
2
 10
-121.216003
 20
158.367996
 11
-121.216003
 21
144.360001
  0
LINE
  8
0
  6
CONTINUOUS
 62
7
 10
-127.216003
 20
147.876999
 11
-127.216003
 21
136.492004
  0
LINE
  8
0
  6
CONTINUOUS
 62
7
 10
-127.216003
 20
173.876999
 11
-127.216003
 21
155.091995
  0
LINE
  8
0
  6
CONTINUOUS
 62
7
 10
-108.216003
 20
161.992004
 11
-127.216003
 21
161.992004
  0
LINE
  8
0
  6
CONTINUOUS
 62
7
 10
-108.216003
 20
166.992004
 11
-127.216003
 21
166.992004
  0
LINE
  8
0
  6
CONTINUOUS
 62
7
 10
-108.216003
 20
190.992004
 11
-108.216003
 21
137.992004
  0
LINE
  8
0
  6
CENTER
 62
2
 10
-128.216995
 20
151.492004
 11
-113.856003
 21
151.492004
  0
LINE
  8
0
  6
CONTINUOUS
 62
7
 10
-127.216003
 20
192.492004
 11
-127.216003
 21
181.091995
  0
LINE
  8
0
  6
CONTINUOUS
 62
7
 10
-127.216003
 20
191.992004
 11
-148.216003
 21
191.992004
  0
LINE
  8
0
  6
CONTINUOUS
 62
7
 10
-283.716003
 20
151.992004
 11
-283.716003
 21
153.992004
  0
LINE
  8
0
  6
CONTINUOUS
 62
7
 10
-283.716003
 20
151.992004
 11
-286.216003
 21
151.992004
  0
LINE
  8
0
  6
CONTINUOUS
 62
7
 10
-286.216003
 20
190.492004
 11
-286.216003
 21
176.992004
  0
LINE
  8
0
  6
CONTINUOUS
 62
7
 10
-286.216003
 20
138.492004
 11
-286.216003
 21
151.992004
  0
LINE
  8
0
  6
CONTINUOUS
 62
7
 10
-283.716003
 20
176.992004
 11
-286.216003
 21
176.992004
  0
LINE
  8
0
  6
CONTINUOUS
 62
7
 10
-283.716003
 20
155.733994
 11
-285.545013
 21
155.406006
  0
LINE
  8
0
  6
CONTINUOUS
 62
7
 10
-283.131012
 20
167.406006
 11
-285.601990
 21
166.977005
  0
LINE
  8
0
  6
CONTINUOUS
 62
7
 10
-283.716003
 20
173.233994
 11
-285.545013
 21
173.563004
  0
LINE
  8
0
  6
CONTINUOUS
 62
7
 10
-270.216003
 20
136.992004
 11
-291.216003
 21
136.992004
  0
LINE
  8
0
  6
CONTINUOUS
 62
7
 10
-283.716003
 20
171.733994
 11
-285.601990
 21
171.406006
  0
LINE
  8
0
  6
CONTINUOUS
 62
7
 10
-286.015991
 20
166.063004
 11
-286.015991
 21
166.477005
  0
LINE
  8
0
  6
CONTINUOUS
 62
7
 10
-283.716003
 20
165.233994
 11
-285.601990
 21
165.563004
  0
LINE
  8
0
  6
CONTINUOUS
 62
7
 10
-283.716003
 20
163.733994
 11
-285.601990
 21
163.406006
  0
LINE
  8
0
  6
CONTINUOUS
 62
7
 10
-283.716003
 20
155.733994
 11
-283.716003
 21
157.233994
  0
LINE
  8
0
  6
CONTINUOUS
 62
7
 10
-283.131012
 20
169.563004
 11
-285.601990
 21
169.992004
  0
LINE
  8
0
  6
CONTINUOUS
 62
7
 10
-286.015991
 20
162.906006
 11
-286.015991
 21
162.492004
  0
LINE
  8
0
  6
CONTINUOUS
 62
7
 10
-283.716003
 20
163.733994
 11
-283.716003
 21
165.233994
  0
LINE
  8
0
  6
CONTINUOUS
 62
7
 10
-283.716003
 20
171.733994
 11
-283.716003
 21
173.233994
  0
LINE
  8
0
  6
CONTINUOUS
 62
7
 10
-283.716003
 20
174.992004
 11
-283.716003
 21
176.992004
  0
LINE
  8
0
  6
CONTINUOUS
 62
7
 10
-283.716003
 20
153.992004
 11
-285.545013
 21
154.306000
  0
LINE
  8
0
  6
CONTINUOUS
 62
7
 10
-283.716003
 20
174.992004
 11
-285.545013
 21
174.662994
  0
LINE
  8
0
  6
CONTINUOUS
 62
7
 10
-282.716003
 20
169.063004
 11
-282.716003
 21
167.906006
  0
LINE
  8
0
  6
CONTINUOUS
 62
7
 10
-148.216003
 20
136.992004
 11
-148.216003
 21
139.992004
  0
LINE
  8
0
  6
CONTINUOUS
 62
7
 10
-283.716003
 20
157.233994
 11
-285.601990
 21
157.563004
  0
LINE
  8
0
  6
CONTINUOUS
 62
7
 10
-286.015991
 20
158.063004
 11
-286.015991
 21
158.477005
  0
LINE
  8
0
  6
CONTINUOUS
 62
7
 10
-282.716003
 20
159.906006
 11
-282.716003
 21
161.063004
  0
LINE
  8
0
  6
CONTINUOUS
 62
7
 10
-291.216003
 20
191.992004
 11
-270.216003
 21
191.992004
  0
LINE
  8
0
  6
CONTINUOUS
 62
7
 10
-283.131012
 20
159.406006
 11
-285.601990
 21
158.977005
  0
LINE
  8
0
  6
CONTINUOUS
 62
7
 10
-283.131012
 20
161.563004
 11
-285.601990
 21
161.992004
  0
LINE
  8
0
  6
CONTINUOUS
 62
7
 10
-148.216003
 20
136.992004
 11
-127.216003
 21
136.992004
  0
LINE
  8
0
  6
CONTINUOUS
 62
7
 10
-281.716003
 20
152.492004
 11
-281.716003
 21
176.492004
  0
LINE
  8
0
  6
CONTINUOUS
 62
7
 10
-270.216003
 20
188.992004
 11
-270.216003
 21
191.992004
  0
LINE
  8
0
  6
CONTINUOUS
 62
7
 10
-286.216003
 20
142.492004
 11
-132.216003
 21
142.492004
  0
LINE
  8
0
  6
CONTINUOUS
 62
7
 10
-286.216003
 20
186.492004
 11
-132.216003
 21
186.492004
  0
LINE
  8
0
  6
CONTINUOUS
 62
7
 10
-286.216003
 20
188.992004
 11
-132.216003
 21
188.992004
  0
LINE
  8
0
  6
CONTINUOUS
 62
7
 10
-286.015991
 20
170.906006
 11
-286.015991
 21
170.492004
  0
LINE
  8
0
  6
CONTINUOUS
 62
7
 10
-285.109985
 20
171.492004
 11
-281.716003
 21
171.492004
  0
LINE
  8
0
  6
CONTINUOUS
 62
7
 10
-285.191986
 20
157.492004
 11
-281.716003
 21
157.492004
  0
LINE
  8
0
  6
CONTINUOUS
 62
7
 10
-281.158997
 20
152.492004
 11
-281.158997
 21
151.492004
  0
LINE
  8
0
  6
CONTINUOUS
 62
7
 10
-281.158997
 20
152.492004
 11
-281.716003
 21
152.492004
  0
LINE
  8
0
  6
CONTINUOUS
 62
7
 10
-281.158997
 20
177.492004
 11
-281.158997
 21
176.492004
  0
LINE
  8
0
  6
CONTINUOUS
 62
7
 10
-281.716003
 20
176.492004
 11
-281.158997
 21
176.492004
  0
LINE
  8
0
  6
CONTINUOUS
 62
7
 10
-187.216003
 20
152.492004
 11
-187.216003
 21
151.492004
  0
LINE
  8
0
  6
CONTINUOUS
 62
7
 10
-187.216003
 20
152.492004
 11
-186.716003
 21
152.492004
  0
LINE
  8
0
  6
CONTINUOUS
 62
7
 10
-186.716003
 20
176.492004
 11
-187.216003
 21
176.492004
  0
LINE
  8
0
  6
CONTINUOUS
 62
7
 10
-187.216003
 20
177.492004
 11
-187.216003
 21
176.492004
  0
LINE
  8
0
  6
CONTINUOUS
 62
7
 10
-291.716003
 20
166.992004
 11
-291.716003
 21
161.992004
  0
LINE
  8
0
  6
CONTINUOUS
 62
7
 10
-186.716003
 20
176.492004
 11
-186.716003
 21
152.492004
  0
LINE
  8
0
  6
CONTINUOUS
 62
7
 10
-291.216003
 20
147.876999
 11
-291.216003
 21
136.492004
  0
LINE
  8
0
  6
CONTINUOUS
 62
7
 10
-291.216003
 20
173.876999
 11
-291.216003
 21
155.091995
  0
LINE
  8
0
  6
CONTINUOUS
 62
7
 10
-310.216003
 20
161.992004
 11
-291.216003
 21
161.992004
  0
LINE
  8
0
  6
CONTINUOUS
 62
7
 10
-310.216003
 20
166.992004
 11
-291.216003
 21
166.992004
  0
LINE
  8
0
  6
CONTINUOUS
 62
7
 10
-148.216003
 20
188.992004
 11
-148.216003
 21
191.992004
  0
LINE
  8
0
  6
CONTINUOUS
 62
7
 10
-310.216003
 20
190.992004
 11
-310.216003
 21
137.992004
  0
LINE
  8
0
  6
CONTINUOUS
 62
7
 10
-291.216003
 20
192.492004
 11
-291.216003
 21
181.091995
  0
LINE
  8
0
  6
CONTINUOUS
 62
7
 10
-286.216003
 20
139.992004
 11
-132.216003
 21
139.992004
  0
LINE
  8
0
  6
CONTINUOUS
 62
7
 10
-270.216003
 20
136.992004
 11
-270.216003
 21
139.992004
  0
LINE
  8
0
  6
PHANTOM
 62
7
 10
-162.962997
 20
120.667999
 11
-162.962997
 21
210.889008
  0
LINE
  8
0
  6
PHANTOM
 62
3
 10
-213.244995
 20
83.898697
 11
-213.244995
 21
43.493801
  0
LINE
  8
0
  6
PHANTOM
 62
3
 10
-213.244995
 20
83.898697
 11
-162.962997
 21
83.898697
  0
LINE
  8
0
  6
CONTINUOUS
 62
7
 10
-224.216003
 20
74.391602
 11
-195.216003
 21
74.391602
  0
LINE
  8
0
  6
CONTINUOUS
 62
4
 10
-245.216003
 20
74.391602
 11
-224.216003
 21
74.391602
  0
LINE
  8
0
  6
CONTINUOUS
 62
7
 10
-224.216003
 20
77.591599
 11
-195.216003
 21
77.591599
  0
LINE
  8
0
  6
CONTINUOUS
 62
4
 10
-245.216003
 20
77.591599
 11
-224.216003
 21
77.591599
  0
LINE
  8
0
  6
CONTINUOUS
 62
7
 10
-174.216003
 20
74.391602
 11
-152.216003
 21
74.391602
  0
LINE
  8
0
  6
CONTINUOUS
 62
4
 10
-195.216003
 20
74.391602
 11
-174.216003
 21
74.391602
  0
LINE
  8
0
  6
CONTINUOUS
 62
7
 10
-174.216003
 20
77.591599
 11
-127.216003
 21
77.591599
  0
LINE
  8
0
  6
CONTINUOUS
 62
4
 10
-195.216003
 20
77.591599
 11
-174.216003
 21
77.591599
  0
LINE
  8
0
  6
CONTINUOUS
 62
1
 10
-251.388000
 20
77.181602
 11
-252.046005
 21
74.801598
  0
LINE
  8
0
  6
CONTINUOUS
 62
1
 10
-201.388000
 20
77.181602
 11
-202.046005
 21
74.801598
  0
LINE
  8
0
  6
CONTINUOUS
 62
7
 10
-266.216003
 20
74.391602
 11
-266.216003
 21
70.991600
  0
LINE
  8
0
  6
CONTINUOUS
 62
7
 10
-152.216003
 20
70.991600
 11
-127.216003
 21
70.991600
  0
LINE
  8
0
  6
CONTINUOUS
 62
7
 10
-152.216003
 20
71.377296
 11
-127.216003
 21
71.377296
  0
LINE
  8
0
  6
CONTINUOUS
 62
7
 10
-291.216003
 20
70.991600
 11
-266.216003
 21
70.991600
  0
LINE
  8
0
  6
CONTINUOUS
 62
7
 10
-152.216003
 20
74.391602
 11
-152.216003
 21
70.991600
  0
LINE
  8
0
  6
CONTINUOUS
 62
7
 10
-291.216003
 20
71.377296
 11
-266.216003
 21
71.377296
  0
LINE
  8
0
  6
CONTINUOUS
 62
7
 10
-270.216003
 20
84.491600
 11
-270.216003
 21
80.991600
  0
LINE
  8
0
  6
CONTINUOUS
 62
7
 10
-270.216003
 20
84.491600
 11
-284.216003
 21
84.491600
  0
LINE
  8
0
  6
CONTINUOUS
 62
7
 10
-270.216003
 20
80.991600
 11
-291.216003
 21
80.991600
  0
LINE
  8
0
  6
CONTINUOUS
 62
7
 10
-148.216003
 20
80.991600
 11
-127.216003
 21
80.991600
  0
LINE
  8
0
  6
CONTINUOUS
 62
7
 10
-148.216003
 20
84.491600
 11
-134.216003
 21
84.491600
  0
LINE
  8
0
  6
CONTINUOUS
 62
7
 10
-148.216003
 20
84.491600
 11
-148.216003
 21
80.991600
  0
LINE
  8
0
  6
CONTINUOUS
 62
7
 10
-291.216003
 20
78.291603
 11
-293.988007
 21
78.291603
  0
LINE
  8
0
  6
CENTER
 62
2
 10
-294.216003
 20
68.991600
 11
-310.216003
 21
68.991600
  0
LINE
  8
0
  6
CENTER
 62
2
 10
-302.216003
 20
76.991600
 11
-302.216003
 21
60.991600
  0
LINE
  8
0
  6
CONTINUOUS
 62
7
 10
-286.216003
 20
93.491600
 11
-286.216003
 21
86.491600
  0
LINE
  8
0
  6
CONTINUOUS
 62
7
 10
-132.216003
 20
93.491600
 11
-132.216003
 21
86.491600
  0
LINE
  8
0
  6
CONTINUOUS
 62
7
 10
-135.716003
 20
94.991600
 11
-135.716003
 21
90.491600
  0
LINE
  8
0
  6
CONTINUOUS
 62
7
 10
-282.716003
 20
90.491600
 11
-286.216003
 21
90.491600
  0
LINE
  8
0
  6
CONTINUOUS
 62
7
 10
-285.601990
 20
85.048698
 11
-132.845001
 21
85.048698
  0
LINE
  8
0
  6
CONTINUOUS
 62
7
 10
-270.216003
 20
82.748703
 11
-148.216003
 21
82.748703
  0
LINE
  8
0
  6
CONTINUOUS
 62
7
 10
-270.216003
 20
81.248703
 11
-148.216003
 21
81.248703
  0
LINE
  8
0
  6
CONTINUOUS
 62
7
 10
-291.216003
 20
80.734497
 11
-127.216003
 21
80.734497
  0
LINE
  8
0
  6
CONTINUOUS
 62
7
 10
-291.216003
 20
77.591599
 11
-245.216003
 21
77.591599
  0
LINE
  8
0
  6
CONTINUOUS
 62
7
 10
-266.216003
 20
74.391602
 11
-245.216003
 21
74.391602
  0
LINE
  8
0
  6
CONTINUOUS
 62
7
 10
-291.216003
 20
64.434502
 11
-127.216003
 21
64.434502
  0
LINE
  8
0
  6
CONTINUOUS
 62
7
 10
-291.216003
 20
68.848701
 11
-127.216003
 21
68.848701
  0
LINE
  8
0
  6
CONTINUOUS
 62
7
 10
-282.002014
 20
87.320198
 11
-186.416000
 21
87.320198
  0
LINE
  8
0
  6
CONTINUOUS
 62
7
 10
-280.915985
 20
87.620201
 11
-187.516006
 21
87.620201
  0
LINE
  8
0
  6
CONTINUOUS
 62
7
 10
-282.002014
 20
87.320198
 11
-281.287994
 21
87.520203
  0
LINE
  8
0
  6
CONTINUOUS
 62
7
 10
-280.915985
 20
90.191597
 11
-280.915985
 21
88.005898
  0
LINE
  8
0
  6
CONTINUOUS
 62
7
 10
-282.002014
 20
87.320198
 11
-282.316010
 21
86.491600
  0
LINE
  8
0
  6
CONTINUOUS
 62
7
 10
-186.416000
 20
87.320198
 11
-186.115997
 21
86.491600
  0
LINE
  8
0
  6
CONTINUOUS
 62
7
 10
-186.416000
 20
87.320198
 11
-187.130997
 21
87.520203
  0
LINE
  8
0
  6
CONTINUOUS
 62
7
 10
-187.516006
 20
90.191597
 11
-187.516006
 21
88.005898
  0
LINE
  8
0
  6
CONTINUOUS
 62
7
 10
-135.716003
 20
94.991600
 11
-109.716003
 21
94.991600
  0
LINE
  8
0
  6
CONTINUOUS
 62
7
 10
-135.716003
 20
90.491600
 11
-132.216003
 21
90.491600
  0
LINE
  8
0
  6
CONTINUOUS
 62
7
 10
-282.716003
 20
94.991600
 11
-282.716003
 21
90.491600
  0
LINE
  8
0
  6
CONTINUOUS
 62
7
 10
-134.716003
 20
94.991600
 11
-134.716003
 21
90.491600
  0
LINE
  8
0
  6
CONTINUOUS
 62
7
 10
-283.716003
 20
94.991600
 11
-283.716003
 21
90.491600
  0
LINE
  8
0
  6
CONTINUOUS
 62
7
 10
-127.216003
 20
78.291603
 11
-124.445000
 21
78.291603
  0
LINE
  8
0
  6
CENTER
 62
2
 10
-108.216003
 20
68.991600
 11
-124.216003
 21
68.991600
  0
LINE
  8
0
  6
CENTER
 62
2
 10
-116.216003
 20
76.991600
 11
-116.216003
 21
60.991600
  0
LINE
  8
0
  6
CONTINUOUS
 62
7
 10
-108.216003
 20
93.491600
 11
-108.216003
 21
59.991600
  0
LINE
  8
0
  6
CONTINUOUS
 62
7
 10
-127.216003
 20
69.991600
 11
-126.802002
 21
69.991600
  0
LINE
  8
0
  6
CONTINUOUS
 62
7
 10
-282.716003
 20
94.991600
 11
-308.716003
 21
94.991600
  0
LINE
  8
0
  6
CONTINUOUS
 62
7
 10
-310.216003
 20
93.491600
 11
-310.216003
 21
59.991600
  0
LINE
  8
0
  6
CONTINUOUS
 62
7
 10
-186.716003
 20
90.491600
 11
-281.716003
 21
90.491600
  0
LINE
  8
0
  6
CONTINUOUS
 62
7
 10
-291.216003
 20
94.991600
 11
-291.216003
 21
59.991600
  0
LINE
  8
0
  6
CONTINUOUS
 62
7
 10
-127.216003
 20
94.991600
 11
-127.216003
 21
59.991600
  0
LINE
  8
0
  6
CONTINUOUS
 62
7
 10
-286.216003
 20
86.491600
 11
-132.216003
 21
86.491600
  0
LINE
  8
0
  6
CONTINUOUS
 62
7
 10
-310.216003
 20
59.991600
 11
-108.216003
 21
59.991600
  0
LINE
  8
0
  6
CONTINUOUS
 62
7
 10
-281.716003
 20
96.991600
 11
-281.716003
 21
90.491600
  0
LINE
  8
0
  6
CONTINUOUS
 62
7
 10
-186.716003
 20
96.991600
 11
-186.716003
 21
90.491600
  0
LINE
  8
0
  6
CONTINUOUS
 62
7
 10
-281.716003
 20
96.991600
 11
-186.716003
 21
96.991600
  0
LINE
  8
0
  6
CONTINUOUS
 62
4
 10
-224.216003
 20
77.591599
 11
-224.216003
 21
74.391602
  0
LINE
  8
0
  6
CONTINUOUS
 62
4
 10
-230.216003
 20
77.591599
 11
-230.216003
 21
74.391602
  0
LINE
  8
0
  6
CONTINUOUS
 62
4
 10
-245.216003
 20
77.591599
 11
-245.216003
 21
74.391602
  0
LINE
  8
0
  6
CONTINUOUS
 62
4
 10
-246.716003
 20
77.181602
 11
-246.716003
 21
74.801598
  0
LINE
  8
0
  6
CONTINUOUS
 62
4
 10
-245.216003
 20
77.591599
 11
-246.716003
 21
77.181602
  0
LINE
  8
0
  6
CONTINUOUS
 62
4
 10
-245.216003
 20
74.391602
 11
-246.716003
 21
74.801598
  0
LINE
  8
0
  6
CONTINUOUS
 62
4
 10
-246.716003
 20
77.181602
 11
-251.388000
 21
77.181602
  0
LINE
  8
0
  6
CONTINUOUS
 62
4
 10
-246.716003
 20
74.801598
 11
-252.046005
 21
74.801598
  0
LINE
  8
0
  6
CONTINUOUS
 62
4
 10
-226.436005
 20
76.761597
 11
-227.985992
 21
75.221603
  0
LINE
  8
0
  6
CONTINUOUS
 62
4
 10
-226.436005
 20
75.221603
 11
-227.985992
 21
76.761597
  0
LINE
  8
0
  6
CONTINUOUS
 62
4
 10
-174.216003
 20
77.591599
 11
-174.216003
 21
74.391602
  0
LINE
  8
0
  6
CONTINUOUS
 62
4
 10
-180.216003
 20
77.591599
 11
-180.216003
 21
74.391602
  0
LINE
  8
0
  6
CONTINUOUS
 62
4
 10
-195.216003
 20
77.591599
 11
-195.216003
 21
74.391602
  0
LINE
  8
0
  6
CONTINUOUS
 62
4
 10
-196.716003
 20
77.181602
 11
-196.716003
 21
74.801598
  0
LINE
  8
0
  6
CONTINUOUS
 62
4
 10
-195.216003
 20
77.591599
 11
-196.716003
 21
77.181602
  0
LINE
  8
0
  6
CONTINUOUS
 62
4
 10
-195.216003
 20
74.391602
 11
-196.716003
 21
74.801598
  0
LINE
  8
0
  6
CONTINUOUS
 62
4
 10
-196.716003
 20
77.181602
 11
-201.388000
 21
77.181602
  0
LINE
  8
0
  6
CONTINUOUS
 62
4
 10
-196.716003
 20
74.801598
 11
-202.046005
 21
74.801598
  0
LINE
  8
0
  6
CONTINUOUS
 62
4
 10
-176.436005
 20
76.761597
 11
-177.985992
 21
75.221603
  0
LINE
  8
0
  6
CONTINUOUS
 62
4
 10
-176.436005
 20
75.221603
 11
-177.985992
 21
76.761597
  0
LINE
  8
0
  6
PHANTOM
 62
3
 10
-162.962997
 20
83.898697
 11
-162.962997
 21
120.667999
  0
LINE
  8
0
  6
CONTINUOUS
 62
7
 10
25.283600
 20
66.734497
 11
26.783600
 21
65.863098
  0
LINE
  8
0
  6
CONTINUOUS
 62
7
 10
23.783600
 20
64.134499
 11
25.283600
 21
63.263000
  0
LINE
  8
0
  6
CONTINUOUS
 62
7
 10
23.783600
 20
65.862999
 11
23.783600
 21
64.134499
  0
LINE
  8
0
  6
CONTINUOUS
 62
7
 10
23.783600
 20
65.862999
 11
25.283600
 21
66.734497
  0
LINE
  8
0
  6
CONTINUOUS
 62
7
 10
25.283600
 20
63.263000
 11
26.783600
 21
64.134499
  0
LINE
  8
0
  6
CONTINUOUS
 62
7
 10
26.783600
 20
65.862999
 11
26.783600
 21
64.134499
  0
LINE
  8
0
  6
CONTINUOUS
 62
7
 10
26.783600
 20
82.862999
 11
26.783600
 21
81.134499
  0
LINE
  8
0
  6
CONTINUOUS
 62
7
 10
23.783600
 20
82.862999
 11
23.783600
 21
81.134499
  0
LINE
  8
0
  6
CONTINUOUS
 62
7
 10
23.783600
 20
81.134499
 11
25.283600
 21
80.263000
  0
LINE
  8
0
  6
CONTINUOUS
 62
7
 10
25.283600
 20
83.734497
 11
26.783600
 21
82.862999
  0
LINE
  8
0
  6
CONTINUOUS
 62
7
 10
23.783600
 20
82.862999
 11
25.283600
 21
83.734497
  0
LINE
  8
0
  6
CONTINUOUS
 62
7
 10
25.283600
 20
80.263000
 11
26.783600
 21
81.134499
  0
LINE
  8
0
  6
CONTINUOUS
 62
7
 10
-17.716400
 20
80.263000
 11
-16.216400
 21
81.134499
  0
LINE
  8
0
  6
CONTINUOUS
 62
7
 10
-19.216400
 20
82.862999
 11
-17.716400
 21
83.734497
  0
LINE
  8
0
  6
CONTINUOUS
 62
7
 10
-17.716400
 20
83.734497
 11
-16.216400
 21
82.862999
  0
LINE
  8
0
  6
CONTINUOUS
 62
7
 10
-19.216400
 20
81.134499
 11
-17.716400
 21
80.263000
  0
LINE
  8
0
  6
CONTINUOUS
 62
7
 10
-19.216400
 20
82.862999
 11
-19.216400
 21
81.134499
  0
LINE
  8
0
  6
CONTINUOUS
 62
7
 10
-16.216400
 20
82.862999
 11
-16.216400
 21
81.134499
  0
LINE
  8
0
  6
CONTINUOUS
 62
7
 10
23.783600
 20
96.991600
 11
23.783600
 21
94.305901
  0
LINE
  8
0
  6
CONTINUOUS
 62
7
 10
-16.216400
 20
96.991600
 11
-16.216400
 21
94.305901
  0
LINE
  8
0
  6
CENTER
 62
2
 10
3.783580
 20
101.031998
 11
3.783580
 21
54.991600
  0
LINE
  8
0
  6
CONTINUOUS
 62
7
 10
-3.716420
 20
89.591599
 11
-3.716420
 21
78.391602
  0
LINE
  8
0
  6
CONTINUOUS
 62
7
 10
-24.216400
 20
59.991600
 11
-24.216400
 21
82.991600
  0
LINE
  8
0
  6
CONTINUOUS
 62
7
 10
31.783600
 20
59.991600
 11
5.283580
 21
59.991600
  0
LINE
  8
0
  6
CONTINUOUS
 62
7
 10
1.283580
 20
89.991600
 11
-3.316420
 21
89.991600
  0
LINE
  8
0
  6
CONTINUOUS
 62
7
 10
19.783600
 20
94.991600
 11
-12.216400
 21
94.991600
  0
LINE
  8
0
  6
CONTINUOUS
 62
7
 10
26.583599
 20
76.291603
 11
26.583599
 21
71.991600
  0
LINE
  8
0
  6
CONTINUOUS
 62
7
 10
31.783600
 20
82.991600
 11
31.783600
 21
77.891602
  0
LINE
  8
0
  6
CONTINUOUS
 62
7
 10
31.783600
 20
69.991600
 11
28.583599
 21
69.991600
  0
LINE
  8
0
  6
CONTINUOUS
 62
7
 10
31.783600
 20
78.291603
 11
28.583599
 21
78.291603
  0
LINE
  8
0
  6
CONTINUOUS
 62
7
 10
22.783600
 20
59.991600
 11
22.783600
 21
60.662998
  0
LINE
  8
0
  6
CONTINUOUS
 62
7
 10
6.283580
 20
94.991600
 11
6.283580
 21
89.991600
  0
LINE
  8
0
  6
CONTINUOUS
 62
7
 10
1.283580
 20
94.991600
 11
1.283580
 21
89.991600
  0
LINE
  8
0
  6
CONTINUOUS
 62
7
 10
27.783600
 20
59.991600
 11
27.783600
 21
60.662998
  0
LINE
  8
0
  6
CONTINUOUS
 62
7
 10
2.283580
 20
60.991600
 11
2.283580
 21
59.991600
  0
LINE
  8
0
  6
CONTINUOUS
 62
7
 10
31.783600
 20
74.091599
 11
31.783600
 21
59.991600
  0
LINE
  8
0
  6
CONTINUOUS
 62
7
 10
10.883600
 20
77.991600
 11
-3.316420
 21
77.991600
  0
LINE
  8
0
  6
CONTINUOUS
 62
7
 10
10.883600
 20
89.991600
 11
6.283580
 21
89.991600
  0
LINE
  8
0
  6
CONTINUOUS
 62
7
 10
11.283600
 20
89.591599
 11
11.283600
 21
78.391602
  0
LINE
  8
0
  6
CENTER
 62
2
 10
17.783600
 20
81.991600
 11
32.783600
 21
81.991600
  0
LINE
  8
0
  6
CENTER
 62
2
 10
25.283600
 20
89.491600
 11
25.283600
 21
57.491600
  0
LINE
  8
0
  6
CENTER
 62
2
 10
-25.216400
 20
81.991600
 11
-10.216400
 21
81.991600
  0
LINE
  8
0
  6
CENTER
 62
2
 10
-17.716400
 20
89.491600
 11
-17.716400
 21
75.577301
  0
LINE
  8
0
  6
CENTER
 62
2
 10
17.783600
 20
64.991600
 11
32.783600
 21
64.991600
  0
LINE
  8
0
  6
CONTINUOUS
 62
7
 10
23.783600
 20
96.991600
 11
-16.216400
 21
96.991600
  0
LINE
  8
0
  6
CONTINUOUS
 62
7
 10
30.783600
 20
72.391602
 11
30.783600
 21
73.891602
  0
LINE
  8
0
  6
CONTINUOUS
 62
7
 10
27.983601
 20
72.391602
 11
27.983601
 21
74.277298
  0
LINE
  8
0
  6
CONTINUOUS
 62
7
 10
31.283600
 20
77.591599
 11
30.783600
 21
78.091599
  0
LINE
  8
0
  6
CONTINUOUS
 62
7
 10
31.483601
 20
74.391602
 11
31.283600
 21
74.391602
  0
LINE
  8
0
  6
CONTINUOUS
 62
7
 10
31.283600
 20
74.391602
 11
30.783600
 21
73.891602
  0
LINE
  8
0
  6
CONTINUOUS
 62
7
 10
31.483601
 20
77.591599
 11
31.283600
 21
77.591599
  0
LINE
  8
0
  6
CONTINUOUS
 62
7
 10
30.783600
 20
78.091599
 11
29.183599
 21
78.091599
  0
LINE
  8
0
  6
CONTINUOUS
 62
7
 10
5.283580
 20
60.991600
 11
5.283580
 21
59.991600
  0
LINE
  8
0
  6
CONTINUOUS
 62
7
 10
2.283580
 20
59.991600
 11
-24.216400
 21
59.991600
  0
LINE
  8
0
  6
CONTINUOUS
 62
7
 10
2.283580
 20
60.991600
 11
5.283580
 21
60.991600
  0
LINE
  8
0
  6
CONTINUOUS
 62
7
 10
-281.716003
 20
-58.193600
 11
-281.716003
 21
-82.193604
  0
LINE
  8
0
  6
CONTINUOUS
 62
7
 10
-270.216003
 20
-97.693604
 11
-285.216003
 21
-97.693604
  0
LINE
  8
0
  6
CONTINUOUS
 62
7
 10
-270.216003
 20
-97.693604
 11
-270.216003
 21
-94.693604
  0
LINE
  8
0
  6
CONTINUOUS
 62
4
 10
-281.716003
 20
-76.450798
 11
-285.216003
 21
-76.450798
  0
LINE
  8
0
  6
CONTINUOUS
 62
4
 10
-281.716003
 20
-63.950802
 11
-285.216003
 21
-63.950802
  0
LINE
  8
0
  6
CONTINUOUS
 62
7
 10
-283.716003
 20
-80.693604
 11
-285.216003
 21
-80.436501
  0
LINE
  8
0
  6
CONTINUOUS
 62
7
 10
-283.716003
 20
-80.693604
 11
-283.716003
 21
-82.693604
  0
LINE
  8
0
  6
CONTINUOUS
 62
7
 10
-283.716003
 20
-77.450798
 11
-283.716003
 21
-78.950798
  0
LINE
  8
0
  6
CONTINUOUS
 62
7
 10
-283.716003
 20
-77.450798
 11
-285.216003
 21
-77.179398
  0
LINE
  8
0
  6
CONTINUOUS
 62
7
 10
-283.716003
 20
-78.950798
 11
-285.216003
 21
-79.207901
  0
LINE
  8
0
  6
CONTINUOUS
 62
7
 10
-283.716003
 20
-82.693604
 11
-285.216003
 21
-82.693604
  0
LINE
  8
0
  6
CONTINUOUS
 62
7
 10
-283.716003
 20
-59.693600
 11
-285.216003
 21
-59.965099
  0
LINE
  8
0
  6
CONTINUOUS
 62
7
 10
-283.716003
 20
-61.450802
 11
-283.716003
 21
-62.950802
  0
LINE
  8
0
  6
CONTINUOUS
 62
7
 10
-283.716003
 20
-61.450802
 11
-285.216003
 21
-61.179401
  0
LINE
  8
0
  6
CONTINUOUS
 62
7
 10
-283.716003
 20
-57.693600
 11
-285.216003
 21
-57.693600
  0
LINE
  8
0
  6
CONTINUOUS
 62
7
 10
-283.716003
 20
-57.693600
 11
-283.716003
 21
-59.693600
  0
LINE
  8
0
  6
CONTINUOUS
 62
7
 10
-283.716003
 20
-62.950802
 11
-285.216003
 21
-63.207901
  0
LINE
  8
0
  6
DASHED
 62
1
 10
-286.216003
 20
-63.193600
 11
-286.216003
 21
-77.193604
  0
LINE
  8
0
  6
PHANTOM
 62
1
 10
-269.716003
 20
-68.450798
 11
-269.716003
 21
-71.950798
  0
LINE
  8
0
  6
PHANTOM
 62
1
 10
-269.716003
 20
-71.950798
 11
-281.716003
 21
-71.950798
  0
LINE
  8
0
  6
PHANTOM
 62
1
 10
-269.716003
 20
-68.450798
 11
-281.716003
 21
-68.450798
  0
LINE
  8
0
  6
CONTINUOUS
 62
4
 10
-256.216003
 20
-99.193604
 11
-285.216003
 21
-99.193604
  0
LINE
  8
0
  6
CENTER
 62
1
 10
-254.167007
 20
-105.194000
 11
-281.390991
 21
-105.194000
  0
LINE
  8
0
  6
CONTINUOUS
 62
4
 10
-256.216003
 20
-99.193604
 11
-256.216003
 21
-111.194000
  0
LINE
  8
0
  6
CENTER
 62
1
 10
-262.216003
 20
-96.490997
 11
-262.216003
 21
-113.598000
  0
LINE
  8
0
  6
CENTER
 62
1
 10
-274.216003
 20
-96.490997
 11
-274.216003
 21
-113.598000
  0
LINE
  8
0
  6
CONTINUOUS
 62
4
 10
-310.216003
 20
-70.193604
 11
-316.216003
 21
-70.193604
  0
LINE
  8
0
  6
CONTINUOUS
 62
4
 10
-310.216003
 20
-78.693604
 11
-316.216003
 21
-78.693604
  0
LINE
  8
0
  6
CONTINUOUS
 62
4
 10
-310.216003
 20
-61.693600
 11
-316.216003
 21
-61.693600
  0
LINE
  8
0
  6
CONTINUOUS
 62
4
 10
-316.216003
 20
-61.693600
 11
-316.216003
 21
-78.693604
  0
LINE
  8
0
  6
CONTINUOUS
 62
4
 10
-341.716003
 20
-77.193604
 11
-316.216003
 21
-77.193604
  0
LINE
  8
0
  6
CONTINUOUS
 62
1
 10
-341.716003
 20
-76.450798
 11
-316.216003
 21
-76.450798
  0
LINE
  8
0
  6
CONTINUOUS
 62
4
 10
-341.716003
 20
-63.193600
 11
-316.216003
 21
-63.193600
  0
LINE
  8
0
  6
CONTINUOUS
 62
1
 10
-341.716003
 20
-63.950802
 11
-316.216003
 21
-63.950802
  0
LINE
  8
0
  6
CONTINUOUS
 62
4
 10
-341.716003
 20
-63.193600
 11
-341.716003
 21
-77.193604
  0
LINE
  8
0
  6
DASHED
 62
1
 10
-285.216003
 20
-63.193600
 11
-310.216003
 21
-63.193600
  0
LINE
  8
0
  6
DASHED
 62
1
 10
-285.216003
 20
-63.950802
 11
-310.216003
 21
-63.950802
  0
LINE
  8
0
  6
DASHED
 62
1
 10
-285.216003
 20
-77.193604
 11
-310.216003
 21
-77.193604
  0
LINE
  8
0
  6
DASHED
 62
1
 10
-285.216003
 20
-76.450798
 11
-310.216003
 21
-76.450798
  0
LINE
  8
0
  6
CONTINUOUS
 62
4
 10
-286.216003
 20
-88.636497
 11
-309.216003
 21
-88.636497
  0
LINE
  8
0
  6
CONTINUOUS
 62
4
 10
-256.216003
 20
-111.194000
 11
-310.216003
 21
-111.194000
  0
LINE
  8
0
  6
CONTINUOUS
 62
4
 10
-286.216003
 20
-51.765099
 11
-309.216003
 21
-51.765099
  0
LINE
  8
0
  6
CENTER
 62
1
 10
-262.216003
 20
-43.515400
 11
-262.216003
 21
-27.328400
  0
LINE
  8
0
  6
CONTINUOUS
 62
4
 10
-256.216003
 20
-41.193600
 11
-256.216003
 21
-29.193600
  0
LINE
  8
0
  6
CENTER
 62
1
 10
-274.216003
 20
-43.515400
 11
-274.216003
 21
-27.328400
  0
LINE
  8
0
  6
CONTINUOUS
 62
7
 10
-285.216003
 20
-42.693600
 11
-270.216003
 21
-42.693600
  0
LINE
  8
0
  6
CENTER
 62
1
 10
-254.167007
 20
-35.193600
 11
-281.390991
 21
-35.193600
  0
LINE
  8
0
  6
CONTINUOUS
 62
4
 10
-256.216003
 20
-29.193600
 11
-310.216003
 21
-29.193600
  0
LINE
  8
0
  6
CONTINUOUS
 62
4
 10
-256.216003
 20
-41.193600
 11
-285.216003
 21
-41.193600
  0
LINE
  8
0
  6
CONTINUOUS
 62
7
 10
-270.216003
 20
-45.693600
 11
-270.216003
 21
-42.693600
  0
LINE
  8
0
  6
CONTINUOUS
 62
4
 10
-310.216003
 20
-111.194000
 11
-310.216003
 21
-29.193600
  0
LINE
  8
0
  6
CONTINUOUS
 62
4
 10
-285.216003
 20
-111.194000
 11
-285.216003
 21
-29.193600
  0
LINE
  8
0
  6
CONTINUOUS
 62
4
 10
-191.716003
 20
-76.693604
 11
-186.716003
 21
-76.693604
  0
LINE
  8
0
  6
CONTINUOUS
 62
4
 10
-191.716003
 20
-70.193604
 11
-186.716003
 21
-70.193604
  0
LINE
  8
0
  6
CONTINUOUS
 62
4
 10
-191.716003
 20
-63.693600
 11
-186.716003
 21
-63.693600
  0
LINE
  8
0
  6
CONTINUOUS
 62
4
 10
-266.216003
 20
-58.350800
 11
-266.216003
 21
-56.050800
  0
LINE
  8
0
  6
CONTINUOUS
 62
4
 10
-264.216003
 20
-59.507900
 11
-266.216003
 21
-58.350800
  0
LINE
  8
0
  6
CONTINUOUS
 62
4
 10
-136.716003
 20
-63.950802
 11
-136.716003
 21
-76.450798
  0
LINE
  8
0
  6
CONTINUOUS
 62
4
 10
-191.716003
 20
-50.193600
 11
-276.716003
 21
-50.193600
  0
LINE
  8
0
  6
CENTER
 62
1
 10
-254.216003
 20
-52.193600
 11
-254.216003
 21
-62.193600
  0
LINE
  8
0
  6
CONTINUOUS
 62
4
 10
-191.716003
 20
-90.193604
 11
-276.716003
 21
-90.193604
  0
LINE
  8
0
  6
CENTER
 62
1
 10
-71.368202
 20
-70.193604
 11
-349.545990
 21
-70.193604
  0
LINE
  8
0
  6
CONTINUOUS
 62
7
 10
-148.216003
 20
-45.693600
 11
-148.216003
 21
-42.693600
  0
LINE
  8
0
  6
CONTINUOUS
 62
7
 10
-148.216003
 20
-97.693604
 11
-148.216003
 21
-94.693604
  0
LINE
  8
0
  6
CONTINUOUS
 62
7
 10
-134.716003
 20
-57.693600
 11
-134.716003
 21
-59.693600
  0
LINE
  8
0
  6
CONTINUOUS
 62
7
 10
-134.716003
 20
-57.693600
 11
-133.216003
 21
-57.693600
  0
LINE
  8
0
  6
CONTINUOUS
 62
7
 10
-134.716003
 20
-82.693604
 11
-133.216003
 21
-82.693604
  0
LINE
  8
0
  6
CONTINUOUS
 62
7
 10
-134.716003
 20
-61.450802
 11
-133.216003
 21
-61.179401
  0
LINE
  8
0
  6
CONTINUOUS
 62
7
 10
-134.716003
 20
-78.950798
 11
-133.216003
 21
-79.207901
  0
LINE
  8
0
  6
CONTINUOUS
 62
7
 10
-134.716003
 20
-77.450798
 11
-133.216003
 21
-77.179398
  0
LINE
  8
0
  6
CONTINUOUS
 62
7
 10
-134.716003
 20
-61.450802
 11
-134.716003
 21
-62.950802
  0
LINE
  8
0
  6
CONTINUOUS
 62
7
 10
-134.716003
 20
-77.450798
 11
-134.716003
 21
-78.950798
  0
LINE
  8
0
  6
CONTINUOUS
 62
7
 10
-134.716003
 20
-80.693604
 11
-134.716003
 21
-82.693604
  0
LINE
  8
0
  6
CONTINUOUS
 62
7
 10
-134.716003
 20
-59.693600
 11
-133.216003
 21
-59.965099
  0
LINE
  8
0
  6
CONTINUOUS
 62
7
 10
-134.716003
 20
-80.693703
 11
-133.216003
 21
-80.436501
  0
LINE
  8
0
  6
CONTINUOUS
 62
7
 10
-134.716003
 20
-62.950802
 11
-133.216003
 21
-63.207901
  0
LINE
  8
0
  6
CONTINUOUS
 62
4
 10
-162.216003
 20
-41.193600
 11
-133.216003
 21
-41.193600
  0
LINE
  8
0
  6
CONTINUOUS
 62
4
 10
-108.216003
 20
-111.194000
 11
-108.216003
 21
-29.193600
  0
LINE
  8
0
  6
CONTINUOUS
 62
4
 10
-162.216003
 20
-29.193600
 11
-108.216003
 21
-29.193600
  0
LINE
  8
0
  6
CONTINUOUS
 62
4
 10
-133.216003
 20
-111.194000
 11
-133.216003
 21
-29.193600
  0
LINE
  8
0
  6
CENTER
 62
1
 10
-164.266006
 20
-35.193600
 11
-137.042007
 21
-35.193600
  0
LINE
  8
0
  6
CONTINUOUS
 62
4
 10
-148.716003
 20
-71.950798
 11
-136.716003
 21
-71.950798
  0
LINE
  8
0
  6
CONTINUOUS
 62
4
 10
-148.716003
 20
-68.450798
 11
-148.716003
 21
-71.950798
  0
LINE
  8
0
  6
CONTINUOUS
 62
7
 10
-133.216003
 20
-42.693600
 11
-148.216003
 21
-42.693600
  0
LINE
  8
0
  6
CONTINUOUS
 62
4
 10
-148.716003
 20
-68.450798
 11
-136.716003
 21
-68.450798
  0
LINE
  8
0
  6
CONTINUOUS
 62
4
 10
-136.716003
 20
-63.950802
 11
-133.216003
 21
-63.950802
  0
LINE
  8
0
  6
CONTINUOUS
 62
4
 10
-76.716301
 20
-63.193600
 11
-76.716301
 21
-77.193604
  0
LINE
  8
0
  6
DASHED
 62
1
 10
-133.216003
 20
-63.193600
 11
-108.216003
 21
-63.193600
  0
LINE
  8
0
  6
DASHED
 62
1
 10
-132.216003
 20
-63.193600
 11
-132.216003
 21
-77.193604
  0
LINE
  8
0
  6
DASHED
 62
1
 10
-133.216003
 20
-63.950802
 11
-108.216003
 21
-63.950802
  0
LINE
  8
0
  6
CONTINUOUS
 62
1
 10
-76.716301
 20
-63.950802
 11
-102.216003
 21
-63.950802
  0
LINE
  8
0
  6
CONTINUOUS
 62
4
 10
-76.716301
 20
-63.193600
 11
-102.216003
 21
-63.193600
  0
LINE
  8
0
  6
CONTINUOUS
 62
4
 10
-136.716003
 20
-76.450798
 11
-133.216003
 21
-76.450798
  0
LINE
  8
0
  6
DASHED
 62
1
 10
-133.216003
 20
-77.193604
 11
-108.216003
 21
-77.193604
  0
LINE
  8
0
  6
DASHED
 62
1
 10
-133.216003
 20
-76.450798
 11
-108.216003
 21
-76.450798
  0
LINE
  8
0
  6
CONTINUOUS
 62
1
 10
-76.716301
 20
-76.450798
 11
-102.216003
 21
-76.450798
  0
LINE
  8
0
  6
CONTINUOUS
 62
4
 10
-76.716301
 20
-77.193604
 11
-102.216003
 21
-77.193604
  0
LINE
  8
0
  6
CONTINUOUS
 62
4
 10
-132.216003
 20
-88.636497
 11
-109.216003
 21
-88.636497
  0
LINE
  8
0
  6
CONTINUOUS
 62
4
 10
-162.216003
 20
-111.194000
 11
-108.216003
 21
-111.194000
  0
LINE
  8
0
  6
CONTINUOUS
 62
4
 10
-162.216003
 20
-99.193604
 11
-133.216003
 21
-99.193604
  0
LINE
  8
0
  6
CONTINUOUS
 62
4
 10
-102.216003
 20
-61.693600
 11
-102.216003
 21
-78.693604
  0
LINE
  8
0
  6
CENTER
 62
1
 10
-144.216003
 20
-43.515400
 11
-144.216003
 21
-27.328400
  0
LINE
  8
0
  6
CONTINUOUS
 62
4
 10
-162.216003
 20
-41.193600
 11
-162.216003
 21
-29.193600
  0
LINE
  8
0
  6
CENTER
 62
1
 10
-156.216003
 20
-43.515400
 11
-156.216003
 21
-27.328400
  0
LINE
  8
0
  6
CENTER
 62
1
 10
-164.266006
 20
-105.194000
 11
-137.042007
 21
-105.194000
  0
LINE
  8
0
  6
CONTINUOUS
 62
4
 10
-162.216003
 20
-99.193604
 11
-162.216003
 21
-111.194000
  0
LINE
  8
0
  6
CENTER
 62
1
 10
-156.216003
 20
-96.490997
 11
-156.216003
 21
-113.598000
  0
LINE
  8
0
  6
CENTER
 62
1
 10
-144.216003
 20
-96.490997
 11
-144.216003
 21
-113.598000
  0
LINE
  8
0
  6
CENTER
 62
1
 10
-254.216003
 20
-88.193604
 11
-254.216003
 21
-78.193604
  0
LINE
  8
0
  6
CONTINUOUS
 62
4
 10
-266.216003
 20
-56.050800
 11
-264.216003
 21
-54.893700
  0
LINE
  8
0
  6
CONTINUOUS
 62
4
 10
-262.216003
 20
-58.350800
 11
-262.216003
 21
-56.050800
  0
LINE
  8
0
  6
CONTINUOUS
 62
4
 10
-264.216003
 20
-54.893600
 11
-262.216003
 21
-56.050800
  0
LINE
  8
0
  6
CONTINUOUS
 62
4
 10
-264.216003
 20
-80.893700
 11
-266.216003
 21
-82.050797
  0
LINE
  8
0
  6
CONTINUOUS
 62
4
 10
-266.216003
 20
-82.050797
 11
-266.216003
 21
-84.350800
  0
LINE
  8
0
  6
CONTINUOUS
 62
4
 10
-266.216003
 20
-84.350800
 11
-264.216003
 21
-85.507896
  0
LINE
  8
0
  6
CONTINUOUS
 62
4
 10
-264.216003
 20
-85.507896
 11
-262.216003
 21
-84.350800
  0
LINE
  8
0
  6
CONTINUOUS
 62
4
 10
-262.216003
 20
-82.050797
 11
-262.216003
 21
-84.350800
  0
LINE
  8
0
  6
CONTINUOUS
 62
4
 10
-264.216003
 20
-80.893700
 11
-262.216003
 21
-82.050797
  0
LINE
  8
0
  6
CONTINUOUS
 62
4
 10
-264.216003
 20
-59.507900
 11
-262.216003
 21
-58.350800
  0
LINE
  8
0
  6
CONTINUOUS
 62
4
 10
-202.216003
 20
-58.350800
 11
-202.216003
 21
-56.050800
  0
LINE
  8
0
  6
CONTINUOUS
 62
4
 10
-204.216003
 20
-59.507900
 11
-202.216003
 21
-58.350800
  0
LINE
  8
0
  6
CENTER
 62
1
 10
-214.216003
 20
-52.193600
 11
-214.216003
 21
-62.193600
  0
LINE
  8
0
  6
CENTER
 62
1
 10
-204.216003
 20
-90.193604
 11
-204.216003
 21
-76.073402
  0
LINE
  8
0
  6
CENTER
 62
1
 10
-204.216003
 20
-50.193600
 11
-204.216003
 21
-64.950798
  0
LINE
  8
0
  6
CENTER
 62
1
 10
-214.216003
 20
-88.193604
 11
-214.216003
 21
-78.193604
  0
LINE
  8
0
  6
CONTINUOUS
 62
4
 10
-202.216003
 20
-56.050800
 11
-204.216003
 21
-54.893600
  0
LINE
  8
0
  6
CONTINUOUS
 62
4
 10
-206.216003
 20
-58.350800
 11
-206.216003
 21
-56.050800
  0
LINE
  8
0
  6
CONTINUOUS
 62
4
 10
-204.216003
 20
-54.893600
 11
-206.216003
 21
-56.050800
  0
LINE
  8
0
  6
CONTINUOUS
 62
4
 10
-204.216003
 20
-80.893600
 11
-202.216003
 21
-82.050797
  0
LINE
  8
0
  6
CONTINUOUS
 62
4
 10
-202.216003
 20
-82.050797
 11
-202.216003
 21
-84.350800
  0
LINE
  8
0
  6
CONTINUOUS
 62
4
 10
-202.216003
 20
-84.350800
 11
-204.216003
 21
-85.508003
  0
LINE
  8
0
  6
CONTINUOUS
 62
4
 10
-204.216003
 20
-85.507896
 11
-206.216003
 21
-84.350800
  0
LINE
  8
0
  6
CONTINUOUS
 62
4
 10
-206.216003
 20
-82.050797
 11
-206.216003
 21
-84.350800
  0
LINE
  8
0
  6
CONTINUOUS
 62
4
 10
-204.216003
 20
-80.893600
 11
-206.216003
 21
-82.050797
  0
LINE
  8
0
  6
CONTINUOUS
 62
4
 10
-204.216003
 20
-59.507900
 11
-206.216003
 21
-58.350800
  0
LINE
  8
0
  6
CONTINUOUS
 62
4
 10
-276.716003
 20
-50.193600
 11
-276.716003
 21
-90.193604
  0
LINE
  8
0
  6
CONTINUOUS
 62
4
 10
-108.216003
 20
-61.693600
 11
-102.216003
 21
-61.693600
  0
LINE
  8
0
  6
CONTINUOUS
 62
4
 10
-108.216003
 20
-78.693604
 11
-102.216003
 21
-78.693604
  0
LINE
  8
0
  6
CONTINUOUS
 62
4
 10
-108.216003
 20
-70.193604
 11
-102.216003
 21
-70.193604
  0
LINE
  8
0
  6
CONTINUOUS
 62
4
 10
-276.716003
 20
-63.693600
 11
-281.716003
 21
-63.693600
  0
LINE
  8
0
  6
CONTINUOUS
 62
4
 10
-191.716003
 20
-50.193600
 11
-191.716003
 21
-90.193604
  0
LINE
  8
0
  6
CONTINUOUS
 62
4
 10
-276.716003
 20
-70.193604
 11
-281.716003
 21
-70.193604
  0
LINE
  8
0
  6
CONTINUOUS
 62
4
 10
-276.716003
 20
-76.693604
 11
-281.716003
 21
-76.693604
  0
LINE
  8
0
  6
CONTINUOUS
 62
4
 10
-132.216003
 20
-51.765099
 11
-109.216003
 21
-51.765099
  0
LINE
  8
0
  6
CENTER
 62
1
 10
-264.216003
 20
-90.193604
 11
-264.216003
 21
-76.073402
  0
LINE
  8
0
  6
CONTINUOUS
 62
7
 10
-281.216003
 20
-57.193600
 11
-281.216003
 21
-58.193600
  0
LINE
  8
0
  6
CONTINUOUS
 62
7
 10
-281.716003
 20
-58.193600
 11
-281.216003
 21
-58.193600
  0
LINE
  8
0
  6
CONTINUOUS
 62
7
 10
-281.216003
 20
-82.193604
 11
-281.716003
 21
-82.193604
  0
LINE
  8
0
  6
CONTINUOUS
 62
7
 10
-281.216003
 20
-82.193604
 11
-281.216003
 21
-83.193604
  0
LINE
  8
0
  6
CONTINUOUS
 62
7
 10
-186.716003
 20
-58.193600
 11
-187.272995
 21
-58.193600
  0
LINE
  8
0
  6
CONTINUOUS
 62
7
 10
-187.272995
 20
-57.193600
 11
-187.272995
 21
-58.193600
  0
LINE
  8
0
  6
CONTINUOUS
 62
7
 10
-187.272995
 20
-82.193604
 11
-186.716003
 21
-82.193604
  0
LINE
  8
0
  6
CONTINUOUS
 62
7
 10
-187.272995
 20
-82.193604
 11
-187.272995
 21
-83.193604
  0
LINE
  8
0
  6
CONTINUOUS
 62
7
 10
-133.216003
 20
-77.193604
 11
-186.716003
 21
-77.193604
  0
LINE
  8
0
  6
CENTER
 62
1
 10
-264.216003
 20
-50.193600
 11
-264.216003
 21
-63.933102
  0
LINE
  8
0
  6
CONTINUOUS
 62
7
 10
-133.300003
 20
-63.193600
 11
-186.716003
 21
-63.193600
  0
LINE
  8
0
  6
CONTINUOUS
 62
7
 10
-133.216003
 20
-42.193600
 11
-285.216003
 21
-42.193600
  0
LINE
  8
0
  6
CONTINUOUS
 62
7
 10
-133.216003
 20
-45.693600
 11
-285.216003
 21
-45.693600
  0
LINE
  8
0
  6
CONTINUOUS
 62
7
 10
-133.216003
 20
-48.193600
 11
-285.216003
 21
-48.193600
  0
LINE
  8
0
  6
CONTINUOUS
 62
7
 10
-133.216003
 20
-92.193604
 11
-285.216003
 21
-92.193604
  0
LINE
  8
0
  6
CONTINUOUS
 62
7
 10
-133.216003
 20
-94.693604
 11
-285.216003
 21
-94.693604
  0
LINE
  8
0
  6
CONTINUOUS
 62
7
 10
-133.216003
 20
-98.193604
 11
-285.216003
 21
-98.193604
  0
LINE
  8
0
  6
CONTINUOUS
 62
7
 10
-186.716003
 20
-82.193604
 11
-186.716003
 21
-58.193600
  0
LINE
  8
0
  6
CONTINUOUS
 62
7
 10
-148.216003
 20
-97.693604
 11
-133.216003
 21
-97.693604
  0
LINE
  8
0
  6
CENTER
 62
1
 10
-249.216003
 20
-57.193600
 11
-271.972992
 21
-57.193600
  0
LINE
  8
0
  6
CENTER
 62
1
 10
-219.216003
 20
-83.193604
 11
-196.473007
 21
-83.193604
  0
LINE
  8
0
  6
CENTER
 62
1
 10
-219.216003
 20
-57.193600
 11
-196.473007
 21
-57.193600
  0
LINE
  8
0
  6
CENTER
 62
1
 10
-249.216003
 20
-83.193604
 11
-271.972992
 21
-83.193604
  0
LINE
  8
0
  6
CENTER
 62
1
 10
-234.216003
 20
-35.294300
 11
-234.216003
 21
-104.946999
  0
LINE
  8
0
  6
PHANTOM
 62
3
 10
-172.225006
 20
-130.132004
 11
-172.225006
 21
-26.972900
  0
LINE
  8
0
  6
CONTINUOUS
 62
4
 10
-136.716003
 20
-162.436996
 11
-136.716003
 21
-149.936996
  0
LINE
  8
0
  6
CONTINUOUS
 62
4
 10
-148.716003
 20
-154.436996
 11
-148.716003
 21
-157.936996
  0
LINE
  8
0
  6
CONTINUOUS
 62
4
 10
-148.716003
 20
-157.936996
 11
-136.716003
 21
-157.936996
  0
LINE
  8
0
  6
CONTINUOUS
 62
4
 10
-148.716003
 20
-154.436996
 11
-136.716003
 21
-154.436996
  0
LINE
  8
0
  6
CONTINUOUS
 62
4
 10
-116.216003
 20
-183.194000
 11
-108.216003
 21
-183.194000
  0
LINE
  8
0
  6
CENTER
 62
1
 10
-107.572998
 20
-193.194000
 11
-124.859001
 21
-193.194000
  0
LINE
  8
0
  6
CONTINUOUS
 62
4
 10
-126.216003
 20
-193.194000
 11
-126.216003
 21
-202.194000
  0
LINE
  8
0
  6
CONTINUOUS
 62
4
 10
-162.216003
 20
-202.194000
 11
-108.216003
 21
-202.194000
  0
LINE
  8
0
  6
CENTER
 62
1
 10
-116.216003
 20
-184.537003
 11
-116.216003
 21
-201.837006
  0
LINE
  8
0
  6
CONTINUOUS
 62
4
 10
-162.216003
 20
-177.194000
 11
-162.216003
 21
-202.194000
  0
LINE
  8
0
  6
CONTINUOUS
 62
4
 10
-162.216003
 20
-177.194000
 11
-139.216003
 21
-177.194000
  0
LINE
  8
0
  6
CONTINUOUS
 62
4
 10
-102.216003
 20
-146.378998
 11
-102.216003
 21
-166.007996
  0
LINE
  8
0
  6
CONTINUOUS
 62
4
 10
-108.216003
 20
-166.007996
 11
-102.216003
 21
-166.007996
  0
LINE
  8
0
  6
CONTINUOUS
 62
4
 10
-108.216003
 20
-146.378998
 11
-102.216003
 21
-146.378998
  0
LINE
  8
0
  6
CONTINUOUS
 62
4
 10
-108.216003
 20
-161.093994
 11
-102.216003
 21
-161.093994
  0
LINE
  8
0
  6
CONTINUOUS
 62
4
 10
-108.216003
 20
-151.279007
 11
-102.216003
 21
-151.279007
  0
LINE
  8
0
  6
CONTINUOUS
 62
4
 10
-76.716301
 20
-163.194000
 11
-102.216003
 21
-163.194000
  0
LINE
  8
0
  6
CONTINUOUS
 62
1
 10
-76.716301
 20
-162.436996
 11
-102.216003
 21
-162.436996
  0
LINE
  8
0
  6
DASHED
 62
1
 10
-133.216003
 20
-162.436996
 11
-108.216003
 21
-162.436996
  0
LINE
  8
0
  6
DASHED
 62
1
 10
-133.216003
 20
-163.194000
 11
-108.216003
 21
-163.194000
  0
LINE
  8
0
  6
CONTINUOUS
 62
4
 10
-76.716301
 20
-149.194000
 11
-102.216003
 21
-149.194000
  0
LINE
  8
0
  6
CONTINUOUS
 62
1
 10
-76.716301
 20
-149.936996
 11
-102.216003
 21
-149.936996
  0
LINE
  8
0
  6
DASHED
 62
1
 10
-133.216003
 20
-149.936996
 11
-108.216003
 21
-149.936996
  0
LINE
  8
0
  6
DASHED
 62
1
 10
-132.216003
 20
-149.194000
 11
-132.216003
 21
-163.194000
  0
LINE
  8
0
  6
DASHED
 62
1
 10
-133.216003
 20
-149.194000
 11
-108.216003
 21
-149.194000
  0
LINE
  8
0
  6
CONTINUOUS
 62
4
 10
-76.716301
 20
-149.194000
 11
-76.716301
 21
-163.194000
  0
LINE
  8
0
  6
CONTINUOUS
 62
4
 10
-133.216003
 20
-146.194000
 11
-108.216003
 21
-146.194000
  0
LINE
  8
0
  6
CONTINUOUS
 62
4
 10
-109.216003
 20
-154.307999
 11
-132.216003
 21
-154.307999
  0
LINE
  8
0
  6
CONTINUOUS
 62
4
 10
-108.216003
 20
-168.694000
 11
-108.216003
 21
-146.194000
  0
LINE
  8
0
  6
CONTINUOUS
 62
4
 10
-133.216003
 20
-171.194000
 11
-133.216003
 21
-146.194000
  0
LINE
  8
0
  6
CONTINUOUS
 62
4
 10
-135.716003
 20
-167.194000
 11
-135.716003
 21
-171.694000
  0
LINE
  8
0
  6
CONTINUOUS
 62
4
 10
-135.716003
 20
-167.194000
 11
-133.216003
 21
-167.194000
  0
LINE
  8
0
  6
CONTINUOUS
 62
4
 10
-135.716003
 20
-171.694000
 11
-133.231003
 21
-171.694000
  0
LINE
  8
0
  6
CONTINUOUS
 62
4
 10
-134.716003
 20
-167.194000
 11
-134.716003
 21
-171.694000
  0
LINE
  8
0
  6
CONTINUOUS
 62
4
 10
-108.216003
 20
-168.694000
 11
-108.216003
 21
-202.194000
  0
LINE
  8
0
  6
CONTINUOUS
 62
4
 10
-136.716003
 20
-149.936996
 11
-133.216003
 21
-149.936996
  0
LINE
  8
0
  6
CONTINUOUS
 62
4
 10
-136.716003
 20
-162.436996
 11
-133.216003
 21
-162.436996
  0
LINE
  8
0
  6
CENTER
 62
1
 10
-152.044998
 20
-156.194000
 11
-73.959198
 21
-156.194000
  0
LINE
  8
0
  6
CONTINUOUS
 62
4
 10
-256.216003
 20
-202.194000
 11
-310.216003
 21
-202.194000
  0
LINE
  8
0
  6
CENTER
 62
1
 10
-302.216003
 20
-184.537003
 11
-302.216003
 21
-201.837006
  0
LINE
  8
0
  6
CONTINUOUS
 62
4
 10
-310.216003
 20
-168.694000
 11
-310.216003
 21
-202.194000
  0
LINE
  8
0
  6
CONTINUOUS
 62
4
 10
-292.216003
 20
-193.194000
 11
-292.216003
 21
-202.194000
  0
LINE
  8
0
  6
CONTINUOUS
 62
4
 10
-256.216003
 20
-177.194000
 11
-256.216003
 21
-202.194000
  0
LINE
  8
0
  6
CONTINUOUS
 62
4
 10
-186.716003
 20
-148.679001
 11
-186.716003
 21
-163.694000
  0
LINE
  8
0
  6
CONTINUOUS
 62
4
 10
-191.716003
 20
-159.936996
 11
-186.716003
 21
-159.936996
  0
LINE
  8
0
  6
CONTINUOUS
 62
4
 10
-191.716003
 20
-152.436996
 11
-186.716003
 21
-152.436996
  0
LINE
  8
0
  6
CONTINUOUS
 62
4
 10
-191.716003
 20
-163.694000
 11
-186.716003
 21
-163.694000
  0
LINE
  8
0
  6
CONTINUOUS
 62
4
 10
-191.716003
 20
-148.679001
 11
-186.716003
 21
-148.679001
  0
LINE
  8
0
  6
CONTINUOUS
 62
7
 10
-186.716003
 20
-165.194000
 11
-281.716003
 21
-165.194000
  0
LINE
  8
0
  6
CONTINUOUS
 62
7
 10
-281.716003
 20
-165.194000
 11
-281.716003
 21
-171.694000
  0
LINE
  8
0
  6
CONTINUOUS
 62
7
 10
-186.716003
 20
-165.194000
 11
-186.716003
 21
-171.694000
  0
LINE
  8
0
  6
CONTINUOUS
 62
7
 10
-135.248001
 20
-175.694000
 11
-283.187988
 21
-175.694000
  0
LINE
  8
0
  6
CONTINUOUS
 62
7
 10
-281.716003
 20
-171.694000
 11
-186.716003
 21
-171.694000
  0
LINE
  8
0
  6
CONTINUOUS
 62
4
 10
-283.716003
 20
-167.194000
 11
-283.716003
 21
-171.694000
  0
LINE
  8
0
  6
CONTINUOUS
 62
4
 10
-282.716003
 20
-171.694000
 11
-285.201996
 21
-171.694000
  0
LINE
  8
0
  6
CONTINUOUS
 62
4
 10
-282.716003
 20
-167.194000
 11
-285.216003
 21
-167.194000
  0
LINE
  8
0
  6
CONTINUOUS
 62
7
 10
-280.915985
 20
-172.194000
 11
-280.915985
 21
-174.179001
  0
LINE
  8
0
  6
CONTINUOUS
 62
7
 10
-282.015991
 20
-174.865005
 11
-281.302002
 21
-174.664993
  0
LINE
  8
0
  6
CONTINUOUS
 62
7
 10
-282.015991
 20
-174.865005
 11
-282.316010
 21
-175.694000
  0
LINE
  8
0
  6
CONTINUOUS
 62
7
 10
-186.431000
 20
-174.865005
 11
-186.130997
 21
-175.694000
  0
LINE
  8
0
  6
CONTINUOUS
 62
7
 10
-187.516006
 20
-172.194000
 11
-187.516006
 21
-174.179001
  0
LINE
  8
0
  6
CONTINUOUS
 62
7
 10
-186.431000
 20
-174.865005
 11
-187.145004
 21
-174.664993
  0
LINE
  8
0
  6
CONTINUOUS
 62
7
 10
-187.815994
 20
-171.893997
 11
-280.615997
 21
-171.893997
  0
LINE
  8
0
  6
CONTINUOUS
 62
7
 10
-187.516006
 20
-174.565002
 11
-280.915985
 21
-174.565002
  0
LINE
  8
0
  6
CONTINUOUS
 62
7
 10
-186.431000
 20
-174.865005
 11
-282.015991
 21
-174.865005
  0
LINE
  8
0
  6
CONTINUOUS
 62
7
 10
-162.216003
 20
-193.337006
 11
-256.216003
 21
-193.337006
  0
LINE
  8
0
  6
CONTINUOUS
 62
7
 10
-162.216003
 20
-197.751007
 11
-256.216003
 21
-197.751007
  0
LINE
  8
0
  6
CONTINUOUS
 62
7
 10
-162.216003
 20
-187.794006
 11
-256.216003
 21
-187.794006
  0
LINE
  8
0
  6
CONTINUOUS
 62
7
 10
-162.216003
 20
-184.593994
 11
-256.216003
 21
-184.593994
  0
LINE
  8
0
  6
CONTINUOUS
 62
7
 10
-162.216003
 20
-181.451004
 11
-256.216003
 21
-181.451004
  0
LINE
  8
0
  6
CONTINUOUS
 62
7
 10
-162.216003
 20
-180.936996
 11
-256.216003
 21
-180.936996
  0
LINE
  8
0
  6
CONTINUOUS
 62
7
 10
-162.216003
 20
-179.436996
 11
-256.216003
 21
-179.436996
  0
LINE
  8
0
  6
CONTINUOUS
 62
7
 10
-162.216003
 20
-177.136993
 11
-256.216003
 21
-177.136993
  0
LINE
  8
0
  6
CONTINUOUS
 62
4
 10
-282.716003
 20
-167.194000
 11
-282.716003
 21
-171.694000
  0
LINE
  8
0
  6
CONTINUOUS
 62
4
 10
-285.216003
 20
-171.194000
 11
-285.216003
 21
-146.194000
  0
LINE
  8
0
  6
CONTINUOUS
 62
4
 10
-310.216003
 20
-168.694000
 11
-310.216003
 21
-146.194000
  0
LINE
  8
0
  6
CONTINUOUS
 62
4
 10
-256.216003
 20
-177.194000
 11
-279.216003
 21
-177.194000
  0
LINE
  8
0
  6
CONTINUOUS
 62
4
 10
-309.216003
 20
-154.307999
 11
-286.216003
 21
-154.307999
  0
LINE
  8
0
  6
CONTINUOUS
 62
4
 10
-285.216003
 20
-146.194000
 11
-310.216003
 21
-146.194000
  0
LINE
  8
0
  6
PHANTOM
 62
1
 10
-269.716003
 20
-157.936996
 11
-281.716003
 21
-157.936996
  0
LINE
  8
0
  6
PHANTOM
 62
1
 10
-269.716003
 20
-154.436996
 11
-269.716003
 21
-157.936996
  0
LINE
  8
0
  6
PHANTOM
 62
1
 10
-269.716003
 20
-154.436996
 11
-281.716003
 21
-154.436996
  0
LINE
  8
0
  6
CONTINUOUS
 62
4
 10
-281.716003
 20
-149.936996
 11
-285.216003
 21
-149.936996
  0
LINE
  8
0
  6
CONTINUOUS
 62
4
 10
-341.716003
 20
-149.194000
 11
-341.716003
 21
-163.194000
  0
LINE
  8
0
  6
DASHED
 62
1
 10
-285.216003
 20
-149.194000
 11
-310.216003
 21
-149.194000
  0
LINE
  8
0
  6
DASHED
 62
1
 10
-286.216003
 20
-149.194000
 11
-286.216003
 21
-163.194000
  0
LINE
  8
0
  6
DASHED
 62
1
 10
-285.216003
 20
-149.936996
 11
-310.216003
 21
-149.936996
  0
LINE
  8
0
  6
CONTINUOUS
 62
1
 10
-341.716003
 20
-149.936996
 11
-316.216003
 21
-149.936996
  0
LINE
  8
0
  6
CONTINUOUS
 62
4
 10
-341.716003
 20
-149.194000
 11
-316.216003
 21
-149.194000
  0
LINE
  8
0
  6
CONTINUOUS
 62
4
 10
-281.716003
 20
-162.436996
 11
-285.216003
 21
-162.436996
  0
LINE
  8
0
  6
DASHED
 62
1
 10
-285.216003
 20
-163.194000
 11
-310.216003
 21
-163.194000
  0
LINE
  8
0
  6
DASHED
 62
1
 10
-285.216003
 20
-162.436996
 11
-310.216003
 21
-162.436996
  0
LINE
  8
0
  6
CONTINUOUS
 62
1
 10
-341.716003
 20
-162.436996
 11
-316.216003
 21
-162.436996
  0
LINE
  8
0
  6
CONTINUOUS
 62
4
 10
-341.716003
 20
-163.194000
 11
-316.216003
 21
-163.194000
  0
LINE
  8
0
  6
CONTINUOUS
 62
4
 10
-281.716003
 20
-163.694000
 11
-281.716003
 21
-148.679001
  0
LINE
  8
0
  6
CONTINUOUS
 62
4
 10
-302.216003
 20
-183.194000
 11
-310.216003
 21
-183.194000
  0
LINE
  8
0
  6
CONTINUOUS
 62
4
 10
-276.716003
 20
-165.194000
 11
-276.716003
 21
-144.194000
  0
LINE
  8
0
  6
CONTINUOUS
 62
4
 10
-310.216003
 20
-151.279007
 11
-316.216003
 21
-151.279007
  0
LINE
  8
0
  6
CONTINUOUS
 62
4
 10
-310.216003
 20
-161.093994
 11
-316.216003
 21
-161.093994
  0
LINE
  8
0
  6
CONTINUOUS
 62
4
 10
-310.216003
 20
-146.378998
 11
-316.216003
 21
-146.378998
  0
LINE
  8
0
  6
CONTINUOUS
 62
4
 10
-310.216003
 20
-166.007996
 11
-316.216003
 21
-166.007996
  0
LINE
  8
0
  6
CENTER
 62
1
 10
-266.388000
 20
-156.194000
 11
-344.472992
 21
-156.194000
  0
LINE
  8
0
  6
CONTINUOUS
 62
4
 10
-276.716003
 20
-148.679001
 11
-281.716003
 21
-148.679001
  0
LINE
  8
0
  6
CONTINUOUS
 62
4
 10
-276.716003
 20
-163.694000
 11
-281.716003
 21
-163.694000
  0
LINE
  8
0
  6
CONTINUOUS
 62
4
 10
-276.716003
 20
-152.436996
 11
-281.716003
 21
-152.436996
  0
LINE
  8
0
  6
CONTINUOUS
 62
4
 10
-276.716003
 20
-159.936996
 11
-281.716003
 21
-159.936996
  0
LINE
  8
0
  6
CONTINUOUS
 62
4
 10
-191.716003
 20
-144.194000
 11
-191.716003
 21
-165.194000
  0
LINE
  8
0
  6
CONTINUOUS
 62
4
 10
-191.716003
 20
-144.194000
 11
-276.716003
 21
-144.194000
  0
LINE
  8
0
  6
CONTINUOUS
 62
4
 10
-316.216003
 20
-146.378998
 11
-316.216003
 21
-166.007996
  0
LINE
  8
0
  6
CENTER
 62
1
 10
-310.859009
 20
-193.194000
 11
-293.572998
 21
-193.194000
  0
LINE
  8
0
  6
CONTINUOUS
 62
7
 10
-162.216003
 20
-202.194000
 11
-256.216003
 21
-202.194000
  0
LINE
  8
0
  6
PHANTOM
 62
3
 10
-172.225006
 20
-219.095993
 11
-172.225006
 21
-130.132004
  0
LINE
  8
0
  6
CONTINUOUS
 62
7
 10
32.433601
 20
-184.593994
 11
31.933599
 21
-184.093994
  0
LINE
  8
0
  6
CENTER
 62
1
 10
4.933630
 20
-136.285004
 11
4.933630
 21
-210.800995
  0
LINE
  8
0
  6
DASHED
 62
1
 10
-32.823502
 20
-182.694000
 11
-32.823502
 21
-202.194000
  0
LINE
  8
0
  6
DASHED
 62
1
 10
-27.323500
 20
-182.694000
 11
-27.323500
 21
-202.194000
  0
LINE
  8
0
  6
DASHED
 62
1
 10
37.176498
 20
-182.694000
 11
37.176498
 21
-202.194000
  0
LINE
  8
0
  6
DASHED
 62
1
 10
42.676498
 20
-182.694000
 11
42.676498
 21
-202.194000
  0
LINE
  8
0
  6
CONTINUOUS
 62
7
 10
24.933599
 20
-196.322006
 11
24.933599
 21
-198.050995
  0
LINE
  8
0
  6
CONTINUOUS
 62
7
 10
27.933599
 20
-196.322006
 11
27.933599
 21
-198.050995
  0
LINE
  8
0
  6
CONTINUOUS
 62
7
 10
24.933599
 20
-196.322006
 11
26.433599
 21
-195.451004
  0
LINE
  8
0
  6
CONTINUOUS
 62
7
 10
26.433599
 20
-198.921997
 11
27.933599
 21
-198.050995
  0
LINE
  8
0
  6
CONTINUOUS
 62
7
 10
24.933599
 20
-198.050995
 11
26.433599
 21
-198.921997
  0
LINE
  8
0
  6
CONTINUOUS
 62
7
 10
26.433599
 20
-195.451004
 11
27.933599
 21
-196.322006
  0
LINE
  8
0
  6
CONTINUOUS
 62
7
 10
27.933599
 20
-179.322006
 11
27.933599
 21
-181.050995
  0
LINE
  8
0
  6
CONTINUOUS
 62
7
 10
24.933599
 20
-179.322006
 11
24.933599
 21
-181.050995
  0
LINE
  8
0
  6
CONTINUOUS
 62
7
 10
24.933599
 20
-181.050995
 11
26.433599
 21
-181.921997
  0
LINE
  8
0
  6
CONTINUOUS
 62
7
 10
26.433599
 20
-178.451004
 11
27.933599
 21
-179.322006
  0
LINE
  8
0
  6
CONTINUOUS
 62
7
 10
24.933599
 20
-179.322006
 11
26.433599
 21
-178.451004
  0
LINE
  8
0
  6
CONTINUOUS
 62
7
 10
26.433599
 20
-181.921997
 11
27.933599
 21
-181.050995
  0
LINE
  8
0
  6
CONTINUOUS
 62
7
 10
-16.566401
 20
-181.921997
 11
-15.066400
 21
-181.050995
  0
LINE
  8
0
  6
CONTINUOUS
 62
7
 10
-18.066401
 20
-179.322006
 11
-16.566401
 21
-178.451004
  0
LINE
  8
0
  6
CONTINUOUS
 62
7
 10
-16.566401
 20
-178.451004
 11
-15.066400
 21
-179.322006
  0
LINE
  8
0
  6
CONTINUOUS
 62
7
 10
-18.066401
 20
-181.050995
 11
-16.566401
 21
-181.921997
  0
LINE
  8
0
  6
CONTINUOUS
 62
7
 10
-18.066401
 20
-179.322006
 11
-18.066401
 21
-181.050995
  0
LINE
  8
0
  6
CONTINUOUS
 62
7
 10
-15.066400
 20
-179.322006
 11
-15.066400
 21
-181.050995
  0
LINE
  8
0
  6
CONTINUOUS
 62
7
 10
3.433630
 20
-201.194000
 11
6.433630
 21
-201.194000
  0
LINE
  8
0
  6
CONTINUOUS
 62
7
 10
3.433630
 20
-202.194000
 11
-23.066401
 21
-202.194000
  0
LINE
  8
0
  6
CONTINUOUS
 62
7
 10
6.433630
 20
-201.194000
 11
6.433630
 21
-202.194000
  0
LINE
  8
0
  6
CONTINUOUS
 62
7
 10
31.933599
 20
-184.093994
 11
30.333599
 21
-184.093994
  0
LINE
  8
0
  6
CONTINUOUS
 62
7
 10
32.633598
 20
-184.593994
 11
32.433601
 21
-184.593994
  0
LINE
  8
0
  6
CONTINUOUS
 62
7
 10
32.433601
 20
-187.794006
 11
31.933599
 21
-188.294006
  0
LINE
  8
0
  6
CONTINUOUS
 62
7
 10
32.633598
 20
-187.794006
 11
32.433601
 21
-187.794006
  0
LINE
  8
0
  6
CENTER
 62
2
 10
18.933599
 20
-197.194000
 11
33.933601
 21
-197.194000
  0
LINE
  8
0
  6
CENTER
 62
2
 10
-16.566401
 20
-172.694000
 11
-16.566401
 21
-187.498993
  0
LINE
  8
0
  6
CENTER
 62
2
 10
-24.066401
 20
-180.194000
 11
-9.066370
 21
-180.194000
  0
LINE
  8
0
  6
CENTER
 62
2
 10
26.433599
 20
-172.694000
 11
26.433599
 21
-204.694000
  0
LINE
  8
0
  6
CENTER
 62
2
 10
18.933599
 20
-180.194000
 11
33.933601
 21
-180.194000
  0
LINE
  8
0
  6
CONTINUOUS
 62
7
 10
12.433600
 20
-172.593994
 11
12.433600
 21
-183.794006
  0
LINE
  8
0
  6
CONTINUOUS
 62
7
 10
12.033600
 20
-172.194000
 11
7.433630
 21
-172.194000
  0
LINE
  8
0
  6
CONTINUOUS
 62
7
 10
12.033600
 20
-184.194000
 11
-2.166370
 21
-184.194000
  0
LINE
  8
0
  6
CONTINUOUS
 62
7
 10
32.933601
 20
-188.093994
 11
32.933601
 21
-202.194000
  0
LINE
  8
0
  6
CONTINUOUS
 62
7
 10
3.433630
 20
-201.194000
 11
3.433630
 21
-202.194000
  0
LINE
  8
0
  6
CONTINUOUS
 62
7
 10
28.933599
 20
-202.194000
 11
28.933599
 21
-201.522003
  0
LINE
  8
0
  6
CONTINUOUS
 62
7
 10
2.433630
 20
-167.194000
 11
2.433630
 21
-172.194000
  0
LINE
  8
0
  6
CONTINUOUS
 62
7
 10
7.433630
 20
-167.194000
 11
7.433630
 21
-172.194000
  0
LINE
  8
0
  6
CONTINUOUS
 62
7
 10
23.933599
 20
-202.194000
 11
23.933599
 21
-201.522003
  0
LINE
  8
0
  6
CONTINUOUS
 62
7
 10
32.933601
 20
-183.893997
 11
29.733601
 21
-183.893997
  0
LINE
  8
0
  6
CONTINUOUS
 62
7
 10
32.933601
 20
-192.194000
 11
29.733601
 21
-192.194000
  0
LINE
  8
0
  6
CONTINUOUS
 62
7
 10
32.933601
 20
-179.194000
 11
32.933601
 21
-184.294006
  0
LINE
  8
0
  6
CONTINUOUS
 62
7
 10
27.733601
 20
-185.893997
 11
27.733601
 21
-190.194000
  0
LINE
  8
0
  6
CONTINUOUS
 62
7
 10
20.933599
 20
-167.194000
 11
-11.066400
 21
-167.194000
  0
LINE
  8
0
  6
CONTINUOUS
 62
7
 10
2.433630
 20
-172.194000
 11
-2.166370
 21
-172.194000
  0
LINE
  8
0
  6
CONTINUOUS
 62
7
 10
32.933601
 20
-202.194000
 11
6.433630
 21
-202.194000
  0
LINE
  8
0
  6
CONTINUOUS
 62
7
 10
-23.066401
 20
-202.194000
 11
-23.066401
 21
-179.194000
  0
LINE
  8
0
  6
CONTINUOUS
 62
7
 10
-2.566370
 20
-172.593994
 11
-2.566370
 21
-183.794006
  0
LINE
  8
0
  6
CONTINUOUS
 62
4
 10
-24.066401
 20
-202.194000
 11
-24.066401
 21
-179.194000
  0
LINE
  8
0
  6
CONTINUOUS
 62
4
 10
20.933599
 20
-166.194000
 11
-11.066400
 21
-166.194000
  0
LINE
  8
0
  6
CONTINUOUS
 62
7
 10
-15.066400
 20
-166.822006
 11
-15.066400
 21
-167.878998
  0
LINE
  8
0
  6
CONTINUOUS
 62
7
 10
24.933599
 20
-166.822006
 11
24.933599
 21
-167.878998
  0
LINE
  8
0
  6
CONTINUOUS
 62
4
 10
-24.066401
 20
-202.194000
 11
-36.066399
 21
-202.194000
  0
LINE
  8
0
  6
CONTINUOUS
 62
4
 10
45.933601
 20
-179.194000
 11
45.933601
 21
-202.194000
  0
LINE
  8
0
  6
CONTINUOUS
 62
4
 10
33.933601
 20
-202.194000
 11
45.933601
 21
-202.194000
  0
LINE
  8
0
  6
CONTINUOUS
 62
4
 10
-36.066399
 20
-179.194000
 11
-36.066399
 21
-202.194000
  0
LINE
  8
0
  6
DASHED
 62
1
 10
-34.823502
 20
-177.194000
 11
-34.823502
 21
-182.694000
  0
LINE
  8
0
  6
DASHED
 62
1
 10
-25.323500
 20
-182.694000
 11
-34.823502
 21
-182.694000
  0
LINE
  8
0
  6
CENTER
 62
1
 10
18.933599
 20
-156.194000
 11
-9.066370
 21
-156.194000
  0
LINE
  8
0
  6
DASHED
 62
1
 10
-23.923500
 20
-177.194000
 11
-35.994900
 21
-177.194000
  0
LINE
  8
0
  6
CENTER
 62
1
 10
-30.066401
 20
-172.194000
 11
-30.066401
 21
-205.194000
  0
LINE
  8
0
  6
CENTER
 62
1
 10
39.933601
 20
-172.194000
 11
39.933601
 21
-205.194000
  0
LINE
  8
0
  6
DASHED
 62
1
 10
33.776501
 20
-177.194000
 11
45.847900
 21
-177.194000
  0
LINE
  8
0
  6
DASHED
 62
1
 10
44.676498
 20
-177.194000
 11
44.676498
 21
-182.694000
  0
LINE
  8
0
  6
DASHED
 62
1
 10
35.176498
 20
-182.694000
 11
44.676498
 21
-182.694000
  0
LINE
  8
0
  6
DASHED
 62
1
 10
35.176498
 20
-177.194000
 11
35.176498
 21
-182.694000
  0
LINE
  8
0
  6
DASHED
 62
1
 10
-25.323500
 20
-177.194000
 11
-25.323500
 21
-182.694000
  0
LINE
  8
0
  6
CONTINUOUS
 62
4
 10
-24.066401
 20
-183.194000
 11
-36.066399
 21
-183.194000
  0
LINE
  8
0
  6
CONTINUOUS
 62
4
 10
13.433600
 20
-161.093994
 11
13.433600
 21
-151.279007
  0
LINE
  8
0
  6
CONTINUOUS
 62
4
 10
4.933640
 20
-146.378998
 11
13.433600
 21
-151.279007
  0
LINE
  8
0
  6
CONTINUOUS
 62
4
 10
-3.566370
 20
-151.279007
 11
4.933630
 21
-146.378998
  0
LINE
  8
0
  6
CONTINUOUS
 62
4
 10
4.933630
 20
-166.007996
 11
13.433600
 21
-161.093994
  0
LINE
  8
0
  6
CONTINUOUS
 62
4
 10
-3.566370
 20
-161.093994
 11
-3.566370
 21
-151.279007
  0
LINE
  8
0
  6
CONTINUOUS
 62
4
 10
33.933601
 20
-183.194000
 11
45.933601
 21
-183.194000
  0
LINE
  8
0
  6
CONTINUOUS
 62
4
 10
35.933601
 20
-186.194000
 11
35.933601
 21
-202.194000
  0
LINE
  8
0
  6
CONTINUOUS
 62
4
 10
33.933601
 20
-179.194000
 11
33.933601
 21
-202.194000
  0
LINE
  8
0
  6
CONTINUOUS
 62
4
 10
-26.066401
 20
-186.194000
 11
-26.066401
 21
-202.194000
  0
LINE
  8
0
  6
CONTINUOUS
 62
4
 10
4.933640
 20
-166.007996
 11
-3.566360
 21
-161.093994
  0
LINE
  8
0
  6
CONTINUOUS
 62
7
 10
29.133600
 20
-189.794006
 11
29.133600
 21
-187.908005
  0
LINE
  8
0
  6
CONTINUOUS
 62
7
 10
31.933599
 20
-189.794006
 11
31.933599
 21
-188.294006
  0
LINE
  8
0
  6
CONTINUOUS
 62
4
 10
24.933599
 20
-144.194000
 11
24.933599
 21
-154.417999
  0
LINE
  8
0
  6
CONTINUOUS
 62
4
 10
-15.066400
 20
-144.194000
 11
-15.066400
 21
-154.412994
  0
LINE
  8
0
  6
CONTINUOUS
 62
4
 10
24.933599
 20
-144.194000
 11
-15.066400
 21
-144.194000
  0
LINE
  8
0
  6
CONTINUOUS
 62
4
 10
178.235992
 20
111.533997
 11
177.936005
 21
111.533997
  0
LINE
  8
0
  6
CONTINUOUS
 62
7
 10
178.235992
 20
135.533997
 11
178.792999
 21
135.533997
  0
LINE
  8
0
  6
CONTINUOUS
 62
4
 10
273.235992
 20
111.533997
 11
273.235992
 21
109.533997
  0
LINE
  8
0
  6
CONTINUOUS
 62
7
 10
273.235992
 20
135.533997
 11
273.235992
 21
111.533997
  0
LINE
  8
0
  6
CONTINUOUS
 62
7
 10
275.235992
 20
95.533997
 11
293.809998
 21
95.533997
  0
LINE
  8
0
  6
CONTINUOUS
 62
4
 10
176.235992
 20
95.533997
 11
275.235992
 21
95.533997
  0
LINE
  8
0
  6
CONTINUOUS
 62
7
 10
275.235992
 20
151.533997
 11
283.936005
 21
151.533997
  0
LINE
  8
0
  6
CONTINUOUS
 62
4
 10
176.235992
 20
151.533997
 11
275.235992
 21
151.533997
  0
LINE
  8
0
  6
CENTER
 62
2
 10
162.735992
 20
117.369003
 11
162.735992
 21
103.468002
  0
LINE
  8
0
  6
CENTER
 62
2
 10
162.735992
 20
143.298004
 11
162.735992
 21
129.552002
  0
LINE
  8
0
  6
CENTER
 62
2
 10
169.104996
 20
136.533997
 11
155.878006
 21
136.533997
  0
LINE
  8
0
  6
CENTER
 62
2
 10
169.735992
 20
110.533997
 11
155.878006
 21
110.533997
  0
LINE
  8
0
  6
CONTINUOUS
 62
7
 10
168.735992
 20
151.533997
 11
168.735992
 21
140.134003
  0
LINE
  8
0
  6
CONTINUOUS
 62
7
 10
149.735992
 20
126.033997
 11
168.735992
 21
126.033997
  0
LINE
  8
0
  6
CONTINUOUS
 62
7
 10
149.735992
 20
121.033997
 11
168.735992
 21
121.033997
  0
LINE
  8
0
  6
CONTINUOUS
 62
7
 10
168.735992
 20
132.919998
 11
168.735992
 21
114.134003
  0
LINE
  8
0
  6
CONTINUOUS
 62
7
 10
149.735992
 20
150.033997
 11
149.735992
 21
97.033997
  0
LINE
  8
0
  6
CONTINUOUS
 62
7
 10
168.735992
 20
106.919998
 11
168.735992
 21
95.533997
  0
LINE
  8
0
  6
CONTINUOUS
 62
7
 10
168.235992
 20
126.033997
 11
168.235992
 21
121.033997
  0
LINE
  8
0
  6
CENTER
 62
1
 10
273.235992
 20
96.533997
 11
273.235992
 21
104.533997
  0
LINE
  8
0
  6
CENTER
 62
1
 10
277.235992
 20
100.533997
 11
269.235992
 21
100.533997
  0
LINE
  8
0
  6
CENTER
 62
1
 10
174.235992
 20
100.533997
 11
182.235992
 21
100.533997
  0
LINE
  8
0
  6
CENTER
 62
1
 10
178.235992
 20
96.533997
 11
178.235992
 21
104.533997
  0
LINE
  8
0
  6
CENTER
 62
1
 10
273.235992
 20
150.533997
 11
273.235992
 21
142.533997
  0
LINE
  8
0
  6
CENTER
 62
1
 10
277.235992
 20
146.533997
 11
269.235992
 21
146.533997
  0
LINE
  8
0
  6
CENTER
 62
1
 10
178.235992
 20
150.533997
 11
178.235992
 21
142.533997
  0
LINE
  8
0
  6
CENTER
 62
1
 10
174.235992
 20
146.533997
 11
182.235992
 21
146.533997
  0
LINE
  8
0
  6
CONTINUOUS
 62
4
 10
173.235992
 20
106.533997
 11
173.235992
 21
98.533997
  0
LINE
  8
0
  6
CONTINUOUS
 62
4
 10
173.235992
 20
132.533997
 11
173.235992
 21
114.533997
  0
LINE
  8
0
  6
CONTINUOUS
 62
7
 10
278.235992
 20
99.033997
 11
293.192993
 21
99.033997
  0
LINE
  8
0
  6
CONTINUOUS
 62
7
 10
278.235992
 20
145.533997
 11
284.993988
 21
145.533997
  0
LINE
  8
0
  6
CONTINUOUS
 62
4
 10
278.235992
 20
132.533997
 11
278.235992
 21
114.533997
  0
LINE
  8
0
  6
CONTINUOUS
 62
7
 10
278.235992
 20
101.533997
 11
292.752014
 21
101.533997
  0
LINE
  8
0
  6
CONTINUOUS
 62
7
 10
278.235992
 20
148.033997
 11
284.553009
 21
148.033997
  0
LINE
  8
0
  6
CONTINUOUS
 62
4
 10
173.235992
 20
148.533997
 11
173.235992
 21
140.533997
  0
LINE
  8
0
  6
CONTINUOUS
 62
4
 10
278.235992
 20
106.533997
 11
278.235992
 21
98.533997
  0
LINE
  8
0
  6
CONTINUOUS
 62
4
 10
278.235992
 20
148.533997
 11
278.235992
 21
140.533997
  0
LINE
  8
0
  6
CONTINUOUS
 62
7
 10
173.235992
 20
116.533997
 11
168.735992
 21
116.533997
  0
LINE
  8
0
  6
CONTINUOUS
 62
4
 10
184.936005
 20
144.533997
 11
266.235992
 21
144.533997
  0
LINE
  8
0
  6
CONTINUOUS
 62
4
 10
184.936005
 20
102.533997
 11
266.235992
 21
102.533997
  0
LINE
  8
0
  6
CONTINUOUS
 62
4
 10
177.936005
 20
109.533997
 11
177.936005
 21
111.533997
  0
LINE
  8
0
  6
CONTINUOUS
 62
7
 10
173.235992
 20
130.533997
 11
168.735992
 21
130.533997
  0
LINE
  8
0
  6
CONTINUOUS
 62
4
 10
177.936005
 20
135.533997
 11
177.936005
 21
137.533997
  0
LINE
  8
0
  6
CENTER
 62
2
 10
255.735992
 20
106.533997
 11
255.735992
 21
114.533997
  0
LINE
  8
0
  6
CENTER
 62
2
 10
191.735992
 20
110.533997
 11
199.735992
 21
110.533997
  0
LINE
  8
0
  6
CENTER
 62
2
 10
195.735992
 20
106.533997
 11
195.735992
 21
114.533997
  0
LINE
  8
0
  6
CENTER
 62
2
 10
259.735992
 20
110.533997
 11
251.735992
 21
110.533997
  0
LINE
  8
0
  6
CENTER
 62
2
 10
259.735992
 20
136.533997
 11
251.735992
 21
136.533997
  0
LINE
  8
0
  6
CENTER
 62
2
 10
255.735992
 20
140.533997
 11
255.735992
 21
132.533997
  0
LINE
  8
0
  6
CENTER
 62
2
 10
191.735992
 20
136.533997
 11
199.735992
 21
136.533997
  0
LINE
  8
0
  6
CENTER
 62
2
 10
195.735992
 20
140.533997
 11
195.735992
 21
132.533997
  0
LINE
  8
0
  6
CONTINUOUS
 62
7
 10
184.235992
 20
115.033997
 11
267.235992
 21
115.033997
  0
LINE
  8
0
  6
CONTINUOUS
 62
7
 10
184.235992
 20
132.033997
 11
267.235992
 21
132.033997
  0
LINE
  8
0
  6
CONTINUOUS
 62
7
 10
183.235992
 20
131.033997
 11
183.235992
 21
116.033997
  0
LINE
  8
0
  6
CONTINUOUS
 62
7
 10
268.235992
 20
131.033997
 11
268.235992
 21
116.033997
  0
LINE
  8
0
  6
CONTINUOUS
 62
7
 10
185.792999
 20
103.533997
 11
265.735992
 21
103.533997
  0
LINE
  8
0
  6
CONTINUOUS
 62
7
 10
185.792999
 20
143.533997
 11
265.735992
 21
143.533997
  0
LINE
  8
0
  6
CONTINUOUS
 62
7
 10
178.235992
 20
111.533997
 11
178.235992
 21
135.533997
  0
LINE
  8
0
  6
CONTINUOUS
 62
7
 10
168.735992
 20
101.533997
 11
173.235992
 21
101.533997
  0
LINE
  8
0
  6
CONTINUOUS
 62
7
 10
168.735992
 20
145.533997
 11
173.235992
 21
145.533997
  0
LINE
  8
0
  6
CONTINUOUS
 62
7
 10
168.735992
 20
148.033997
 11
173.235992
 21
148.033997
  0
LINE
  8
0
  6
CONTINUOUS
 62
7
 10
151.235992
 20
151.533997
 11
176.235992
 21
151.533997
  0
LINE
  8
0
  6
CONTINUOUS
 62
7
 10
278.235992
 20
130.533997
 11
287.638000
 21
130.533997
  0
LINE
  8
0
  6
CONTINUOUS
 62
7
 10
278.235992
 20
116.533997
 11
290.106995
 21
116.533997
  0
LINE
  8
0
  6
CONTINUOUS
 62
7
 10
178.792999
 20
111.533997
 11
178.792999
 21
110.533997
  0
LINE
  8
0
  6
CONTINUOUS
 62
7
 10
178.792999
 20
111.533997
 11
178.235992
 21
111.533997
  0
LINE
  8
0
  6
CONTINUOUS
 62
7
 10
178.792999
 20
136.533997
 11
178.792999
 21
135.533997
  0
LINE
  8
0
  6
CONTINUOUS
 62
4
 10
177.936005
 20
135.533997
 11
178.235992
 21
135.533997
  0
LINE
  8
0
  6
CONTINUOUS
 62
7
 10
272.735992
 20
111.533997
 11
272.735992
 21
110.533997
  0
LINE
  8
0
  6
CONTINUOUS
 62
7
 10
272.735992
 20
111.533997
 11
273.235992
 21
111.533997
  0
LINE
  8
0
  6
CONTINUOUS
 62
7
 10
151.235992
 20
95.533997
 11
176.235992
 21
95.533997
  0
LINE
  8
0
  6
CONTINUOUS
 62
7
 10
168.735992
 20
99.033997
 11
173.235992
 21
99.033997
  0
LINE
  8
0
  6
CENTER
 62
1
 10
144.820007
 20
123.533997
 11
293.201996
 21
123.533997
  0
LINE
  8
0
  6
CONTINUOUS
 62
7
 10
272.735992
 20
136.533997
 11
272.735992
 21
135.533997
  0
LINE
  8
0
  6
CONTINUOUS
 62
7
 10
273.235992
 20
135.533997
 11
272.735992
 21
135.533997
  0
LINE
  8
0
  6
CONTINUOUS
 62
4
 10
273.235992
 20
137.533997
 11
273.235992
 21
135.533997
  0
LINE
  8
0
  6
PHANTOM
 62
3
 10
295.591003
 20
85.430199
 11
281.898987
 21
163.082001
  0
LINE
  8
0
  6
CONTINUOUS
 62
4
 10
331.950012
 20
149.621002
 11
331.950012
 21
151.533997
  0
LINE
  8
0
  6
CONTINUOUS
 62
7
 10
360.450012
 20
122.033997
 11
360.450012
 21
125.033997
  0
LINE
  8
0
  6
CONTINUOUS
 62
7
 10
361.450012
 20
122.033997
 11
361.450012
 21
95.533997
  0
LINE
  8
0
  6
CONTINUOUS
 62
7
 10
360.450012
 20
125.033997
 11
361.450012
 21
125.033997
  0
LINE
  8
0
  6
CONTINUOUS
 62
7
 10
343.350006
 20
150.533997
 11
343.350006
 21
148.934006
  0
LINE
  8
0
  6
CONTINUOUS
 62
7
 10
343.850006
 20
151.233994
 11
343.850006
 21
151.033997
  0
LINE
  8
0
  6
CONTINUOUS
 62
7
 10
347.049988
 20
151.033997
 11
347.549988
 21
150.533997
  0
LINE
  8
0
  6
CONTINUOUS
 62
7
 10
347.049988
 20
151.233994
 11
347.049988
 21
151.033997
  0
LINE
  8
0
  6
CONTINUOUS
 62
7
 10
343.850006
 20
151.033997
 11
343.350006
 21
150.533997
  0
LINE
  8
0
  6
CONTINUOUS
 62
7
 10
349.049988
 20
147.733994
 11
347.164001
 21
147.733994
  0
LINE
  8
0
  6
CONTINUOUS
 62
7
 10
349.049988
 20
150.533997
 11
347.549988
 21
150.533997
  0
LINE
  8
0
  6
CENTER
 62
2
 10
356.450012
 20
137.533997
 11
356.450012
 21
152.533997
  0
LINE
  8
0
  6
CENTER
 62
2
 10
331.950012
 20
102.033997
 11
345.864014
 21
102.033997
  0
LINE
  8
0
  6
CENTER
 62
2
 10
339.450012
 20
94.533997
 11
339.450012
 21
109.533997
  0
LINE
  8
0
  6
CENTER
 62
2
 10
331.950012
 20
145.033997
 11
363.950012
 21
145.033997
  0
LINE
  8
0
  6
CENTER
 62
2
 10
339.450012
 20
137.533997
 11
339.450012
 21
152.533997
  0
LINE
  8
0
  6
CONTINUOUS
 62
7
 10
331.850006
 20
131.033997
 11
343.049988
 21
131.033997
  0
LINE
  8
0
  6
CONTINUOUS
 62
7
 10
331.450012
 20
130.634003
 11
331.450012
 21
126.033997
  0
LINE
  8
0
  6
CONTINUOUS
 62
7
 10
343.450012
 20
130.634003
 11
343.450012
 21
116.433998
  0
LINE
  8
0
  6
CONTINUOUS
 62
7
 10
347.350006
 20
151.533997
 11
361.450012
 21
151.533997
  0
LINE
  8
0
  6
CONTINUOUS
 62
7
 10
360.450012
 20
122.033997
 11
361.450012
 21
122.033997
  0
LINE
  8
0
  6
CONTINUOUS
 62
7
 10
361.450012
 20
147.533997
 11
360.778015
 21
147.533997
  0
LINE
  8
0
  6
CONTINUOUS
 62
7
 10
326.450012
 20
121.033997
 11
331.450012
 21
121.033997
  0
LINE
  8
0
  6
CONTINUOUS
 62
7
 10
326.450012
 20
126.033997
 11
331.450012
 21
126.033997
  0
LINE
  8
0
  6
CONTINUOUS
 62
7
 10
361.450012
 20
142.533997
 11
360.778015
 21
142.533997
  0
LINE
  8
0
  6
CONTINUOUS
 62
7
 10
343.149994
 20
151.533997
 11
343.149994
 21
148.334000
  0
LINE
  8
0
  6
CONTINUOUS
 62
7
 10
351.450012
 20
151.533997
 11
351.450012
 21
148.334000
  0
LINE
  8
0
  6
CONTINUOUS
 62
7
 10
338.450012
 20
151.533997
 11
343.549988
 21
151.533997
  0
LINE
  8
0
  6
CONTINUOUS
 62
7
 10
345.149994
 20
146.334000
 11
349.450012
 21
146.334000
  0
LINE
  8
0
  6
CONTINUOUS
 62
7
 10
326.450012
 20
139.533997
 11
326.450012
 21
107.533997
  0
LINE
  8
0
  6
CONTINUOUS
 62
7
 10
331.450012
 20
121.033997
 11
331.450012
 21
116.433998
  0
LINE
  8
0
  6
CONTINUOUS
 62
7
 10
361.450012
 20
151.533997
 11
361.450012
 21
125.033997
  0
LINE
  8
0
  6
CONTINUOUS
 62
7
 10
361.450012
 20
95.533997
 11
338.450012
 21
95.533997
  0
LINE
  8
0
  6
CONTINUOUS
 62
7
 10
331.850006
 20
116.033997
 11
343.049988
 21
116.033997
  0
LINE
  8
0
  6
CONTINUOUS
 62
7
 10
338.578003
 20
103.533997
 11
340.307007
 21
103.533997
  0
LINE
  8
0
  6
CONTINUOUS
 62
7
 10
338.578003
 20
100.533997
 11
340.307007
 21
100.533997
  0
LINE
  8
0
  6
CONTINUOUS
 62
7
 10
340.307007
 20
100.533997
 11
341.178009
 21
102.033997
  0
LINE
  8
0
  6
CONTINUOUS
 62
7
 10
337.707001
 20
102.033997
 11
338.578003
 21
103.533997
  0
LINE
  8
0
  6
CONTINUOUS
 62
7
 10
338.578003
 20
100.533997
 11
337.707001
 21
102.033997
  0
LINE
  8
0
  6
CONTINUOUS
 62
7
 10
341.178009
 20
102.033997
 11
340.307007
 21
103.533997
  0
LINE
  8
0
  6
CONTINUOUS
 62
7
 10
341.178009
 20
145.033997
 11
340.307007
 21
146.533997
  0
LINE
  8
0
  6
CONTINUOUS
 62
7
 10
338.578003
 20
143.533997
 11
337.707001
 21
145.033997
  0
LINE
  8
0
  6
CONTINUOUS
 62
7
 10
337.707001
 20
145.033997
 11
338.578003
 21
146.533997
  0
LINE
  8
0
  6
CONTINUOUS
 62
7
 10
340.307007
 20
143.533997
 11
341.178009
 21
145.033997
  0
LINE
  8
0
  6
CONTINUOUS
 62
7
 10
338.578003
 20
143.533997
 11
340.307007
 21
143.533997
  0
LINE
  8
0
  6
CONTINUOUS
 62
7
 10
338.578003
 20
146.533997
 11
340.307007
 21
146.533997
  0
LINE
  8
0
  6
CONTINUOUS
 62
7
 10
355.578003
 20
146.533997
 11
357.307007
 21
146.533997
  0
LINE
  8
0
  6
CONTINUOUS
 62
7
 10
358.178009
 20
145.033997
 11
357.307007
 21
146.533997
  0
LINE
  8
0
  6
CONTINUOUS
 62
7
 10
355.578003
 20
143.533997
 11
354.707001
 21
145.033997
  0
LINE
  8
0
  6
CONTINUOUS
 62
7
 10
355.578003
 20
143.533997
 11
357.307007
 21
143.533997
  0
LINE
  8
0
  6
CONTINUOUS
 62
7
 10
357.307007
 20
143.533997
 11
358.178009
 21
145.033997
  0
LINE
  8
0
  6
CONTINUOUS
 62
7
 10
354.707001
 20
145.033997
 11
355.578003
 21
146.533997
  0
LINE
  8
0
  6
CONTINUOUS
 62
4
 10
323.450012
 20
151.533997
 11
331.950012
 21
151.533997
  0
LINE
  8
0
  6
CONTINUOUS
 62
4
 10
323.450012
 20
95.533997
 11
331.950012
 21
95.533997
  0
LINE
  8
0
  6
CONTINUOUS
 62
4
 10
331.950012
 20
95.533997
 11
331.950012
 21
97.446899
  0
LINE
  8
0
  6
CONTINUOUS
 62
4
 10
323.450012
 20
95.533997
 11
323.450012
 21
151.533997
  0
LINE
  8
0
  6
CENTER
 62
1
 10
366.450012
 20
123.533997
 11
318.839996
 21
123.533997
  0
LINE
  8
0
  6
CENTER
 62
1
 10
348.450012
 20
155.218994
 11
348.450012
 21
90.503304
  0
LINE
  8
0
  6
CONTINUOUS
 62
4
 10
263.048004
 20
-146.789001
 11
275.747986
 21
-146.789001
  0
LINE
  8
0
  6
CONTINUOUS
 62
4
 10
263.048004
 20
-146.789001
 11
263.048004
 21
-139.789001
  0
LINE
  8
0
  6
DASHED
 62
1
 10
266.304993
 20
-146.789001
 11
266.304993
 21
-138.789001
  0
LINE
  8
0
  6
CONTINUOUS
 62
4
 10
264.048004
 20
-138.789001
 11
276.054993
 21
-138.789001
  0
LINE
  8
0
  6
DASHED
 62
1
 10
271.804993
 20
-146.789001
 11
271.804993
 21
-138.789001
  0
LINE
  8
0
  6
CENTER
 62
1
 10
269.048004
 20
-149.289001
 11
269.048004
 21
-136.289001
  0
LINE
  8
0
  6
CENTER
 62
1
 10
339.048004
 20
-149.289001
 11
339.048004
 21
-136.289001
  0
LINE
  8
0
  6
DASHED
 62
1
 10
336.304993
 20
-146.789001
 11
336.304993
 21
-138.789001
  0
LINE
  8
0
  6
DASHED
 62
1
 10
341.804993
 20
-146.789001
 11
341.804993
 21
-138.789001
  0
LINE
  8
0
  6
CONTINUOUS
 62
4
 10
344.048004
 20
-138.789001
 11
332.054993
 21
-138.789001
  0
LINE
  8
0
  6
CONTINUOUS
 62
4
 10
345.048004
 20
-146.789001
 11
332.347992
 21
-146.789001
  0
LINE
  8
0
  6
CONTINUOUS
 62
4
 10
345.048004
 20
-146.789001
 11
345.048004
 21
-139.789001
  0
LINE
  8
0
  6
CENTER
 62
1
 10
185.048004
 20
-135.488998
 11
185.048004
 21
-150.503006
  0
LINE
  8
0
  6
DASHED
 62
1
 10
187.804993
 20
-138.789001
 11
187.804993
 21
-146.789001
  0
LINE
  8
0
  6
DASHED
 62
1
 10
182.304993
 20
-138.789001
 11
182.304993
 21
-146.789001
  0
LINE
  8
0
  6
DASHED
 62
1
 10
152.804993
 20
-138.789001
 11
152.804993
 21
-146.789001
  0
LINE
  8
0
  6
DASHED
 62
1
 10
147.304993
 20
-138.789001
 11
147.304993
 21
-146.789001
  0
LINE
  8
0
  6
CENTER
 62
1
 10
150.048004
 20
-135.488998
 11
150.048004
 21
-150.503006
  0
LINE
  8
0
  6
CONTINUOUS
 62
4
 10
192.548004
 20
-138.789001
 11
192.548004
 21
-146.789001
  0
LINE
  8
0
  6
CONTINUOUS
 62
4
 10
142.548004
 20
-138.789001
 11
142.548004
 21
-146.789001
  0
LINE
  8
0
  6
CONTINUOUS
 62
4
 10
142.548004
 20
-138.789001
 11
192.548004
 21
-138.789001
  0
ARC
  8
0
  6
CONTINUOUS
 62
3
 10
288.054993
 20
-123.789001
 40
12.000000
 50
90.000000
 51
180.000000
  0
ARC
  8
0
  6
CONTINUOUS
 62
3
 10
320.054993
 20
-123.789001
 40
12.000000
 50
0.000073
 51
90.000000
  0
ARC
  8
0
  6
CONTINUOUS
 62
3
 10
328.855011
 20
-130.488998
 40
2.000000
 50
90.000000
 51
180.000000
  0
ARC
  8
0
  6
CONTINUOUS
 62
3
 10
328.855011
 20
-134.789001
 40
2.000000
 50
180.000000
 51
270.000000
  0
CIRCLE
  8
0
  6
CENTER
 62
2
 10
-204.216003
 20
151.492004
 40
2.500000
  0
CIRCLE
  8
0
  6
CONTINUOUS
 62
7
 10
-204.216003
 20
151.492004
 40
2.100000
  0
CIRCLE
  8
0
  6
CONTINUOUS
 62
2
 10
-264.216003
 20
151.492004
 40
2.500000
  0
CIRCLE
  8
0
  6
CONTINUOUS
 62
7
 10
-264.216003
 20
151.492004
 40
2.100000
  0
CIRCLE
  8
0
  6
CONTINUOUS
 62
2
 10
-204.216003
 20
177.492004
 40
2.500000
  0
CIRCLE
  8
0
  6
CONTINUOUS
 62
7
 10
-204.216003
 20
177.492004
 40
2.100000
  0
CIRCLE
  8
0
  6
CONTINUOUS
 62
7
 10
-264.216003
 20
177.492004
 40
2.100000
  0
CIRCLE
  8
0
  6
CONTINUOUS
 62
2
 10
-264.216003
 20
177.492004
 40
2.500000
  0
ARC
  8
0
  6
CONTINUOUS
 62
7
 10
-192.716003
 20
156.992004
 40
1.000000
 50
270.000000
 51
0.000000
  0
ARC
  8
0
  6
CONTINUOUS
 62
7
 10
-192.716003
 20
171.992004
 40
1.000000
 50
0.000000
 51
90.000000
  0
ARC
  8
0
  6
CONTINUOUS
 62
7
 10
-275.716003
 20
156.992004
 40
1.000000
 50
180.000000
 51
270.000000
  0
ARC
  8
0
  6
CONTINUOUS
 62
7
 10
-275.716003
 20
171.992004
 40
1.000020
 50
90.000000
 51
179.998993
  0
ARC
  8
0
  6
CONTINUOUS
 62
7
 10
-132.921997
 20
158.059998
 40
0.505467
 50
280.390991
 51
0.319979
  0
ARC
  8
0
  6
CONTINUOUS
 62
7
 10
-132.921005
 20
162.488007
 40
0.504349
 50
280.283997
 51
0.426434
  0
ARC
  8
0
  6
CONTINUOUS
 62
7
 10
-132.914993
 20
170.914993
 40
0.498473
 50
359.003998
 51
80.284500
  0
ARC
  8
0
  6
CONTINUOUS
 62
7
 10
-132.914001
 20
166.487000
 40
0.497406
 50
358.898010
 51
80.391800
  0
ARC
  8
0
  6
CONTINUOUS
 62
7
 10
-132.921997
 20
166.059998
 40
0.505452
 50
280.391998
 51
0.321718
  0
ARC
  8
0
  6
CONTINUOUS
 62
7
 10
-135.209000
 20
167.901993
 40
0.507538
 50
179.550003
 51
257.768005
  0
ARC
  8
0
  6
CONTINUOUS
 62
7
 10
-132.975998
 20
174.108994
 40
0.560722
 50
268.842987
 51
80.899902
  0
ARC
  8
0
  6
CONTINUOUS
 62
7
 10
-135.216003
 20
169.072998
 40
0.500575
 50
101.580002
 51
181.100006
  0
ARC
  8
0
  6
CONTINUOUS
 62
7
 10
-132.914001
 20
158.487000
 40
0.497392
 50
358.895996
 51
80.391502
  0
ARC
  8
0
  6
CONTINUOUS
 62
7
 10
-130.716003
 20
190.492004
 40
1.500000
 50
90.000000
 51
180.000000
  0
ARC
  8
0
  6
CONTINUOUS
 62
7
 10
-130.716003
 20
138.492004
 40
1.500000
 50
180.000000
 51
270.000000
  0
CIRCLE
  8
0
  6
CONTINUOUS
 62
7
 10
-121.216003
 20
151.492004
 40
2.900000
  0
ARC
  8
0
  6
CONTINUOUS
 62
7
 10
-132.975006
 20
154.860001
 40
0.560644
 50
278.970001
 51
91.286598
  0
ARC
  8
0
  6
CONTINUOUS
 62
7
 10
-135.216003
 20
161.072998
 40
0.500575
 50
101.580002
 51
181.100006
  0
ARC
  8
0
  6
CONTINUOUS
 62
7
 10
-135.209000
 20
159.901993
 40
0.507553
 50
179.552002
 51
257.769012
  0
ARC
  8
0
  6
CONTINUOUS
 62
7
 10
-132.921005
 20
170.488007
 40
0.504352
 50
280.286011
 51
0.426434
  0
ARC
  8
0
  6
CONTINUOUS
 62
7
 10
-132.914993
 20
162.914993
 40
0.498473
 50
359.002014
 51
80.286003
  0
ARC
  8
0
  6
CONTINUOUS
 62
7
 10
-109.716003
 20
190.992004
 40
1.500000
 50
0.000000
 51
89.999702
  0
ARC
  8
0
  6
CONTINUOUS
 62
7
 10
-109.716003
 20
137.992004
 40
1.500000
 50
270.000000
 51
0.000000
  0
CIRCLE
  8
0
  6
CONTINUOUS
 62
7
 10
-121.216003
 20
151.492004
 40
4.800000
  0
CIRCLE
  8
0
  6
CONTINUOUS
 62
7
 10
-121.216003
 20
177.492004
 40
4.800000
  0
ARC
  8
0
  6
CONTINUOUS
 62
7
 10
-121.216003
 20
151.483994
 40
7.000810
 50
148.985992
 51
211.014008
  0
ARC
  8
0
  6
CONTINUOUS
 62
7
 10
-121.216003
 20
177.483994
 40
7.000810
 50
148.985992
 51
211.014008
  0
CIRCLE
  8
0
  6
CONTINUOUS
 62
7
 10
-121.216003
 20
177.492004
 40
2.900000
  0
ARC
  8
0
  6
CONTINUOUS
 62
7
 10
-285.510986
 20
158.059998
 40
0.505471
 50
179.679993
 51
259.609985
  0
ARC
  8
0
  6
CONTINUOUS
 62
7
 10
-285.511993
 20
162.488007
 40
0.504347
 50
179.574005
 51
259.713989
  0
ARC
  8
0
  6
CONTINUOUS
 62
7
 10
-285.518005
 20
170.914993
 40
0.498480
 50
99.713799
 51
180.996002
  0
ARC
  8
0
  6
CONTINUOUS
 62
7
 10
-285.519012
 20
166.487000
 40
0.497413
 50
99.610001
 51
181.102005
  0
ARC
  8
0
  6
CONTINUOUS
 62
7
 10
-285.510986
 20
166.059998
 40
0.505471
 50
179.677994
 51
259.609985
  0
ARC
  8
0
  6
CONTINUOUS
 62
7
 10
-283.222992
 20
167.904007
 40
0.506254
 50
280.464996
 51
0.245221
  0
ARC
  8
0
  6
CONTINUOUS
 62
7
 10
-285.455994
 20
174.108994
 40
0.560723
 50
99.100197
 51
271.157013
  0
ARC
  8
0
  6
CONTINUOUS
 62
7
 10
-283.216003
 20
169.070999
 40
0.499241
 50
359.079010
 51
80.208900
  0
ARC
  8
0
  6
CONTINUOUS
 62
7
 10
-285.519012
 20
158.487000
 40
0.497393
 50
99.606796
 51
181.104004
  0
ARC
  8
0
  6
CONTINUOUS
 62
7
 10
-287.716003
 20
190.492004
 40
1.500000
 50
0.000000
 51
90.000000
  0
ARC
  8
0
  6
CONTINUOUS
 62
7
 10
-287.716003
 20
138.492004
 40
1.500000
 50
270.000000
 51
0.000000
  0
CIRCLE
  8
0
  6
CONTINUOUS
 62
7
 10
-297.216003
 20
151.492004
 40
2.900000
  0
ARC
  8
0
  6
CONTINUOUS
 62
7
 10
-285.457001
 20
154.860001
 40
0.560642
 50
88.714996
 51
261.031006
  0
ARC
  8
0
  6
CONTINUOUS
 62
7
 10
-283.216003
 20
161.070999
 40
0.499241
 50
359.079010
 51
80.208900
  0
ARC
  8
0
  6
CONTINUOUS
 62
7
 10
-283.222992
 20
159.904007
 40
0.506259
 50
280.467987
 51
0.245221
  0
ARC
  8
0
  6
CONTINUOUS
 62
7
 10
-285.511993
 20
170.488007
 40
0.504347
 50
179.574005
 51
259.713989
  0
ARC
  8
0
  6
CONTINUOUS
 62
7
 10
-285.518005
 20
162.914993
 40
0.498465
 50
99.714104
 51
180.998001
  0
ARC
  8
0
  6
CONTINUOUS
 62
7
 10
-194.216003
 20
177.492004
 40
7.000000
 50
0.000000
 51
90.000000
  0
ARC
  8
0
  6
CONTINUOUS
 62
7
 10
-194.216003
 20
151.492004
 40
6.999980
 50
270.000000
 51
0.000125
  0
ARC
  8
0
  6
CONTINUOUS
 62
7
 10
-274.162994
 20
151.488007
 40
6.996430
 50
179.970993
 51
270.028992
  0
ARC
  8
0
  6
CONTINUOUS
 62
7
 10
-274.162994
 20
177.494995
 40
6.996450
 50
89.970802
 51
180.029007
  0
ARC
  8
0
  6
CONTINUOUS
 62
7
 10
-308.716003
 20
190.992004
 40
1.500000
 50
90.000000
 51
180.000000
  0
ARC
  8
0
  6
CONTINUOUS
 62
7
 10
-308.716003
 20
137.992004
 40
1.500000
 50
180.000000
 51
270.000000
  0
CIRCLE
  8
0
  6
CONTINUOUS
 62
7
 10
-297.216003
 20
151.492004
 40
4.800000
  0
CIRCLE
  8
0
  6
CONTINUOUS
 62
7
 10
-297.216003
 20
177.492004
 40
4.800000
  0
ARC
  8
0
  6
CONTINUOUS
 62
7
 10
-297.216003
 20
151.483994
 40
7.000820
 50
328.985992
 51
31.013901
  0
ARC
  8
0
  6
CONTINUOUS
 62
7
 10
-297.216003
 20
177.483994
 40
7.000820
 50
328.985992
 51
31.013901
  0
CIRCLE
  8
0
  6
CONTINUOUS
 62
7
 10
-297.216003
 20
177.492004
 40
2.900000
  0
ARC
  8
0
  6
CONTINUOUS
 62
7
 10
-287.716003
 20
93.491600
 40
1.500000
 50
0.000000
 51
90.000000
  0
ARC
  8
0
  6
CONTINUOUS
 62
7
 10
-130.716003
 20
93.491600
 40
1.500000
 50
90.000000
 51
180.000000
  0
ARC
  8
0
  6
CONTINUOUS
 62
7
 10
-134.216003
 20
86.491600
 40
2.000000
 50
270.000000
 51
0.000000
  0
ARC
  8
0
  6
CONTINUOUS
 62
7
 10
-284.216003
 20
86.491600
 40
2.000000
 50
180.000000
 51
270.000000
  0
ARC
  8
0
  6
CONTINUOUS
 62
7
 10
-302.220001
 20
68.998596
 40
9.014600
 50
15.771500
 51
41.546799
  0
ARC
  8
0
  6
CONTINUOUS
 62
7
 10
-291.625000
 20
71.985199
 40
1.993600
 50
195.610001
 51
269.834015
  0
ARC
  8
0
  6
CONTINUOUS
 62
7
 10
-293.984009
 20
76.299797
 40
1.991820
 50
90.107101
 51
221.602005
  0
ARC
  8
0
  6
CONTINUOUS
 62
7
 10
-187.815994
 20
90.191597
 40
0.300003
 50
0.000000
 51
90.000000
  0
ARC
  8
0
  6
CONTINUOUS
 62
7
 10
-280.615997
 20
90.191597
 40
0.300003
 50
90.000000
 51
180.000000
  0
CIRCLE
  8
0
  6
CONTINUOUS
 62
7
 10
-302.216003
 20
68.991600
 40
6.000000
  0
CIRCLE
  8
0
  6
CONTINUOUS
 62
2
 10
-302.216003
 20
68.991600
 40
5.000000
  0
CIRCLE
  8
0
  6
CONTINUOUS
 62
7
 10
-302.216003
 20
68.991600
 40
4.250000
  0
CIRCLE
  8
0
  6
CONTINUOUS
 62
7
 10
-116.216003
 20
68.991600
 40
6.000000
  0
ARC
  8
0
  6
CONTINUOUS
 62
7
 10
-187.022995
 20
88.001999
 40
0.493805
 50
179.548996
 51
257.356995
  0
ARC
  8
0
  6
CONTINUOUS
 62
7
 10
-281.411987
 20
87.999901
 40
0.495568
 50
284.503998
 51
0.686260
  0
CIRCLE
  8
0
  6
CONTINUOUS
 62
2
 10
-116.216003
 20
68.991600
 40
5.000000
  0
CIRCLE
  8
0
  6
CONTINUOUS
 62
7
 10
-116.216003
 20
68.991600
 40
4.250000
  0
ARC
  8
0
  6
CONTINUOUS
 62
7
 10
-116.212997
 20
68.998596
 40
9.014590
 50
138.453003
 51
164.227997
  0
ARC
  8
0
  6
CONTINUOUS
 62
7
 10
-109.716003
 20
93.491600
 40
1.500010
 50
0.000291
 51
89.999702
  0
ARC
  8
0
  6
CONTINUOUS
 62
7
 10
-126.807999
 20
71.985199
 40
1.993580
 50
270.165985
 51
344.390991
  0
ARC
  8
0
  6
CONTINUOUS
 62
7
 10
-124.448997
 20
76.299797
 40
1.991820
 50
318.398010
 51
89.892899
  0
ARC
  8
0
  6
CONTINUOUS
 62
7
 10
-308.716003
 20
93.491600
 40
1.500010
 50
90.000000
 51
180.000000
  0
CIRCLE
  8
0
  6
CONTINUOUS
 62
4
 10
-227.216003
 20
75.991600
 40
1.500000
  0
CIRCLE
  8
0
  6
CONTINUOUS
 62
4
 10
-177.216003
 20
75.991600
 40
1.500000
  0
CIRCLE
  8
0
  6
CONTINUOUS
 62
7
 10
25.283600
 20
64.991600
 40
1.732050
  0
CIRCLE
  8
0
  6
CONTINUOUS
 62
7
 10
25.283600
 20
81.991600
 40
1.732050
  0
CIRCLE
  8
0
  6
CONTINUOUS
 62
7
 10
-17.716400
 20
81.991600
 40
1.732050
  0
ARC
  8
0
  6
CONTINUOUS
 62
7
 10
25.282200
 20
81.990799
 40
4.996370
 50
312.235992
 51
287.830994
  0
ARC
  8
0
  6
CONTINUOUS
 62
7
 10
25.283600
 20
64.991600
 40
4.998660
 50
300.009003
 51
239.990997
  0
ARC
  8
0
  6
CONTINUOUS
 62
7
 10
-12.216400
 20
82.991600
 40
12.000000
 50
90.000000
 51
180.000000
  0
ARC
  8
0
  6
CONTINUOUS
 62
7
 10
19.783600
 20
82.991600
 40
12.000000
 50
0.000073
 51
89.999901
  0
CIRCLE
  8
0
  6
CONTINUOUS
 62
7
 10
-17.716400
 20
81.991600
 40
5.000000
  0
ARC
  8
0
  6
CONTINUOUS
 62
7
 10
-3.316430
 20
89.591599
 40
0.399986
 50
89.998398
 51
180.001007
  0
ARC
  8
0
  6
CONTINUOUS
 62
7
 10
-3.316420
 20
78.391602
 40
0.399999
 50
180.000000
 51
270.000000
  0
ARC
  8
0
  6
CONTINUOUS
 62
7
 10
10.883600
 20
78.391602
 40
0.400002
 50
270.000000
 51
0.000000
  0
ARC
  8
0
  6
CONTINUOUS
 62
7
 10
10.883600
 20
89.591599
 40
0.400013
 50
0.002186
 51
89.998100
  0
ARC
  8
0
  6
CONTINUOUS
 62
7
 10
28.583599
 20
76.291603
 40
2.000000
 50
89.999901
 51
180.000000
  0
ARC
  8
0
  6
CONTINUOUS
 62
7
 10
28.583599
 20
71.991600
 40
1.999990
 50
180.000000
 51
270.000000
  0
CIRCLE
  8
0
  6
CONTINUOUS
 62
7
 10
25.283600
 20
81.991600
 40
4.500000
  0
CIRCLE
  8
0
  6
CONTINUOUS
 62
7
 10
-17.716400
 20
81.991600
 40
4.500000
  0
CIRCLE
  8
0
  6
CONTINUOUS
 62
7
 10
25.283600
 20
64.991600
 40
4.500000
  0
ARC
  8
0
  6
CONTINUOUS
 62
7
 10
29.383600
 20
72.391602
 40
1.400000
 50
180.000000
 51
0.000000
  0
ARC
  8
0
  6
CONTINUOUS
 62
7
 10
31.483601
 20
74.091599
 40
0.300007
 50
0.001457
 51
89.998497
  0
ARC
  8
0
  6
CONTINUOUS
 62
7
 10
31.483601
 20
77.891602
 40
0.299995
 50
270.000000
 51
0.000000
  0
ARC
  8
0
  6
CONTINUOUS
 62
7
 10
29.184700
 20
75.995300
 40
2.096270
 50
90.031700
 51
235.039993
  0
CIRCLE
  8
0
  6
CONTINUOUS
 62
4
 10
-262.216003
 20
-105.194000
 40
4.750000
  0
CIRCLE
  8
0
  6
CONTINUOUS
 62
4
 10
-274.216003
 20
-105.194000
 40
4.750000
  0
CIRCLE
  8
0
  6
CONTINUOUS
 62
4
 10
-262.216003
 20
-105.194000
 40
2.750000
  0
CIRCLE
  8
0
  6
CONTINUOUS
 62
4
 10
-274.216003
 20
-105.194000
 40
2.750000
  0
CIRCLE
  8
0
  6
CONTINUOUS
 62
4
 10
-262.216003
 20
-35.193699
 40
4.750000
  0
CIRCLE
  8
0
  6
CONTINUOUS
 62
4
 10
-274.216003
 20
-35.193699
 40
4.750000
  0
CIRCLE
  8
0
  6
CONTINUOUS
 62
4
 10
-262.216003
 20
-35.193699
 40
2.750000
  0
CIRCLE
  8
0
  6
CONTINUOUS
 62
4
 10
-274.216003
 20
-35.193699
 40
2.750000
  0
CIRCLE
  8
0
  6
CONTINUOUS
 62
4
 10
-144.216003
 20
-105.194000
 40
2.750000
  0
CIRCLE
  8
0
  6
CONTINUOUS
 62
4
 10
-156.216003
 20
-105.194000
 40
2.750000
  0
CIRCLE
  8
0
  6
CONTINUOUS
 62
4
 10
-144.216003
 20
-35.193699
 40
2.750000
  0
CIRCLE
  8
0
  6
CONTINUOUS
 62
4
 10
-156.216003
 20
-35.193699
 40
2.750000
  0
CIRCLE
  8
0
  6
CONTINUOUS
 62
4
 10
-144.216003
 20
-35.193699
 40
4.750000
  0
CIRCLE
  8
0
  6
CONTINUOUS
 62
4
 10
-156.216003
 20
-35.193699
 40
4.750000
  0
CIRCLE
  8
0
  6
CONTINUOUS
 62
4
 10
-144.216003
 20
-105.194000
 40
4.750000
  0
CIRCLE
  8
0
  6
CONTINUOUS
 62
4
 10
-156.216003
 20
-105.194000
 40
4.750000
  0
CIRCLE
  8
0
  6
CONTINUOUS
 62
4
 10
-264.216003
 20
-83.193604
 40
4.750000
  0
CIRCLE
  8
0
  6
CONTINUOUS
 62
1
 10
-254.216003
 20
-83.193604
 40
2.500000
  0
CIRCLE
  8
0
  6
CONTINUOUS
 62
4
 10
-254.216003
 20
-83.193604
 40
2.000000
  0
CIRCLE
  8
0
  6
CONTINUOUS
 62
4
 10
-214.216003
 20
-57.193699
 40
2.000000
  0
CIRCLE
  8
0
  6
CONTINUOUS
 62
1
 10
-214.216003
 20
-57.193699
 40
2.500000
  0
CIRCLE
  8
0
  6
CONTINUOUS
 62
4
 10
-204.216003
 20
-57.193699
 40
4.750000
  0
CIRCLE
  8
0
  6
CONTINUOUS
 62
4
 10
-204.216003
 20
-57.193699
 40
4.250000
  0
CIRCLE
  8
0
  6
CONTINUOUS
 62
4
 10
-204.216003
 20
-83.193604
 40
4.250000
  0
CIRCLE
  8
0
  6
CONTINUOUS
 62
4
 10
-204.216003
 20
-83.193604
 40
4.750000
  0
CIRCLE
  8
0
  6
CONTINUOUS
 62
1
 10
-214.216003
 20
-83.193604
 40
2.500000
  0
CIRCLE
  8
0
  6
CONTINUOUS
 62
4
 10
-214.216003
 20
-83.193604
 40
2.000000
  0
CIRCLE
  8
0
  6
CONTINUOUS
 62
4
 10
-264.216003
 20
-57.193699
 40
4.750000
  0
CIRCLE
  8
0
  6
CONTINUOUS
 62
4
 10
-264.216003
 20
-57.193699
 40
4.250000
  0
CIRCLE
  8
0
  6
CONTINUOUS
 62
4
 10
-264.216003
 20
-83.193604
 40
4.250000
  0
ARC
  8
0
  6
CONTINUOUS
 62
7
 10
-194.268005
 20
-57.191700
 40
6.994250
 50
359.984009
 51
68.605698
  0
ARC
  8
0
  6
CONTINUOUS
 62
7
 10
-194.274002
 20
-83.205399
 40
7.000890
 50
291.431000
 51
0.096157
  0
ARC
  8
0
  6
CONTINUOUS
 62
7
 10
-274.213989
 20
-83.196701
 40
7.002110
 50
179.975006
 51
249.063004
  0
ARC
  8
0
  6
CONTINUOUS
 62
7
 10
-274.221008
 20
-57.200298
 40
6.995440
 50
110.899002
 51
179.945999
  0
CIRCLE
  8
0
  6
CONTINUOUS
 62
4
 10
-254.216003
 20
-57.193699
 40
2.000000
  0
CIRCLE
  8
0
  6
CONTINUOUS
 62
1
 10
-254.216003
 20
-57.193699
 40
2.500000
  0
CIRCLE
  8
0
  6
CONTINUOUS
 62
1
 10
-116.216003
 20
-193.194000
 40
5.000000
  0
CIRCLE
  8
0
  6
CONTINUOUS
 62
4
 10
-116.216003
 20
-193.194000
 40
4.250000
  0
CIRCLE
  8
0
  6
CONTINUOUS
 62
4
 10
-116.216003
 20
-193.194000
 40
6.000000
  0
ARC
  8
0
  6
CONTINUOUS
 62
4
 10
-116.216003
 20
-193.194000
 40
10.000000
 50
89.999901
 51
180.000000
  0
ARC
  8
0
  6
CONTINUOUS
 62
4
 10
-139.216003
 20
-171.194000
 40
6.000000
 50
270.000000
 51
0.000000
  0
ARC
  8
0
  6
CONTINUOUS
 62
7
 10
-187.020996
 20
-174.184998
 40
0.495580
 50
179.313995
 51
255.496002
  0
ARC
  8
0
  6
CONTINUOUS
 62
7
 10
-187.815994
 20
-172.194000
 40
0.300003
 50
0.000000
 51
90.000000
  0
ARC
  8
0
  6
CONTINUOUS
 62
7
 10
-281.410004
 20
-174.182999
 40
0.493796
 50
282.640991
 51
0.449717
  0
ARC
  8
0
  6
CONTINUOUS
 62
7
 10
-188.923996
 20
-171.988007
 40
0.294629
 50
18.713600
 51
88.516098
  0
ARC
  8
0
  6
CONTINUOUS
 62
7
 10
-279.518005
 20
-171.994995
 40
0.301352
 50
89.634499
 51
160.347000
  0
ARC
  8
0
  6
CONTINUOUS
 62
7
 10
-280.615997
 20
-172.194000
 40
0.300003
 50
90.000000
 51
180.000000
  0
CIRCLE
  8
0
  6
CONTINUOUS
 62
4
 10
-302.216003
 20
-193.194000
 40
6.000000
  0
ARC
  8
0
  6
CONTINUOUS
 62
4
 10
-302.216003
 20
-193.194000
 40
10.000000
 50
0.000000
 51
90.000000
  0
ARC
  8
0
  6
CONTINUOUS
 62
4
 10
-279.216003
 20
-171.194000
 40
6.000000
 50
180.000000
 51
270.000000
  0
CIRCLE
  8
0
  6
CONTINUOUS
 62
4
 10
-302.216003
 20
-193.194000
 40
4.250000
  0
CIRCLE
  8
0
  6
CONTINUOUS
 62
1
 10
-302.216003
 20
-193.194000
 40
5.000000
  0
CIRCLE
  8
0
  6
CONTINUOUS
 62
7
 10
26.433599
 20
-197.194000
 40
1.732050
  0
CIRCLE
  8
0
  6
CONTINUOUS
 62
7
 10
26.433599
 20
-180.194000
 40
1.732050
  0
CIRCLE
  8
0
  6
CONTINUOUS
 62
7
 10
-16.566401
 20
-180.194000
 40
1.732050
  0
ARC
  8
0
  6
CONTINUOUS
 62
7
 10
12.033600
 20
-172.593994
 40
0.399996
 50
0.000000
 51
90.000603
  0
ARC
  8
0
  6
CONTINUOUS
 62
7
 10
12.033600
 20
-183.794006
 40
0.399994
 50
270.000000
 51
0.000000
  0
CIRCLE
  8
0
  6
CONTINUOUS
 62
7
 10
-16.566401
 20
-180.194000
 40
5.000000
  0
ARC
  8
0
  6
CONTINUOUS
 62
7
 10
-2.166360
 20
-183.794006
 40
0.400005
 50
180.000000
 51
269.998993
  0
ARC
  8
0
  6
CONTINUOUS
 62
7
 10
20.933599
 20
-179.194000
 40
12.000000
 50
0.000000
 51
90.000000
  0
ARC
  8
0
  6
CONTINUOUS
 62
7
 10
-11.066400
 20
-179.194000
 40
12.000000
 50
89.999901
 51
180.000000
  0
ARC
  8
0
  6
CONTINUOUS
 62
7
 10
26.433599
 20
-197.194000
 40
4.998650
 50
300.009003
 51
239.990997
  0
ARC
  8
0
  6
CONTINUOUS
 62
7
 10
-2.166390
 20
-172.593994
 40
0.399979
 50
89.996902
 51
180.001999
  0
ARC
  8
0
  6
CONTINUOUS
 62
7
 10
26.432301
 20
-180.194000
 40
4.996380
 50
312.235992
 51
287.830994
  0
ARC
  8
0
  6
CONTINUOUS
 62
4
 10
-11.066400
 20
-179.194000
 40
13.000000
 50
89.999901
 51
180.000000
  0
ARC
  8
0
  6
CONTINUOUS
 62
4
 10
20.933599
 20
-179.194000
 40
13.000000
 50
0.000000
 51
90.000000
  0
CIRCLE
  8
0
  6
CONTINUOUS
 62
1
 10
4.933620
 20
-156.194000
 40
6.250000
  0
CIRCLE
  8
0
  6
CONTINUOUS
 62
4
 10
4.933620
 20
-156.194000
 40
7.000000
  0
ARC
  8
0
  6
CONTINUOUS
 62
4
 10
20.929501
 20
-179.188995
 40
25.004101
 50
359.988007
 51
78.254700
  0
ARC
  8
0
  6
CONTINUOUS
 62
4
 10
-11.060800
 20
-179.186996
 40
25.005600
 50
101.780998
 51
180.016006
  0
ARC
  8
0
  6
CONTINUOUS
 62
4
 10
4.926490
 20
-171.194000
 40
25.006399
 50
48.647800
 51
131.352005
  0
ARC
  8
0
  6
CONTINUOUS
 62
4
 10
33.933601
 20
-186.194000
 40
2.000000
 50
0.000000
 51
90.000000
  0
ARC
  8
0
  6
CONTINUOUS
 62
4
 10
-24.066401
 20
-186.194000
 40
1.999980
 50
89.999702
 51
180.000000
  0
ARC
  8
0
  6
CONTINUOUS
 62
4
 10
28.054899
 20
-144.921997
 40
9.994980
 50
228.621002
 51
258.248993
  0
ARC
  8
0
  6
CONTINUOUS
 62
4
 10
-18.199100
 20
-144.927994
 40
9.988810
 50
281.742004
 51
311.388000
  0
ARC
  8
0
  6
CONTINUOUS
 62
7
 10
30.334801
 20
-186.190002
 40
2.096270
 50
90.031403
 51
235.041000
  0
ARC
  8
0
  6
CONTINUOUS
 62
7
 10
32.633598
 20
-184.294006
 40
0.300003
 50
270.001007
 51
359.997009
  0
ARC
  8
0
  6
CONTINUOUS
 62
7
 10
32.633598
 20
-188.093994
 40
0.300003
 50
0.000000
 51
90.000000
  0
ARC
  8
0
  6
CONTINUOUS
 62
7
 10
30.533600
 20
-189.794006
 40
1.400000
 50
180.000000
 51
0.000000
  0
CIRCLE
  8
0
  6
CONTINUOUS
 62
7
 10
26.433599
 20
-197.194000
 40
4.500000
  0
CIRCLE
  8
0
  6
CONTINUOUS
 62
7
 10
-16.566401
 20
-180.194000
 40
4.500000
  0
CIRCLE
  8
0
  6
CONTINUOUS
 62
7
 10
26.433599
 20
-180.194000
 40
4.500000
  0
ARC
  8
0
  6
CONTINUOUS
 62
7
 10
29.733601
 20
-190.194000
 40
2.000000
 50
180.000000
 51
270.000000
  0
ARC
  8
0
  6
CONTINUOUS
 62
7
 10
29.733601
 20
-185.893997
 40
1.999980
 50
89.999702
 51
180.000000
  0
CIRCLE
  8
0
  6
CONTINUOUS
 62
7
 10
162.735992
 20
110.533997
 40
2.900000
  0
ARC
  8
0
  6
CONTINUOUS
 62
7
 10
151.235992
 20
150.033997
 40
1.500000
 50
90.000000
 51
180.000000
  0
ARC
  8
0
  6
CONTINUOUS
 62
7
 10
151.235992
 20
97.033997
 40
1.500000
 50
180.000000
 51
270.000000
  0
CIRCLE
  8
0
  6
CONTINUOUS
 62
7
 10
162.735992
 20
110.533997
 40
4.800000
  0
CIRCLE
  8
0
  6
CONTINUOUS
 62
7
 10
162.735992
 20
136.533997
 40
4.800000
  0
ARC
  8
0
  6
CONTINUOUS
 62
7
 10
162.735992
 20
110.527000
 40
7.000820
 50
328.985992
 51
31.013901
  0
ARC
  8
0
  6
CONTINUOUS
 62
7
 10
162.735992
 20
136.526993
 40
7.000820
 50
328.985992
 51
31.013901
  0
CIRCLE
  8
0
  6
CONTINUOUS
 62
7
 10
162.735992
 20
136.533997
 40
2.900000
  0
CIRCLE
  8
0
  6
CONTINUOUS
 62
1
 10
273.235992
 20
100.533997
 40
2.500000
  0
CIRCLE
  8
0
  6
CONTINUOUS
 62
1
 10
178.235992
 20
100.533997
 40
2.500000
  0
CIRCLE
  8
0
  6
CONTINUOUS
 62
4
 10
178.235992
 20
100.533997
 40
2.100000
  0
CIRCLE
  8
0
  6
CONTINUOUS
 62
1
 10
273.235992
 20
146.533997
 40
2.500000
  0
CIRCLE
  8
0
  6
CONTINUOUS
 62
4
 10
273.235992
 20
100.533997
 40
2.100000
  0
CIRCLE
  8
0
  6
CONTINUOUS
 62
1
 10
178.235992
 20
146.533997
 40
2.500000
  0
CIRCLE
  8
0
  6
CONTINUOUS
 62
4
 10
178.235992
 20
146.533997
 40
2.100000
  0
CIRCLE
  8
0
  6
CONTINUOUS
 62
4
 10
273.235992
 20
146.533997
 40
2.100000
  0
ARC
  8
0
  6
CONTINUOUS
 62
4
 10
165.735992
 20
110.533997
 40
8.500000
 50
331.927002
 51
28.072500
  0
ARC
  8
0
  6
CONTINUOUS
 62
4
 10
285.735992
 20
110.533997
 40
8.500000
 50
151.927002
 51
208.072006
  0
ARC
  8
0
  6
CONTINUOUS
 62
4
 10
165.735992
 20
136.533997
 40
8.500000
 50
331.927002
 51
28.072500
  0
ARC
  8
0
  6
CONTINUOUS
 62
4
 10
285.735992
 20
136.533997
 40
8.500000
 50
151.927994
 51
208.072006
  0
ARC
  8
0
  6
CONTINUOUS
 62
4
 10
275.235992
 20
98.533997
 40
3.000010
 50
270.000000
 51
360.000000
  0
ARC
  8
0
  6
CONTINUOUS
 62
4
 10
176.235992
 20
148.533997
 40
3.000020
 50
90.000298
 51
180.000000
  0
ARC
  8
0
  6
CONTINUOUS
 62
4
 10
275.235992
 20
148.533997
 40
3.000000
 50
0.000291
 51
90.000000
  0
ARC
  8
0
  6
CONTINUOUS
 62
4
 10
266.235992
 20
109.533997
 40
7.000000
 50
270.000000
 51
0.000000
  0
ARC
  8
0
  6
CONTINUOUS
 62
4
 10
184.936005
 20
109.533997
 40
7.000000
 50
180.000000
 51
270.000000
  0
ARC
  8
0
  6
CONTINUOUS
 62
4
 10
176.235992
 20
98.533997
 40
3.000000
 50
180.000000
 51
270.000000
  0
ARC
  8
0
  6
CONTINUOUS
 62
4
 10
184.936005
 20
137.533997
 40
7.000000
 50
90.000000
 51
180.000000
  0
ARC
  8
0
  6
CONTINUOUS
 62
4
 10
266.235992
 20
137.533997
 40
7.000000
 50
0.000000
 51
90.000000
  0
CIRCLE
  8
0
  6
CONTINUOUS
 62
2
 10
255.735992
 20
110.533997
 40
2.500000
  0
CIRCLE
  8
0
  6
CONTINUOUS
 62
7
 10
255.735992
 20
110.533997
 40
2.100000
  0
CIRCLE
  8
0
  6
CONTINUOUS
 62
2
 10
195.735992
 20
110.533997
 40
2.500000
  0
CIRCLE
  8
0
  6
CONTINUOUS
 62
7
 10
195.735992
 20
110.533997
 40
2.100000
  0
CIRCLE
  8
0
  6
CONTINUOUS
 62
2
 10
255.735992
 20
136.533997
 40
2.500000
  0
CIRCLE
  8
0
  6
CONTINUOUS
 62
7
 10
255.735992
 20
136.533997
 40
2.100000
  0
CIRCLE
  8
0
  6
CONTINUOUS
 62
7
 10
195.735992
 20
136.533997
 40
2.100000
  0
CIRCLE
  8
0
  6
CONTINUOUS
 62
2
 10
195.735992
 20
136.533997
 40
2.500000
  0
ARC
  8
0
  6
CONTINUOUS
 62
7
 10
267.235992
 20
116.033997
 40
1.000000
 50
270.000000
 51
0.000000
  0
ARC
  8
0
  6
CONTINUOUS
 62
7
 10
267.235992
 20
131.033997
 40
1.000000
 50
0.000000
 51
90.000000
  0
ARC
  8
0
  6
CONTINUOUS
 62
7
 10
184.235992
 20
116.033997
 40
1.000000
 50
180.000000
 51
270.000000
  0
ARC
  8
0
  6
CONTINUOUS
 62
7
 10
184.235992
 20
131.033997
 40
1.000000
 50
90.000000
 51
180.000000
  0
ARC
  8
0
  6
CONTINUOUS
 62
7
 10
265.735992
 20
136.533997
 40
7.000000
 50
0.000000
 51
90.000000
  0
ARC
  8
0
  6
CONTINUOUS
 62
7
 10
265.735992
 20
110.533997
 40
7.000000
 50
270.000000
 51
0.000000
  0
ARC
  8
0
  6
CONTINUOUS
 62
7
 10
185.789001
 20
110.529999
 40
6.996430
 50
179.970993
 51
270.028992
  0
ARC
  8
0
  6
CONTINUOUS
 62
7
 10
185.789001
 20
136.537994
 40
6.996430
 50
89.970802
 51
180.029007
  0
ARC
  8
0
  6
CONTINUOUS
 62
7
 10
345.446014
 20
148.934998
 40
2.096280
 50
180.031998
 51
325.040985
  0
ARC
  8
0
  6
CONTINUOUS
 62
7
 10
343.549988
 20
151.233994
 40
0.299988
 50
0.000000
 51
90.000000
  0
ARC
  8
0
  6
CONTINUOUS
 62
7
 10
347.350006
 20
151.233994
 40
0.300003
 50
90.000000
 51
180.000000
  0
ARC
  8
0
  6
CONTINUOUS
 62
7
 10
349.049988
 20
149.134003
 40
1.399990
 50
270.000000
 51
90.000000
  0
CIRCLE
  8
0
  6
CONTINUOUS
 62
7
 10
356.450012
 20
145.033997
 40
4.500000
  0
CIRCLE
  8
0
  6
CONTINUOUS
 62
7
 10
339.450012
 20
102.033997
 40
4.500000
  0
CIRCLE
  8
0
  6
CONTINUOUS
 62
7
 10
339.450012
 20
145.033997
 40
4.500000
  0
ARC
  8
0
  6
CONTINUOUS
 62
7
 10
349.450012
 20
148.334000
 40
2.000000
 50
270.000000
 51
0.000000
  0
ARC
  8
0
  6
CONTINUOUS
 62
7
 10
345.149994
 20
148.334000
 40
2.000000
 50
180.000000
 51
270.000000
  0
ARC
  8
0
  6
CONTINUOUS
 62
7
 10
331.850006
 20
130.634003
 40
0.400009
 50
90.000000
 51
179.998001
  0
ARC
  8
0
  6
CONTINUOUS
 62
7
 10
343.049988
 20
130.634003
 40
0.399994
 50
0.000000
 51
90.000000
  0
ARC
  8
0
  6
CONTINUOUS
 62
7
 10
343.049988
 20
116.433998
 40
0.400002
 50
270.000000
 51
0.000000
  0
ARC
  8
0
  6
CONTINUOUS
 62
7
 10
331.850006
 20
116.433998
 40
0.399994
 50
179.998993
 51
270.000000
  0
CIRCLE
  8
0
  6
CONTINUOUS
 62
7
 10
339.450012
 20
102.033997
 40
5.000000
  0
ARC
  8
0
  6
CONTINUOUS
 62
7
 10
338.450012
 20
139.533997
 40
12.000000
 50
90.000000
 51
180.000000
  0
ARC
  8
0
  6
CONTINUOUS
 62
7
 10
338.450012
 20
107.533997
 40
12.000000
 50
180.000000
 51
270.000000
  0
ARC
  8
0
  6
CONTINUOUS
 62
7
 10
356.450012
 20
145.033997
 40
4.998660
 50
30.008900
 51
329.990997
  0
ARC
  8
0
  6
CONTINUOUS
 62
7
 10
339.450989
 20
145.033005
 40
4.996360
 50
42.235901
 51
377.830994
  0
CIRCLE
  8
0
  6
CONTINUOUS
 62
7
 10
339.450012
 20
102.033997
 40
1.732050
  0
CIRCLE
  8
0
  6
CONTINUOUS
 62
7
 10
339.450012
 20
145.033997
 40
1.732050
  0
CIRCLE
  8
0
  6
CONTINUOUS
 62
7
 10
356.450012
 20
145.033997
 40
1.732050
  0
ARC
  8
0
  6
CONTINUOUS
 62
4
 10
275.747986
 20
-146.488998
 40
0.300003
 50
270.000000
 51
0.000000
  0
ARC
  8
0
  6
CONTINUOUS
 62
4
 10
264.048004
 20
-139.789001
 40
1.000000
 50
90.000000
 51
180.000000
  0
ARC
  8
0
  6
CONTINUOUS
 62
4
 10
332.347992
 20
-146.488998
 40
0.299988
 50
180.000000
 51
270.000000
  0
ARC
  8
0
  6
CONTINUOUS
 62
4
 10
344.048004
 20
-139.789001
 40
1.000000
 50
0.000000
 51
90.000000
  0
TEXT
  8
0
 62
7
 10
-116.294823
 20
-243.074997
 40
6.300000
  1
STRETCH LIST
 50
0.000000
 41
0.776882
 51
0.000000
  7
STANDARD
  0
TEXT
  8
0
 62
7
 10
-4.244791
 20
-268.075012
 40
6.300000
  1
550
 50
0.000000
 41
0.928687
 51
0.000000
  7
STANDARD
  0
TEXT
  8
0
 62
7
 10
-4.244791
 20
-258.075012
 40
6.300000
  1
600
 50
0.000000
 41
1.013113
 51
0.000000
  7
STANDARD
  0
TEXT
  8
0
 62
7
 10
-34.744820
 20
-268.075012
 40
6.300000
  1
500
 50
0.000000
 41
1.013113
 51
0.000000
  7
STANDARD
  0
TEXT
  8
0
 62
7
 10
-34.744820
 20
-258.075012
 40
6.300000
  1
550
 50
0.000000
 41
0.928687
 51
0.000000
  7
STANDARD
  0
TEXT
  8
0
 62
7
 10
-64.744820
 20
-268.075012
 40
6.300000
  1
450
 50
0.000000
 41
0.928687
 51
0.000000
  7
STANDARD
  0
TEXT
  8
0
 62
7
 10
-64.744820
 20
-258.075012
 40
6.300000
  1
500
 50
0.000000
 41
1.013113
 51
0.000000
  7
STANDARD
  0
TEXT
  8
0
 62
7
 10
-94.744820
 20
-268.075012
 40
6.300000
  1
400
 50
0.000000
 41
1.013113
 51
0.000000
  7
STANDARD
  0
TEXT
  8
0
 62
7
 10
-94.744820
 20
-258.075012
 40
6.300000
  1
450
 50
0.000000
 41
0.928687
 51
0.000000
  7
STANDARD
  0
TEXT
  8
0
 62
7
 10
-124.744720
 20
-268.075012
 40
6.300000
  1
350
 50
0.000000
 41
0.928687
 51
0.000000
  7
STANDARD
  0
TEXT
  8
0
 62
7
 10
-124.744720
 20
-258.075012
 40
6.300000
  1
400
 50
0.000000
 41
1.013113
 51
0.000000
  7
STANDARD
  0
TEXT
  8
0
 62
7
 10
-155.244720
 20
-268.075012
 40
6.300000
  1
300
 50
0.000000
 41
1.013113
 51
0.000000
  7
STANDARD
  0
TEXT
  8
0
 62
7
 10
-155.244720
 20
-258.075012
 40
6.300000
  1
350
 50
0.000000
 41
0.928687
 51
0.000000
  7
STANDARD
  0
TEXT
  8
0
 62
7
 10
-184.744720
 20
-268.075012
 40
6.300000
  1
250
 50
0.000000
 41
0.928687
 51
0.000000
  7
STANDARD
  0
TEXT
  8
0
 62
7
 10
-184.744720
 20
-258.075012
 40
6.300000
  1
300
 50
0.000000
 41
1.013113
 51
0.000000
  7
STANDARD
  0
TEXT
  8
0
 62
7
 10
-214.744720
 20
-268.075012
 40
6.300000
  1
200
 50
0.000000
 41
1.013113
 51
0.000000
  7
STANDARD
  0
TEXT
  8
0
 62
7
 10
-214.744720
 20
-258.075012
 40
6.300000
  1
250
 50
0.000000
 41
0.928687
 51
0.000000
  7
STANDARD
  0
TEXT
  8
0
 62
7
 10
-244.744720
 20
-268.075012
 40
6.300000
  1
150
 50
0.000000
 41
1.114424
 51
0.000000
  7
STANDARD
  0
TEXT
  8
0
 62
7
 10
-244.744720
 20
-258.075012
 40
6.300000
  1
200
 50
0.000000
 41
1.013113
 51
0.000000
  7
STANDARD
  0
TEXT
  8
0
 62
7
 10
-274.744720
 20
-268.075012
 40
6.300000
  1
100
 50
0.000000
 41
1.238249
 51
0.000000
  7
STANDARD
  0
TEXT
  8
0
 62
7
 10
-274.744720
 20
-258.075012
 40
6.300000
  1
150
 50
0.000000
 41
1.114424
 51
0.000000
  7
STANDARD
  0
TEXT
  8
0
 62
7
 10
-301.594696
 20
-268.075012
 40
6.300000
  1
50
 50
0.000000
 41
1.142999
 51
0.000000
  7
STANDARD
  0
TEXT
  8
0
 62
7
 10
-304.744720
 20
-258.075012
 40
6.300000
  1
100
 50
0.000000
 41
1.238249
 51
0.000000
  7
STANDARD
  0
TEXT
  8
0
 62
7
 10
-332.094696
 20
-258.075012
 40
6.300000
  1
50
 50
0.000000
 41
1.142999
 51
0.000000
  7
STANDARD
  0
TEXT
  8
0
 62
7
 10
-387.794708
 20
-268.075012
 40
6.300000
  1
STRETCH
 50
0.000000
 41
0.785812
 51
0.000000
  7
STANDARD
  0
TEXT
  8
0
 62
7
 10
-384.644714
 20
-258.075012
 40
6.300000
  1
STROKE
 50
0.000000
 41
0.800099
 51
0.000000
  7
STANDARD
  0
TEXT
  8
0
 62
7
 10
-328.944702
 20
-268.075012
 40
6.300000
  1
0
 50
0.000000
 41
0.820000
 51
0.000000
  7
STANDARD
  0
TEXT
  8
0
 62
7
 10
25.755180
 20
-258.075012
 40
6.300000
  1
650
 50
0.000000
 41
0.928687
 51
0.000000
  7
STANDARD
  0
TEXT
  8
0
 62
7
 10
25.755180
 20
-268.075012
 40
6.300000
  1
600
 50
0.000000
 41
1.013113
 51
0.000000
  7
STANDARD
  0
TEXT
  8
0
 62
7
 10
56.255180
 20
-258.075012
 40
6.300000
  1
700
 50
0.000000
 41
1.013113
 51
0.000000
  7
STANDARD
  0
TEXT
  8
0
 62
7
 10
56.255180
 20
-268.075012
 40
6.300000
  1
650
 50
0.000000
 41
0.928687
 51
0.000000
  7
STANDARD
  0
TEXT
  8
0
 62
7
 10
86.255180
 20
-258.075012
 40
6.300000
  1
750
 50
0.000000
 41
0.928687
 51
0.000000
  7
STANDARD
  0
TEXT
  8
0
 62
7
 10
86.255180
 20
-268.075012
 40
6.300000
  1
700
 50
0.000000
 41
1.013113
 51
0.000000
  7
STANDARD
  0
TEXT
  8
0
 62
7
 10
205.755280
 20
-268.075012
 40
6.300000
  1
950
 50
0.000000
 41
0.928687
 51
0.000000
  7
STANDARD
  0
TEXT
  8
0
 62
7
 10
202.605270
 20
-258.075012
 40
6.300000
  1
1000
 50
0.000000
 41
1.102178
 51
0.000000
  7
STANDARD
  0
TEXT
  8
0
 62
7
 10
176.255280
 20
-268.075012
 40
6.300000
  1
850
 50
0.000000
 41
0.928687
 51
0.000000
  7
STANDARD
  0
TEXT
  8
0
 62
7
 10
176.255280
 20
-258.075012
 40
6.300000
  1
900
 50
0.000000
 41
1.013113
 51
0.000000
  7
STANDARD
  0
TEXT
  8
0
 62
7
 10
146.255280
 20
-268.075012
 40
6.300000
  1
800
 50
0.000000
 41
1.013113
 51
0.000000
  7
STANDARD
  0
TEXT
  8
0
 62
7
 10
146.255280
 20
-258.075012
 40
6.300000
  1
850
 50
0.000000
 41
0.928687
 51
0.000000
  7
STANDARD
  0
TEXT
  8
0
 62
7
 10
116.255280
 20
-268.075012
 40
6.300000
  1
750
 50
0.000000
 41
0.928687
 51
0.000000
  7
STANDARD
  0
TEXT
  8
0
 62
7
 10
116.255280
 20
-258.075012
 40
6.300000
  1
800
 50
0.000000
 41
1.013113
 51
0.000000
  7
STANDARD
  0
TEXT
  8
0
 62
7
 10
206.130280
 20
-246.388000
 40
6.300000
  1
（ｍｍ）
 50
0.000000
 41
0.720378
 51
0.000000
  7
STANDARD
  0
TEXT
  8
0
 62
3
 10
-206.226059
 20
-18.008949
 40
6.300000
  1
STRETCH LINE
 50
0.000000
 41
0.849610
 51
0.000000
  7
STANDARD
  0
TEXT
  8
0
 62
7
 10
-384.013000
 20
215.438004
 40
9.000000
  1
(WITH SENSOR SWITCH)
 50
0.000000
 41
0.716146
 51
0.000000
  7
STANDARD
  0
TEXT
  8
0
 62
7
 10
-378.530701
 20
2.383960
 40
9.000000
  1
MODEL:ORV25*ST(50)-K2
 50
0.000000
 41
0.781289
 51
0.000000
  7
STANDARD
  0
TEXT
  8
0
 62
7
 10
202.965607
 20
-9.187500
 40
9.000000
  1
F-SUPPORT(-F)
 50
0.000000
 41
0.843750
 51
0.000000
  7
STANDARD
  0
TEXT
  8
0
 62
7
 10
211.965607
 20
242.312500
 40
9.000000
  1
M-MOUNT(-M)
 50
0.000000
 41
0.856681
 51
0.000000
  7
STANDARD
  0
TEXT
  8
0
 62
7
 10
-383.325592
 20
229.250000
 40
9.000000
  1
MODEL:ORV25*ST(50)
 50
0.000000
 41
0.777712
 51
0.000000
  7
STANDARD
  0
TEXT
  8
0
 62
7
 10
288.339691
 20
261.750000
 40
9.000000
  1
Ｖｅｒ．　１．１
 50
0.000000
 41
0.651771
 51
0.000000
  7
STANDARD
  0
TEXT
  8
0
 62
7
 10
249.689850
 20
-267.125000
 40
12.500000
  1
KOGANEI CORP.
 50
0.000000
 41
0.771526
 51
0.000000
  7
STANDARD
  0
TEXT
  8
0
 62
7
 10
-386.710327
 20
261.750000
 40
9.000000
  1
RODLESS CYLINDER
 50
0.000000
 41
0.759836
 51
0.000000
  7
STANDARD
  0
TEXT
  8
0
 62
3
 10
-196.176056
 20
215.992752
 40
6.300000
  1
STRETCH LINE
 50
0.000000
 41
0.849610
 51
0.000000
  7
STANDARD
  0
ENDSEC
  0
EOF
