  0
SECTION
  2
HEADER
  9
$ACADVER
  1
AC1003
  9
$EXTMIN
 10
-2.81250000E+02
 20
-1.95000000E+02
  9
$EXTMAX
 10
2.82099854E+02
 20
1.95500000E+02
  9
$LIMMIN
 10
-2.81251000E+02
 20
-1.95001000E+02
  9
$LIMMAX
 10
2.82100854E+02
 20
1.95501000E+02
  9
$SNAPUNIT
 10
1
 20
1
  9
$SNAPBASE
 10
0
 20
0
  9
$GRIDMODE
 70
0
  9
$GRIDUNIT
 10
0
 20
0
  9
$LTSCALE
 40
9.38916423E+00
  9
$TEXTSIZE
 40
3.2
  9
$DIMTAD
 70
0
  9
$LUNITS
 70
2
  9
$LUPREC
 70
4
  9
$FILLETRAD
 40
0
  9
$AUNITS
 70
0
  9
$AUPREC
 70
0
  0
ENDSEC
  0
SECTION
  2
TABLES
  0
TABLE
  2
LTYPE
 70
2
  0
LTYPE
  2
CONTINUOUS
 70
64
  3
Solid-Line
 72
65
 73
0
 40
0
  0
LTYPE
  2
DASHED
 70
64
  3
DASHED
 72
65
 73
2
 40
.75
 49
.5
 49
-.25
  0
LTYPE
  2
HIDDEN
 70
64
  3
HIDDEN
 72
65
 73
2
 40
.375
 49
.25
 49
-.125
  0
LTYPE
  2
CENTER
 70
64
  3
CENTER
 72
65
 73
4
 40
2
 49
1.25
 49
-.25
 49
.25
 49
-.25
  0
LTYPE
  2
PHANTOM
 70
64
  3
PHANTOM
 72
65
 73
6
 40
2.5
 49
1.25
 49
-.25
 49
.25
 49
-.25
 49
.25
 49
-.25
  0
ENDTAB
  0
TABLE
  2
LAYER
 70
1
  0
LAYER
  2
0
 70
0
 62
3
  6
CONTINUOUS
 0
ENDTAB
  0
TABLE
  2
STYLE
 70
2
  0
STYLE
  2
MONOTXT
 70
0
 40
0
 41
1
 50
0
 71
0
 42
.2
  3
monotxt
  0
STYLE
  2
BIGFONT
 70
0
 40
0
 41
1
 50
0
 71
0
 42
.2
  3
txt
  4
bigfont
  0
ENDTAB
  0
ENDSEC
  0
SECTION
  2
ENTITIES
  0
LINE
  8
0
  6
CENTER
 62
2
 10
1.42009856E+02
 20
7.20178847E+01
 11
5.92174279E+01
 21
7.20178847E+01
  0
LINE
  8
0
  6
CENTER
 62
2
 10
-6.06395165E+01
 20
-2.38430952E+01
 11
-6.06395165E+01
 21
1.20759157E+02
  0
LINE
  8
0
  6
CENTER
 62
2
 10
3.93604835E+01
 20
-2.38430952E+01
 11
3.93604835E+01
 21
1.20759157E+02
  0
LINE
  8
0
  6
PHANTOM
 10
1.93604796E+01
 20
-3.99563975E+01
 11
1.93604796E+01
 21
1.28002586E+02
  0
LINE
  8
0
  6
CENTER
 62
6
 10
3.53604835E+01
 20
-1.62821153E+01
 11
3.53604835E+01
 21
-1.16321153E+01
  0
LINE
  8
0
 62
4
 10
3.41104835E+01
 20
-1.59821153E+01
 11
3.66104835E+01
 21
-1.59821153E+01
  0
LINE
  8
0
 62
4
 10
3.66104835E+01
 20
-1.59821153E+01
 11
3.66104835E+01
 21
-1.54821153E+01
  0
LINE
  8
0
 62
6
 10
3.63804835E+01
 20
-1.59821153E+01
 11
3.63804835E+01
 21
-1.54821153E+01
  0
LINE
  8
0
 62
6
 10
3.43304835E+01
 20
-1.59821153E+01
 11
3.43304835E+01
 21
-1.54821153E+01
  0
LINE
  8
0
 62
4
 10
3.41104835E+01
 20
-1.59821153E+01
 11
3.41104835E+01
 21
-1.54821153E+01
  0
LINE
  8
0
  6
CENTER
 62
6
 10
-6.46395165E+01
 20
-1.62821153E+01
 11
-6.46395165E+01
 21
-1.16321153E+01
  0
LINE
  8
0
 62
4
 10
-6.58895165E+01
 20
-1.59821153E+01
 11
-6.33895165E+01
 21
-1.59821153E+01
  0
LINE
  8
0
 62
4
 10
-6.33895165E+01
 20
-1.59821153E+01
 11
-6.33895165E+01
 21
-1.54821153E+01
  0
LINE
  8
0
 62
6
 10
-6.36195165E+01
 20
-1.59821153E+01
 11
-6.36195165E+01
 21
-1.54821153E+01
  0
LINE
  8
0
 62
6
 10
-6.56695165E+01
 20
-1.59821153E+01
 11
-6.56695165E+01
 21
-1.54821153E+01
  0
LINE
  8
0
 62
4
 10
-6.58895165E+01
 20
-1.59821153E+01
 11
-6.58895165E+01
 21
-1.54821153E+01
  0
LINE
  8
0
 62
7
 10
1.23360480E+02
 20
1.05017877E+02
 11
-6.39524410E-01
 21
1.05017877E+02
  0
LINE
  8
0
 62
7
 10
-1.20639515E+02
 20
2.20178783E+01
 11
-1.44639514E+02
 21
2.20178783E+01
  0
LINE
  8
0
 62
7
 10
1.23360480E+02
 20
2.20178783E+01
 11
-6.39524410E-01
 21
2.20178783E+01
  0
LINE
  8
0
 62
7
 10
1.04360477E+02
 20
1.03017869E+02
 11
1.04360477E+02
 21
6.45178847E+01
  0
LINE
  8
0
 62
7
 10
-1.20639515E+02
 20
6.70178847E+01
 11
-1.25639515E+02
 21
6.70178847E+01
  0
LINE
  8
0
 62
2
 10
-1.20639515E+02
 20
6.77678796E+01
 11
-1.25639515E+02
 21
6.77678796E+01
  0
LINE
  8
0
 62
2
 10
-1.20639515E+02
 20
7.62678898E+01
 11
-1.25639515E+02
 21
7.62678898E+01
  0
LINE
  8
0
 62
7
 10
-1.20639515E+02
 20
7.70178847E+01
 11
-1.25639515E+02
 21
7.70178847E+01
  0
LINE
  8
0
 62
7
 10
-1.25639515E+02
 20
1.03017869E+02
 11
-1.25639515E+02
 21
6.45178847E+01
  0
LINE
  8
0
 62
7
 10
-1.25639515E+02
 20
6.50178898E+01
 11
-1.44639514E+02
 21
6.50178898E+01
  0
LINE
  8
0
 62
7
 10
-1.25639515E+02
 20
7.15178796E+01
 11
-1.44639514E+02
 21
7.15178796E+01
  0
LINE
  8
0
 62
7
 10
-1.25639515E+02
 20
7.25178898E+01
 11
-1.44639514E+02
 21
7.25178898E+01
  0
LINE
  8
0
 62
7
 10
-1.31639512E+02
 20
6.50178898E+01
 11
-1.31639512E+02
 21
6.10178872E+01
  0
LINE
  8
0
 62
7
 10
-1.38639514E+02
 20
6.50178898E+01
 11
-1.38639514E+02
 21
6.10178872E+01
  0
LINE
  8
0
 62
7
 10
-1.37139511E+02
 20
7.25178898E+01
 11
-1.37139511E+02
 21
7.15178796E+01
  0
LINE
  8
0
 62
2
 10
-1.33489520E+02
 20
7.25178898E+01
 11
-1.33489520E+02
 21
7.15178796E+01
  0
LINE
  8
0
 62
7
 10
-1.33139512E+02
 20
7.25178898E+01
 11
-1.33139512E+02
 21
7.15178796E+01
  0
LINE
  8
0
 62
7
 10
-1.30639515E+02
 20
8.32499293E+01
 11
-1.32139520E+02
 21
8.23839008E+01
  0
LINE
  8
0
 62
7
 10
-1.39639512E+02
 20
7.97858311E+01
 11
-1.41139523E+02
 21
8.06518627E+01
  0
LINE
  8
0
 62
7
 10
-1.29139512E+02
 20
8.06518543E+01
 11
-1.29139512E+02
 21
8.23839176E+01
  0
LINE
  8
0
 62
7
 10
-1.32139511E+02
 20
8.06518543E+01
 11
-1.32139511E+02
 21
8.23839176E+01
  0
LINE
  8
0
 62
7
 10
-1.29139512E+02
 20
8.06518487E+01
 11
-1.30639517E+02
 21
7.97858203E+01
  0
LINE
  8
0
 62
7
 10
-1.29139521E+02
 20
8.23839196E+01
 11
-1.30639521E+02
 21
8.32499449E+01
  0
LINE
  8
0
 62
2
 10
-1.36789506E+02
 20
7.25178898E+01
 11
-1.36789506E+02
 21
7.15178796E+01
  0
LINE
  8
0
 62
7
 10
-1.38139509E+02
 20
8.23839117E+01
 11
-1.39639520E+02
 21
8.32499433E+01
  0
LINE
  8
0
 62
7
 10
-1.38139514E+02
 20
8.06518416E+01
 11
-1.39639519E+02
 21
7.97858131E+01
  0
LINE
  8
0
 62
7
 10
-1.30639523E+02
 20
7.97858390E+01
 11
-1.32139523E+02
 21
8.06518643E+01
  0
LINE
  8
0
 62
7
 10
-1.38139512E+02
 20
8.06518543E+01
 11
-1.38139512E+02
 21
8.23839176E+01
  0
LINE
  8
0
 62
7
 10
-1.39639517E+02
 20
8.32499222E+01
 11
-1.41139522E+02
 21
8.23838937E+01
  0
LINE
  8
0
 62
7
 10
-1.41139517E+02
 20
8.06518543E+01
 11
-1.41139517E+02
 21
8.23839176E+01
  0
LINE
  8
0
 62
7
 10
-6.39524410E-01
 20
1.13517875E+02
 11
-6.39524410E-01
 21
-1.44821179E+01
  0
LINE
  8
0
 62
7
 10
-1.20639515E+02
 20
1.13517875E+02
 11
-1.20639515E+02
 21
-1.44821179E+01
  0
LINE
  8
0
 62
7
 10
-1.44639514E+02
 20
1.14517872E+02
 11
-1.44639514E+02
 21
-1.54821153E+01
  0
LINE
  8
0
 62
7
 10
1.23360480E+02
 20
6.25178898E+01
 11
1.17360482E+02
 21
6.25178898E+01
  0
LINE
  8
0
 62
7
 10
1.23360480E+02
 20
2.25178770E+01
 11
-6.39524410E-01
 21
2.25178770E+01
  0
LINE
  8
0
 62
7
 10
-1.29639511E+02
 20
3.05178758E+01
 11
-1.29639511E+02
 21
2.25178770E+01
  0
LINE
  8
0
 62
7
 10
-1.29639511E+02
 20
6.25178898E+01
 11
-1.29639511E+02
 21
5.45178847E+01
  0
LINE
  8
0
 62
7
 10
-1.29639511E+02
 20
4.85178872E+01
 11
-1.29639511E+02
 21
3.65178796E+01
  0
LINE
  8
0
 62
7
 10
-1.44639514E+02
 20
4.45178783E+01
 11
-1.29639511E+02
 21
4.45178783E+01
  0
LINE
  8
0
 62
7
 10
-1.44639514E+02
 20
4.05178758E+01
 11
-1.29639511E+02
 21
4.05178758E+01
  0
LINE
  8
0
 62
7
 10
1.07360482E+02
 20
6.00178898E+01
 11
-6.39524410E-01
 21
6.00178898E+01
  0
LINE
  8
0
 62
7
 10
1.07360482E+02
 20
2.50178770E+01
 11
-6.39524410E-01
 21
2.50178770E+01
  0
LINE
  8
0
 62
7
 10
-1.34889507E+02
 20
3.27961919E+01
 11
-1.33639509E+02
 21
3.20745052E+01
  0
LINE
  8
0
 62
7
 10
-1.34889518E+02
 20
3.42395713E+01
 11
-1.33639519E+02
 21
3.49612583E+01
  0
LINE
  8
0
 62
7
 10
-1.34889516E+02
 20
5.22395697E+01
 11
-1.33639517E+02
 21
5.29612572E+01
  0
LINE
  8
0
 62
7
 10
-1.34889514E+02
 20
5.07961897E+01
 11
-1.34889514E+02
 21
5.22395822E+01
  0
LINE
  8
0
 62
7
 10
-1.34889503E+02
 20
5.07962021E+01
 11
-1.33639500E+02
 21
5.00745123E+01
  0
LINE
  8
0
 62
7
 10
-1.34889514E+02
 20
3.27961846E+01
 11
-1.34889514E+02
 21
3.42395707E+01
  0
LINE
  8
0
 62
7
 10
-1.58639517E+02
 20
1.08517875E+02
 11
-1.58639517E+02
 21
-9.48211787E+00
  0
LINE
  8
0
 62
7
 10
1.37360482E+02
 20
1.08517875E+02
 11
1.37360482E+02
 21
-9.48211787E+00
  0
LINE
  8
0
 62
7
 10
-6.39524410E-01
 20
4.70178847E+01
 11
1.07360482E+02
 21
4.70178847E+01
  0
LINE
  8
0
 62
7
 10
-6.39524410E-01
 20
3.80178758E+01
 11
1.07360482E+02
 21
3.80178758E+01
  0
LINE
  8
0
 62
7
 10
-1.20639515E+02
 20
6.25178898E+01
 11
-1.31639512E+02
 21
6.25178898E+01
  0
LINE
  8
0
 62
7
 10
-1.20639515E+02
 20
2.25178770E+01
 11
-1.43639517E+02
 21
2.25178770E+01
  0
LINE
  8
0
 62
7
 10
-6.39524410E-01
 20
1.08517875E+02
 11
1.23360480E+02
 21
1.08517875E+02
  0
LINE
  8
0
 62
7
 10
-1.44639514E+02
 20
6.45178847E+01
 11
-1.38639514E+02
 21
6.45178847E+01
  0
LINE
  8
0
 62
7
 10
-1.31639512E+02
 20
6.45178847E+01
 11
-1.25639515E+02
 21
6.45178847E+01
  0
LINE
  8
0
 62
7
 10
-1.44639514E+02
 20
1.14517872E+02
 11
1.23360480E+02
 21
1.14517872E+02
  0
LINE
  8
0
  6
CENTER
 62
2
 10
-1.51639516E+02
 20
1.65178859E+01
 11
-1.51639516E+02
 21
5.17882131E-01
  0
LINE
  8
0
  6
CENTER
 62
2
 10
-1.59639514E+02
 20
8.51788722E+00
 11
-1.43639517E+02
 21
8.51788722E+00
  0
LINE
  8
0
  6
CENTER
 62
2
 10
-1.51639516E+02
 20
9.85178872E+01
 11
-1.51639516E+02
 21
8.25178898E+01
  0
LINE
  8
0
  6
CENTER
 62
2
 10
-1.59639514E+02
 20
9.05178821E+01
 11
-1.43639517E+02
 21
9.05178821E+01
  0
LINE
  8
0
  6
CENTER
 62
2
 10
1.30360475E+02
 20
1.65178859E+01
 11
1.30360475E+02
 21
5.17882131E-01
  0
LINE
  8
0
  6
CENTER
 62
2
 10
1.30360475E+02
 20
9.85178872E+01
 11
1.30360475E+02
 21
8.25178898E+01
  0
LINE
  8
0
  6
CENTER
 62
2
 10
1.38360480E+02
 20
9.05178821E+01
 11
1.22360482E+02
 21
9.05178821E+01
  0
LINE
  8
0
  6
CENTER
 62
2
 10
1.38360480E+02
 20
8.51788722E+00
 11
1.22360482E+02
 21
8.51788722E+00
  0
LINE
  8
0
 62
7
 10
-1.32389519E+02
 20
3.27961949E+01
 11
-1.33639518E+02
 21
3.20745078E+01
  0
LINE
  8
0
 62
7
 10
-1.32389509E+02
 20
3.42395687E+01
 11
-1.33639512E+02
 21
3.49612585E+01
  0
LINE
  8
0
 62
7
 10
-1.32389505E+02
 20
5.22395789E+01
 11
-1.33639503E+02
 21
5.29612656E+01
  0
LINE
  8
0
 62
7
 10
-1.32389514E+02
 20
5.07961897E+01
 11
-1.32389514E+02
 21
5.22395822E+01
  0
LINE
  8
0
 62
7
 10
-1.32389517E+02
 20
5.07961937E+01
 11
-1.33639516E+02
 21
5.00745062E+01
  0
LINE
  8
0
 62
7
 10
-1.32389514E+02
 20
3.27961846E+01
 11
-1.32389514E+02
 21
3.42395707E+01
  0
LINE
  8
0
 62
7
 10
-1.25639515E+02
 20
1.00017877E+02
 11
-1.20639515E+02
 21
1.00017877E+02
  0
LINE
  8
0
 62
7
 10
-1.25639515E+02
 20
8.80178821E+01
 11
-1.20639515E+02
 21
8.80178821E+01
  0
LINE
  8
0
 62
7
 10
1.04360477E+02
 20
7.92678821E+01
 11
-6.39524410E-01
 21
7.92678821E+01
  0
LINE
  8
0
 62
7
 10
1.04360477E+02
 20
8.37678898E+01
 11
-6.39524410E-01
 21
8.37678898E+01
  0
LINE
  8
0
 62
7
 10
-6.39524410E-01
 20
1.00017877E+02
 11
1.04360477E+02
 21
1.00017877E+02
  0
LINE
  8
0
 62
7
 10
-6.39524410E-01
 20
8.80178821E+01
 11
1.04360477E+02
 21
8.80178821E+01
  0
LINE
  8
0
 62
7
 10
-1.44639514E+02
 20
1.03017869E+02
 11
-1.25639515E+02
 21
1.03017869E+02
  0
LINE
  8
0
 62
7
 10
-1.44639514E+02
 20
1.08517875E+02
 11
-1.20639515E+02
 21
1.08517875E+02
  0
LINE
  8
0
 62
7
 10
-1.44639514E+02
 20
1.05017877E+02
 11
-1.20639515E+02
 21
1.05017877E+02
  0
LINE
  8
0
 62
7
 10
-1.25639515E+02
 20
8.70178847E+01
 11
-1.20639515E+02
 21
8.70178847E+01
  0
LINE
  8
0
 62
7
 10
-6.39524410E-01
 20
8.70178847E+01
 11
1.04360477E+02
 21
8.70178847E+01
  0
LINE
  8
0
 62
7
 10
-1.20639515E+02
 20
8.37678898E+01
 11
-1.25639515E+02
 21
8.37678898E+01
  0
LINE
  8
0
 62
7
 10
-1.20639515E+02
 20
7.92678821E+01
 11
-1.25639515E+02
 21
7.92678821E+01
  0
LINE
  8
0
 62
7
 10
-6.39524410E-01
 20
-9.82114054E-01
 11
1.22360482E+02
 21
-9.82114054E-01
  0
LINE
  8
0
 62
7
 10
-6.39524410E-01
 20
1.10178872E+01
 11
1.22360482E+02
 21
1.10178872E+01
  0
LINE
  8
0
 62
7
 10
-1.43639517E+02
 20
1.10178872E+01
 11
-1.20639515E+02
 21
1.10178872E+01
  0
LINE
  8
0
 62
7
 10
-1.43639517E+02
 20
-9.82114054E-01
 11
-1.20639515E+02
 21
-9.82114054E-01
  0
LINE
  8
0
 62
7
 10
-1.43639517E+02
 20
-9.82114054E-01
 11
-1.43639517E+02
 21
1.10178872E+01
  0
LINE
  8
0
 62
7
 10
1.22360482E+02
 20
1.10178872E+01
 11
1.22360482E+02
 21
-9.82114054E-01
  0
LINE
  8
0
 62
7
 10
-1.44639514E+02
 20
-1.54821153E+01
 11
1.23360480E+02
 21
-1.54821153E+01
  0
LINE
  8
0
 62
7
 10
-1.44639514E+02
 20
-9.48211787E+00
 11
-1.20639515E+02
 21
-9.48211787E+00
  0
LINE
  8
0
 62
7
 10
-6.39524410E-01
 20
-5.98211405E+00
 11
1.23360480E+02
 21
-5.98211405E+00
  0
LINE
  8
0
 62
7
 10
-1.44639514E+02
 20
-5.98211405E+00
 11
-1.20639515E+02
 21
-5.98211405E+00
  0
LINE
  8
0
 62
7
 10
-6.39524410E-01
 20
-9.48211787E+00
 11
1.23360480E+02
 21
-9.48211787E+00
  0
LINE
  8
0
 62
7
 10
-1.43639517E+02
 20
6.71788417E+00
 11
-1.44639514E+02
 21
6.71788417E+00
  0
LINE
  8
0
 62
7
 10
-1.43639517E+02
 20
3.31788900E+00
 11
-1.44639514E+02
 21
3.31788900E+00
  0
LINE
  8
0
 62
7
 10
1.23360480E+02
 20
3.31788900E+00
 11
1.22360482E+02
 21
3.31788900E+00
  0
LINE
  8
0
 62
7
 10
1.23360480E+02
 20
6.71788417E+00
 11
1.22360482E+02
 21
6.71788417E+00
  0
LINE
  8
0
 62
7
 10
7.68604899E+01
 20
6.70178847E+01
 11
1.04360477E+02
 21
6.70178847E+01
  0
LINE
  8
0
 62
2
 10
7.68604899E+01
 20
6.77678796E+01
 11
1.04360477E+02
 21
6.77678796E+01
  0
LINE
  8
0
 62
2
 10
7.68604899E+01
 20
7.62678898E+01
 11
1.04360477E+02
 21
7.62678898E+01
  0
LINE
  8
0
 62
7
 10
7.68604899E+01
 20
7.70178847E+01
 11
1.04360477E+02
 21
7.70178847E+01
  0
LINE
  8
0
 62
7
 10
1.04360477E+02
 20
6.50178898E+01
 11
1.23360480E+02
 21
6.50178898E+01
  0
LINE
  8
0
 62
7
 10
1.04360477E+02
 20
7.15178796E+01
 11
1.23360480E+02
 21
7.15178796E+01
  0
LINE
  8
0
 62
7
 10
1.04360477E+02
 20
7.25178898E+01
 11
1.23360480E+02
 21
7.25178898E+01
  0
LINE
  8
0
 62
7
 10
1.10360475E+02
 20
6.50178898E+01
 11
1.10360475E+02
 21
6.10178872E+01
  0
LINE
  8
0
 62
7
 10
1.17360482E+02
 20
6.50178898E+01
 11
1.17360482E+02
 21
6.10178872E+01
  0
LINE
  8
0
 62
7
 10
1.15860480E+02
 20
7.25178898E+01
 11
1.15860480E+02
 21
7.15178796E+01
  0
LINE
  8
0
 62
2
 10
1.12210488E+02
 20
7.25178898E+01
 11
1.12210488E+02
 21
7.15178796E+01
  0
LINE
  8
0
 62
7
 10
1.11860477E+02
 20
7.25178898E+01
 11
1.11860477E+02
 21
7.15178796E+01
  0
LINE
  8
0
 62
7
 10
1.09360484E+02
 20
8.32499142E+01
 11
1.10860489E+02
 21
8.23838857E+01
  0
LINE
  8
0
 62
7
 10
1.18360477E+02
 20
7.97858474E+01
 11
1.19860477E+02
 21
8.06518726E+01
  0
LINE
  8
0
 62
7
 10
1.07860475E+02
 20
8.06518543E+01
 11
1.07860475E+02
 21
8.23839176E+01
  0
LINE
  8
0
 62
7
 10
1.10860480E+02
 20
8.06518543E+01
 11
1.10860480E+02
 21
8.23839176E+01
  0
LINE
  8
0
 62
7
 10
1.07860488E+02
 20
8.06518446E+01
 11
1.09360493E+02
 21
7.97858162E+01
  0
LINE
  8
0
 62
7
 10
1.07860492E+02
 20
8.23839248E+01
 11
1.09360492E+02
 21
8.32499501E+01
  0
LINE
  8
0
 62
2
 10
1.15510469E+02
 20
7.25178898E+01
 11
1.15510469E+02
 21
7.15178796E+01
  0
LINE
  8
0
 62
7
 10
1.16860478E+02
 20
8.23839224E+01
 11
1.18360477E+02
 21
8.32499477E+01
  0
LINE
  8
0
 62
7
 10
1.16860496E+02
 20
8.06518485E+01
 11
1.18360496E+02
 21
7.97858232E+01
  0
LINE
  8
0
 62
7
 10
1.09360490E+02
 20
7.97858525E+01
 11
1.10860490E+02
 21
8.06518778E+01
  0
LINE
  8
0
 62
7
 10
1.16860477E+02
 20
8.06518543E+01
 11
1.16860477E+02
 21
8.23839176E+01
  0
LINE
  8
0
 62
7
 10
1.18360499E+02
 20
8.32499291E+01
 11
1.19860498E+02
 21
8.23839038E+01
  0
LINE
  8
0
 62
7
 10
1.19860482E+02
 20
8.06518543E+01
 11
1.19860482E+02
 21
8.23839176E+01
  0
LINE
  8
0
 62
7
 10
1.10360475E+02
 20
6.45178847E+01
 11
1.04360477E+02
 21
6.45178847E+01
  0
LINE
  8
0
 62
7
 10
1.23360480E+02
 20
1.03017869E+02
 11
1.04360477E+02
 21
1.03017869E+02
  0
LINE
  8
0
 62
7
 10
1.23360480E+02
 20
6.45178847E+01
 11
1.17360482E+02
 21
6.45178847E+01
  0
LINE
  8
0
 62
7
 10
6.38604975E+01
 20
7.05178821E+01
 11
7.33604924E+01
 21
7.05178821E+01
  0
LINE
  8
0
 62
7
 10
6.33604924E+01
 20
7.30178821E+01
 11
6.33604924E+01
 21
7.10178872E+01
  0
LINE
  8
0
 62
7
 10
7.68604899E+01
 20
7.70178847E+01
 11
7.68604899E+01
 21
6.70178847E+01
  0
LINE
  8
0
 62
7
 10
6.38604975E+01
 20
7.35178872E+01
 11
7.33604924E+01
 21
7.35178872E+01
  0
LINE
  8
0
 62
7
 10
7.33604924E+01
 20
7.62678898E+01
 11
7.68604899E+01
 21
7.62678898E+01
  0
LINE
  8
0
 62
7
 10
7.33604924E+01
 20
6.77678796E+01
 11
7.68604899E+01
 21
6.77678796E+01
  0
LINE
  8
0
 62
7
 10
7.33604924E+01
 20
7.62678898E+01
 11
7.33604924E+01
 21
6.77678796E+01
  0
LINE
  8
0
 62
7
 10
6.38604954E+01
 20
7.35178851E+01
 11
6.33605057E+01
 21
7.30178953E+01
  0
LINE
  8
0
 62
7
 10
6.33604951E+01
 20
7.10178930E+01
 11
6.38604950E+01
 21
7.05178931E+01
  0
LINE
  8
0
 62
7
 10
-1.20639515E+02
 20
4.70178847E+01
 11
-1.29639511E+02
 21
4.70178847E+01
  0
LINE
  8
0
 62
7
 10
-1.20639515E+02
 20
3.80178758E+01
 11
-1.29639511E+02
 21
3.80178758E+01
  0
LINE
  8
0
 62
7
 10
1.07360482E+02
 20
3.05178758E+01
 11
1.07360482E+02
 21
2.25178770E+01
  0
LINE
  8
0
 62
7
 10
1.07360482E+02
 20
6.25178898E+01
 11
1.07360482E+02
 21
5.45178847E+01
  0
LINE
  8
0
 62
7
 10
1.07360482E+02
 20
4.85178872E+01
 11
1.07360482E+02
 21
3.65178796E+01
  0
LINE
  8
0
 62
7
 10
1.22360482E+02
 20
4.45178783E+01
 11
1.07360482E+02
 21
4.45178783E+01
  0
LINE
  8
0
 62
7
 10
1.22360482E+02
 20
4.05178758E+01
 11
1.07360482E+02
 21
4.05178758E+01
  0
LINE
  8
0
 62
7
 10
1.12610485E+02
 20
5.07961897E+01
 11
1.12610485E+02
 21
5.22395822E+01
  0
LINE
  8
0
 62
7
 10
1.11360475E+02
 20
5.00744981E+01
 11
1.12610490E+02
 21
5.07961944E+01
  0
LINE
  8
0
 62
7
 10
1.10110464E+02
 20
5.07961853E+01
 11
1.11360473E+02
 21
5.00744922E+01
  0
LINE
  8
0
 62
7
 10
1.11360464E+02
 20
5.29612487E+01
 11
1.12610473E+02
 21
5.22395557E+01
  0
LINE
  8
0
 62
7
 10
1.10110485E+02
 20
5.07961897E+01
 11
1.10110485E+02
 21
5.22395822E+01
  0
LINE
  8
0
 62
7
 10
1.10110475E+02
 20
5.22395616E+01
 11
1.11360490E+02
 21
5.29612578E+01
  0
LINE
  8
0
 62
7
 10
1.12610485E+02
 20
3.27961846E+01
 11
1.12610485E+02
 21
3.42395707E+01
  0
LINE
  8
0
 62
7
 10
1.11360472E+02
 20
3.20744999E+01
 11
1.12610486E+02
 21
3.27961962E+01
  0
LINE
  8
0
 62
7
 10
1.10110468E+02
 20
3.27962002E+01
 11
1.11360483E+02
 21
3.20745040E+01
  0
LINE
  8
0
 62
7
 10
1.11360468E+02
 20
3.49612637E+01
 11
1.12610483E+02
 21
3.42395675E+01
  0
LINE
  8
0
 62
7
 10
1.10110485E+02
 20
3.27961846E+01
 11
1.10110485E+02
 21
3.42395707E+01
  0
LINE
  8
0
 62
7
 10
1.10110472E+02
 20
3.42395633E+01
 11
1.11360486E+02
 21
3.49612595E+01
  0
LINE
  8
0
 62
7
 10
1.22360482E+02
 20
6.15178796E+01
 11
1.22360482E+02
 21
2.35178809E+01
  0
LINE
  8
0
 62
7
 10
1.23360480E+02
 20
5.15178796E+01
 11
1.22360482E+02
 21
5.15178796E+01
  0
LINE
  8
0
 62
7
 10
1.23360480E+02
 20
3.15178796E+01
 11
1.22360482E+02
 21
3.15178796E+01
  0
LINE
  8
0
 62
7
 10
1.10360475E+02
 20
6.10178872E+01
 11
1.17360482E+02
 21
6.10178872E+01
  0
LINE
  8
0
 62
7
 10
1.10360475E+02
 20
6.25178898E+01
 11
-6.39524410E-01
 21
6.25178898E+01
  0
LINE
  8
0
 62
7
 10
-1.31639512E+02
 20
6.10178872E+01
 11
-1.38639514E+02
 21
6.10178872E+01
  0
LINE
  8
0
 62
7
 10
-1.38639514E+02
 20
6.25178898E+01
 11
-1.44639514E+02
 21
6.25178898E+01
  0
LINE
  8
0
 62
7
 10
-1.44639514E+02
 20
7.75178898E+01
 11
-1.25639515E+02
 21
7.75178898E+01
  0
LINE
  8
0
 62
7
 10
1.23360480E+02
 20
7.75178898E+01
 11
1.04360477E+02
 21
7.75178898E+01
  0
LINE
  8
0
 62
7
 10
1.23360480E+02
 20
1.14517872E+02
 11
1.23360480E+02
 21
-1.54821153E+01
  0
LINE
  8
0
 62
7
 10
-1.58639517E+02
 20
-9.48211787E+00
 11
-1.44639514E+02
 21
-9.48211787E+00
  0
LINE
  8
0
 62
7
 10
-1.58639517E+02
 20
1.08517875E+02
 11
-1.44639514E+02
 21
1.08517875E+02
  0
LINE
  8
0
 62
7
 10
-1.20639515E+02
 20
1.13517875E+02
 11
-6.39524410E-01
 21
1.13517875E+02
  0
LINE
  8
0
 62
7
 10
-1.20639515E+02
 20
-1.44821179E+01
 11
-6.39524410E-01
 21
-1.44821179E+01
  0
LINE
  8
0
  6
CENTER
 62
2
 10
-1.06395181E+01
 20
9.95178720E+01
 11
-1.06395181E+01
 21
8.95178847E+01
  0
LINE
  8
0
  6
CENTER
 62
2
 10
-1.10639513E+02
 20
9.95178720E+01
 11
-1.10639513E+02
 21
8.95178847E+01
  0
LINE
  8
0
 62
7
 10
-1.20639515E+02
 20
1.00178707E+01
 11
-6.39524410E-01
 21
1.00178707E+01
  0
LINE
  8
0
 62
7
 10
-1.20639515E+02
 20
8.90179050E+01
 11
-6.39524410E-01
 21
8.90179050E+01
  0
LINE
  8
0
 62
7
 10
1.23360480E+02
 20
1.08517875E+02
 11
1.37360482E+02
 21
1.08517875E+02
  0
LINE
  8
0
 62
7
 10
1.23360480E+02
 20
-9.48211787E+00
 11
1.37360482E+02
 21
-9.48211787E+00
  0
CIRCLE
  8
0
 62
4
 10
-1.06395181E+01
 20
9.45178847E+01
 40
2.09999998E+00
  0
CIRCLE
  8
0
 62
6
 10
-1.06395181E+01
 20
9.45178847E+01
 40
2.50000000E+00
  0
CIRCLE
  8
0
 62
7
 10
-1.39639511E+02
 20
8.15178796E+01
 40
3.49999984E+00
  0
CIRCLE
  8
0
 62
7
 10
-1.30639512E+02
 20
8.15178796E+01
 40
3.49999984E+00
  0
CIRCLE
  8
0
 62
7
 10
-1.33639514E+02
 20
5.15178796E+01
 40
2.74999976E+00
  0
ARC
  8
0
 62
7
 10
-1.33639514E+02
 20
5.15178796E+01
 40
5.00000000E+00
 50
3.23130102E+02
 51
3.68699041E+01
  0
ARC
  8
0
 62
7
 10
-1.33639514E+02
 20
3.35178809E+01
 40
5.00000000E+00
 50
3.23130102E+02
 51
3.68699041E+01
  0
CIRCLE
  8
0
 62
7
 10
-1.33639514E+02
 20
3.35178809E+01
 40
2.74999976E+00
  0
ARC
  8
0
 62
7
 10
-1.43639517E+02
 20
2.35178809E+01
 40
1.00000004E+00
 50
1.79999991E+02
 51
2.70000000E+02
  0
ARC
  8
0
 62
7
 10
-1.43639517E+02
 20
6.15178796E+01
 40
1.00000004E+00
 50
9.00000002E+01
 51
1.80000005E+02
  0
CIRCLE
  8
0
 62
7
 10
-1.51639516E+02
 20
8.51788722E+00
 40
5.49999952E+00
  0
CIRCLE
  8
0
 62
7
 10
-1.51639516E+02
 20
9.05178821E+01
 40
5.49999952E+00
  0
CIRCLE
  8
0
 62
7
 10
-1.51639516E+02
 20
9.05178821E+01
 40
3.29999983E+00
  0
CIRCLE
  8
0
 62
7
 10
-1.51639516E+02
 20
8.51788722E+00
 40
3.29999983E+00
  0
CIRCLE
  8
0
 62
7
 10
1.30360475E+02
 20
8.51788722E+00
 40
3.29999983E+00
  0
CIRCLE
  8
0
 62
7
 10
1.30360475E+02
 20
9.05178821E+01
 40
3.29999983E+00
  0
CIRCLE
  8
0
 62
7
 10
1.30360475E+02
 20
9.05178821E+01
 40
5.49999952E+00
  0
CIRCLE
  8
0
 62
7
 10
1.30360475E+02
 20
8.51788722E+00
 40
5.49999952E+00
  0
CIRCLE
  8
0
 62
4
 10
-1.10639513E+02
 20
9.45178847E+01
 40
2.09999998E+00
  0
CIRCLE
  8
0
 62
6
 10
-1.10639513E+02
 20
9.45178847E+01
 40
2.50000000E+00
  0
CIRCLE
  8
0
 62
4
 10
-1.06395181E+01
 20
4.51788467E+00
 40
2.09999998E+00
  0
CIRCLE
  8
0
 62
6
 10
-1.06395181E+01
 20
4.51788467E+00
 40
2.50000000E+00
  0
CIRCLE
  8
0
 62
6
 10
-1.10639513E+02
 20
4.51788467E+00
 40
2.50000000E+00
  0
CIRCLE
  8
0
 62
4
 10
-1.10639513E+02
 20
4.51788467E+00
 40
2.09999998E+00
  0
CIRCLE
  8
0
 62
7
 10
1.18360480E+02
 20
8.15178796E+01
 40
3.49999984E+00
  0
CIRCLE
  8
0
 62
7
 10
1.09360477E+02
 20
8.15178796E+01
 40
3.49999984E+00
  0
ARC
  8
0
 62
7
 10
1.11360485E+02
 20
5.15178796E+01
 40
5.00000000E+00
 50
1.43130097E+02
 51
2.16869899E+02
  0
ARC
  8
0
 62
7
 10
1.11360485E+02
 20
3.35178809E+01
 40
5.00000000E+00
 50
1.43130097E+02
 51
2.16869899E+02
  0
ARC
  8
0
 62
7
 10
1.21360485E+02
 20
2.35178809E+01
 40
1.00000004E+00
 50
2.70000000E+02
 51
9.33466770E-06
  0
ARC
  8
0
 62
7
 10
1.21360485E+02
 20
6.15178796E+01
 40
1.00000004E+00
 50
3.59999996E+02
 51
9.00000002E+01
  0
CIRCLE
  8
0
 62
7
 10
1.11360485E+02
 20
5.15178796E+01
 40
2.74999976E+00
  0
CIRCLE
  8
0
 62
7
 10
1.11360485E+02
 20
3.35178809E+01
 40
2.74999976E+00
  0
LINE
  8
0
  6
CENTER
 62
2
 10
-1.15639509E+02
 20
9.45178847E+01
 11
-5.63952441E+00
 21
9.45178847E+01
  0
LINE
  8
0
  6
CENTER
 62
2
 10
-1.06395181E+01
 20
9.51787196E+00
 11
-1.06395181E+01
 21
-4.82115326E-01
  0
LINE
  8
0
  6
CENTER
 62
2
 10
-1.10639513E+02
 20
9.51787196E+00
 11
-1.10639513E+02
 21
-4.82115326E-01
  0
LINE
  8
0
  6
CENTER
 62
2
 10
-1.15639513E+02
 20
4.51788467E+00
 11
-5.63952441E+00
 21
4.51788467E+00
  0
LINE
  8
0
  6
CENTER
 62
2
 10
-6.49394563E+01
 20
9.55178847E+01
 11
-5.59874861E+01
 21
9.55178847E+01
  0
LINE
  8
0
  6
CENTER
 62
2
 10
-6.49394563E+01
 20
9.35178846E+01
 11
-5.59874861E+01
 21
9.35178846E+01
  0
LINE
  8
0
 62
4
 10
-6.31395166E+01
 20
9.35178846E+01
 11
-6.31395166E+01
 21
9.55178847E+01
  0
LINE
  8
0
 62
4
 10
-5.81395164E+01
 20
9.35178846E+01
 11
-5.81395164E+01
 21
9.55178847E+01
  0
ARC
  8
0
 62
4
 10
-6.06395165E+01
 20
9.55178847E+01
 40
2.50000010E+00
 50
0.00000000E+00
 51
1.80000000E+02
  0
ARC
  8
0
 62
4
 10
-6.06395165E+01
 20
9.35178846E+01
 40
2.50000010E+00
 50
1.80000000E+02
 51
0.00000000E+00
  0
CIRCLE
  8
0
 62
4
 10
-6.06395165E+01
 20
4.51788467E+00
 40
2.50000010E+00
  0
LINE
  8
0
 62
7
 10
6.38604954E+01
 20
7.35178851E+01
 11
6.38604954E+01
 21
7.05178821E+01
  0
ARC
  8
0
 62
4
 10
-2.26567740E+02
 20
-1.04821113E+01
 40
1.30000000E+00
 50
2.40000000E+02
 51
2.70000000E+02
  0
ARC
  8
0
 62
4
 10
-2.27264408E+02
 20
-1.30821113E+01
 40
1.30000000E+00
 50
2.40000000E+02
 51
2.70000000E+02
  0
ARC
  8
0
 62
4
 10
-2.29346737E+02
 20
-1.48820993E+01
 40
1.30000000E+00
 50
5.99999994E+01
 51
9.00000002E+01
  0
ARC
  8
0
 62
4
 10
-2.28650069E+02
 20
-1.22820993E+01
 40
1.30000000E+00
 50
5.99999994E+01
 51
9.00000002E+01
  0
LINE
  8
0
 62
4
 10
-2.25736575E+02
 20
-1.17821113E+01
 11
-2.26567740E+02
 21
-1.17821113E+01
  0
LINE
  8
0
 62
4
 10
-2.26089522E+02
 20
-1.43821113E+01
 11
-2.27264408E+02
 21
-1.43821113E+01
  0
LINE
  8
0
 62
4
 10
-2.27914408E+02
 20
-1.42079443E+01
 11
-2.28696737E+02
 21
-1.37562663E+01
  0
LINE
  8
0
 62
4
 10
-2.27217740E+02
 20
-1.16079443E+01
 11
-2.28000069E+02
 21
-1.11562663E+01
  0
LINE
  8
0
 62
4
 10
-2.30639527E+02
 20
-1.35820993E+01
 11
-2.29346737E+02
 21
-1.35820993E+01
  0
LINE
  8
0
 62
4
 10
-2.30639527E+02
 20
-1.09820993E+01
 11
-2.28650069E+02
 21
-1.09820993E+01
  0
CIRCLE
  8
0
 62
4
 10
-2.30639527E+02
 20
-1.22820993E+01
 40
1.30000000E+00
  0
LINE
  8
0
  6
CENTER
 62
6
 10
-2.24039522E+02
 20
-1.75321153E+01
 11
-2.24039522E+02
 21
-1.05621153E+01
  0
LINE
  8
0
 62
4
 10
-2.21989522E+02
 20
-1.44821153E+01
 11
-2.21989522E+02
 21
-1.29321153E+01
  0
LINE
  8
0
 62
4
 10
-2.21989522E+02
 20
-1.44821153E+01
 11
-2.22539522E+02
 21
-1.50321153E+01
  0
LINE
  8
0
 62
4
 10
-2.22539522E+02
 20
-1.54821153E+01
 11
-2.22539522E+02
 21
-1.50321153E+01
  0
LINE
  8
0
 62
4
 10
-2.22539522E+02
 20
-1.54821153E+01
 11
-2.25539522E+02
 21
-1.54821153E+01
  0
LINE
  8
0
 62
4
 10
-2.25539522E+02
 20
-1.54821153E+01
 11
-2.25539522E+02
 21
-1.50321153E+01
  0
LINE
  8
0
 62
4
 10
-2.26089522E+02
 20
-1.44821153E+01
 11
-2.25539522E+02
 21
-1.50321153E+01
  0
LINE
  8
0
 62
4
 10
-2.26089522E+02
 20
-1.44821153E+01
 11
-2.26089522E+02
 21
-1.29321153E+01
  0
LINE
  8
0
 62
4
 10
-2.21989522E+02
 20
-1.36821153E+01
 11
-2.26089522E+02
 21
-1.36821153E+01
  0
LINE
  8
0
 62
4
 10
-2.21989522E+02
 20
-1.28921153E+01
 11
-2.26089522E+02
 21
-1.28921153E+01
  0
LINE
  8
0
 62
4
 10
-2.23019522E+02
 20
-1.14821153E+01
 11
-2.25059522E+02
 21
-1.14821153E+01
  0
LINE
  8
0
 62
4
 10
-2.25059522E+02
 20
-1.14821153E+01
 11
-2.25289522E+02
 21
-1.17121153E+01
  0
LINE
  8
0
 62
4
 10
-2.23019522E+02
 20
-1.14821153E+01
 11
-2.22789522E+02
 21
-1.17121153E+01
  0
LINE
  8
0
 62
4
 10
-2.22789522E+02
 20
-1.28921153E+01
 11
-2.22789522E+02
 21
-1.17121153E+01
  0
LINE
  8
0
 62
6
 10
-2.23019522E+02
 20
-1.28921153E+01
 11
-2.23019522E+02
 21
-1.14821153E+01
  0
LINE
  8
0
 62
6
 10
-2.25059522E+02
 20
-1.28921153E+01
 11
-2.25059522E+02
 21
-1.14821153E+01
  0
LINE
  8
0
 62
4
 10
-2.25289522E+02
 20
-1.28921153E+01
 11
-2.25289522E+02
 21
-1.17121153E+01
  0
LINE
  8
0
 62
4
 10
-2.22789522E+02
 20
-1.17121153E+01
 11
-2.25289522E+02
 21
-1.17121153E+01
  0
LINE
  8
0
 62
4
 10
-2.22789522E+02
 20
-1.59821153E+01
 11
-2.22789522E+02
 21
-1.54821153E+01
  0
LINE
  8
0
 62
6
 10
-2.23019522E+02
 20
-1.59821153E+01
 11
-2.23019522E+02
 21
-1.54821153E+01
  0
LINE
  8
0
 62
6
 10
-2.25059522E+02
 20
-1.59821153E+01
 11
-2.25059522E+02
 21
-1.54821153E+01
  0
LINE
  8
0
 62
4
 10
-2.25289522E+02
 20
-1.59821153E+01
 11
-2.25289522E+02
 21
-1.54821153E+01
  0
LINE
  8
0
 62
4
 10
-2.22789522E+02
 20
-1.59821153E+01
 11
-2.25289522E+02
 21
-1.59821153E+01
  0
ARC
  8
0
 62
4
 10
-2.24039525E+02
 20
-1.29321176E+01
 40
2.05000229E+00
 50
6.39705167E-05
 51
9.00000002E+01
  0
ARC
  8
0
 62
4
 10
-2.24039520E+02
 20
-1.29321176E+01
 40
2.05000229E+00
 50
9.00000002E+01
 51
1.79999936E+02
  0
LINE
  8
0
  6
CENTER
 62
2
 10
-2.67639517E+02
 20
8.51788722E+00
 11
-2.51639517E+02
 21
8.51788722E+00
  0
LINE
  8
0
  6
CENTER
 62
2
 10
-2.67639517E+02
 20
9.05178821E+01
 11
-2.51639517E+02
 21
9.05178821E+01
  0
LINE
  8
0
 62
7
 10
-2.06639525E+02
 20
1.00178898E+01
 11
-2.06639525E+02
 21
-1.44821115E+01
  0
LINE
  8
0
 62
7
 10
-2.07639522E+02
 20
8.80178821E+01
 11
-2.07639522E+02
 21
1.10178872E+01
  0
LINE
  8
0
 62
7
 10
-2.06639534E+02
 20
8.90178798E+01
 11
-2.07639525E+02
 21
8.80178897E+01
  0
LINE
  8
0
 62
7
 10
-2.06639525E+02
 20
1.13517875E+02
 11
-2.06639525E+02
 21
8.90178923E+01
  0
LINE
  8
0
 62
7
 10
-2.59639517E+02
 20
-9.48211151E+00
 11
-2.59639517E+02
 21
1.08517875E+02
  0
LINE
  8
0
 62
7
 10
-2.07639524E+02
 20
1.10178698E+01
 11
-2.06639535E+02
 21
1.00178813E+01
  0
LINE
  8
0
 62
7
 10
-2.18639507E+02
 20
1.08517875E+02
 11
-2.18639507E+02
 21
1.13517875E+02
  0
LINE
  8
0
 62
7
 10
-2.18639507E+02
 20
-9.48211151E+00
 11
-2.18639507E+02
 21
-1.44821115E+01
  0
LINE
  8
0
  6
CENTER
 62
2
 10
-2.38639507E+02
 20
1.15178859E+01
 11
-2.38639507E+02
 21
4.65178923E+01
  0
LINE
  8
0
  6
CENTER
 62
2
 10
-2.33639507E+02
 20
1.65178859E+01
 11
-2.43639507E+02
 21
1.65178859E+01
  0
LINE
  8
0
 62
7
 10
-2.08639519E+02
 20
1.08517875E+02
 11
-2.59639517E+02
 21
1.08517875E+02
  0
LINE
  8
0
 62
7
 10
-2.08639519E+02
 20
-9.48211151E+00
 11
-2.59639517E+02
 21
-9.48211151E+00
  0
LINE
  8
0
 62
7
 10
-2.27639523E+02
 20
-1.44821209E+01
 11
-2.29025152E+02
 21
-1.36821281E+01
  0
LINE
  8
0
 62
7
 10
-2.28274898E+02
 20
-1.08821054E+01
 11
-2.30639527E+02
 21
-1.08821054E+01
  0
LINE
  8
0
 62
7
 10
-2.33339519E+02
 20
-1.09821077E+01
 11
-2.33339519E+02
 21
-1.24821102E+01
  0
LINE
  8
0
 62
7
 10
-2.20639527E+02
 20
-1.54821153E+01
 11
-2.22439517E+02
 21
-1.54821153E+01
  0
LINE
  8
0
 62
7
 10
-2.21939511E+02
 20
-1.44820926E+01
 11
-2.22439514E+02
 21
-1.49820958E+01
  0
LINE
  8
0
 62
7
 10
-2.20639527E+02
 20
-1.29821153E+01
 11
-2.20639527E+02
 21
-1.54821153E+01
  0
LINE
  8
0
 62
7
 10
-2.26139513E+02
 20
-1.44821015E+01
 11
-2.25639514E+02
 21
-1.49821003E+01
  0
LINE
  8
0
 62
7
 10
-2.26139532E+02
 20
-1.44821115E+01
 11
-2.27639522E+02
 21
-1.44821115E+01
  0
LINE
  8
0
 62
7
 10
-2.25762882E+02
 20
-1.16821110E+01
 11
-2.26889273E+02
 21
-1.16821110E+01
  0
LINE
  8
0
 62
7
 10
-2.21939512E+02
 20
-1.44821115E+01
 11
-2.21939512E+02
 21
-1.28821067E+01
  0
LINE
  8
0
 62
7
 10
-2.26889267E+02
 20
-1.16821157E+01
 11
-2.28274907E+02
 21
-1.08821164E+01
  0
LINE
  8
0
 62
7
 10
-2.25639527E+02
 20
-1.54821153E+01
 11
-2.27907466E+02
 21
-1.54821153E+01
  0
LINE
  8
0
 62
7
 10
-2.25639527E+02
 20
-1.49821102E+01
 11
-2.25639527E+02
 21
-1.54821153E+01
  0
LINE
  8
0
 62
7
 10
-2.22439517E+02
 20
-1.49821102E+01
 11
-2.22439517E+02
 21
-1.54821153E+01
  0
LINE
  8
0
 62
7
 10
-2.27907477E+02
 20
-1.54821190E+01
 11
-2.28773511E+02
 21
-1.49821140E+01
  0
LINE
  8
0
 62
7
 10
-2.29025160E+02
 20
-1.36821123E+01
 11
-2.30639527E+02
 21
-1.36821123E+01
  0
LINE
  8
0
 62
7
 10
-2.28773504E+02
 20
-1.49821102E+01
 11
-2.30839519E+02
 21
-1.49821102E+01
  0
LINE
  8
0
 62
7
 10
-2.25639527E+02
 20
1.14517872E+02
 11
-2.27907466E+02
 21
1.14517872E+02
  0
LINE
  8
0
 62
7
 10
-2.22439517E+02
 20
1.14017880E+02
 11
-2.22439517E+02
 21
1.14517872E+02
  0
LINE
  8
0
 62
7
 10
-2.20639527E+02
 20
1.14517872E+02
 11
-2.22439517E+02
 21
1.14517872E+02
  0
LINE
  8
0
 62
7
 10
-2.27639528E+02
 20
1.13517866E+02
 11
-2.29025161E+02
 21
1.12717870E+02
  0
LINE
  8
0
 62
7
 10
-2.26889280E+02
 20
1.10717875E+02
 11
-2.28274924E+02
 21
1.09917872E+02
  0
LINE
  8
0
 62
7
 10
-2.26139532E+02
 20
1.13517875E+02
 11
-2.27639522E+02
 21
1.13517875E+02
  0
LINE
  8
0
 62
7
 10
-2.21939512E+02
 20
1.13517875E+02
 11
-2.21939512E+02
 21
1.11917863E+02
  0
LINE
  8
0
 62
7
 10
-2.25762882E+02
 20
1.10717874E+02
 11
-2.26889273E+02
 21
1.10717874E+02
  0
LINE
  8
0
 62
7
 10
-2.26139523E+02
 20
1.13517852E+02
 11
-2.25639522E+02
 21
1.14017852E+02
  0
LINE
  8
0
 62
7
 10
-2.20639527E+02
 20
1.12017872E+02
 11
-2.20639527E+02
 21
1.14517872E+02
  0
LINE
  8
0
 62
7
 10
-2.28274898E+02
 20
1.09917868E+02
 11
-2.30639527E+02
 21
1.09917868E+02
  0
LINE
  8
0
 62
7
 10
-2.33339519E+02
 20
1.10017877E+02
 11
-2.33339519E+02
 21
1.11517880E+02
  0
LINE
  8
0
 62
7
 10
-2.25639527E+02
 20
1.14017880E+02
 11
-2.25639527E+02
 21
1.14517872E+02
  0
LINE
  8
0
 62
7
 10
-2.21939526E+02
 20
1.13517856E+02
 11
-2.22439534E+02
 21
1.14017863E+02
  0
LINE
  8
0
 62
7
 10
-2.27907486E+02
 20
1.14517873E+02
 11
-2.28773526E+02
 21
1.14017864E+02
  0
LINE
  8
0
 62
7
 10
-2.29025160E+02
 20
1.12717869E+02
 11
-2.30639527E+02
 21
1.12717869E+02
  0
LINE
  8
0
 62
7
 10
-2.28773504E+02
 20
1.14017880E+02
 11
-2.30839519E+02
 21
1.14017880E+02
  0
LINE
  8
0
 62
7
 10
-2.08639519E+02
 20
1.08517875E+02
 11
-2.08639519E+02
 21
-9.48211151E+00
  0
LINE
  8
0
  6
CENTER
 62
2
 10
-2.33639507E+02
 20
4.15178859E+01
 11
-2.43639507E+02
 21
4.15178859E+01
  0
LINE
  8
0
 62
7
 10
-2.43389517E+02
 20
-9.48211151E+00
 11
-2.43389517E+02
 21
-1.04821153E+01
  0
LINE
  8
0
 62
7
 10
-2.49889507E+02
 20
-9.48211151E+00
 11
-2.49889507E+02
 21
-1.04821153E+01
  0
LINE
  8
0
 62
7
 10
-2.37139517E+02
 20
-1.04821153E+01
 11
-2.43389517E+02
 21
-1.04821153E+01
  0
LINE
  8
0
 62
7
 10
-2.49889507E+02
 20
-1.04821153E+01
 11
-2.59139512E+02
 21
-1.04821153E+01
  0
LINE
  8
0
 62
7
 10
-2.34339516E+02
 20
-9.98210388E+00
 11
-2.36139507E+02
 21
-9.98210388E+00
  0
LINE
  8
0
 62
7
 10
-2.59139512E+02
 20
-1.04821153E+01
 11
-2.59139512E+02
 21
-9.48211151E+00
  0
LINE
  8
0
 62
7
 10
-2.37139517E+02
 20
-1.04821153E+01
 11
-2.37139517E+02
 21
-9.48211151E+00
  0
LINE
  8
0
 62
7
 10
-2.37139517E+02
 20
1.09517872E+02
 11
-2.43389517E+02
 21
1.09517872E+02
  0
LINE
  8
0
 62
7
 10
-2.49889507E+02
 20
1.09517872E+02
 11
-2.59139512E+02
 21
1.09517872E+02
  0
LINE
  8
0
 62
7
 10
-2.49889507E+02
 20
1.08517875E+02
 11
-2.49889507E+02
 21
1.09517872E+02
  0
LINE
  8
0
 62
7
 10
-2.34339516E+02
 20
1.09017880E+02
 11
-2.36139507E+02
 21
1.09017880E+02
  0
LINE
  8
0
 62
7
 10
-2.59139512E+02
 20
1.09517872E+02
 11
-2.59139512E+02
 21
1.08517875E+02
  0
LINE
  8
0
 62
7
 10
-2.37139517E+02
 20
1.09517872E+02
 11
-2.37139517E+02
 21
1.08517875E+02
  0
LINE
  8
0
 62
7
 10
-2.43389517E+02
 20
1.08517875E+02
 11
-2.43389517E+02
 21
1.09517872E+02
  0
LINE
  8
0
 62
7
 10
-2.06639525E+02
 20
1.13517875E+02
 11
-2.18639507E+02
 21
1.13517875E+02
  0
LINE
  8
0
 62
7
 10
-2.06639525E+02
 20
-1.44821115E+01
 11
-2.18639507E+02
 21
-1.44821115E+01
  0
LINE
  8
0
 62
7
 10
-2.20489508E+02
 20
7.69754525E+01
 11
-2.20489508E+02
 21
6.70603168E+01
  0
LINE
  8
0
 62
7
 10
-2.21789518E+02
 20
7.69754525E+01
 11
-2.21789518E+02
 21
6.70603168E+01
  0
CIRCLE
  8
0
 62
7
 10
-2.38639507E+02
 20
1.65178859E+01
 40
2.09999998E+00
  0
CIRCLE
  8
0
 62
2
 10
-2.38639507E+02
 20
1.65178859E+01
 40
2.50000000E+00
  0
ARC
  8
0
 62
7
 10
-2.24039516E+02
 20
-1.28821067E+01
 40
2.09999998E+00
 50
2.50447807E-06
 51
1.45150057E+02
  0
ARC
  8
0
 62
7
 10
-2.30639527E+02
 20
-1.22820993E+01
 40
1.39999986E+00
 50
9.00000002E+01
 51
2.70000000E+02
  0
ARC
  8
0
 62
7
 10
-2.24139525E+02
 20
-1.29821153E+01
 40
3.49999984E+00
 50
2.50447806E-06
 51
9.00000002E+01
  0
ARC
  8
0
 62
7
 10
-2.30839519E+02
 20
-1.24821102E+01
 40
2.50000000E+00
 50
1.79999991E+02
 51
2.70000000E+02
  0
ARC
  8
0
 62
7
 10
-2.24039516E+02
 20
1.11917863E+02
 40
2.09999998E+00
 50
2.14849942E+02
 51
3.59999996E+02
  0
ARC
  8
0
 62
7
 10
-2.30639527E+02
 20
1.11317862E+02
 40
1.39999986E+00
 50
9.00000002E+01
 51
2.70000000E+02
  0
ARC
  8
0
 62
7
 10
-2.24139525E+02
 20
1.12017872E+02
 40
3.49999984E+00
 50
2.70000000E+02
 51
2.50447812E-06
  0
ARC
  8
0
 62
7
 10
-2.30839519E+02
 20
1.11517880E+02
 40
2.50000000E+00
 50
9.00000002E+01
 51
1.80000005E+02
  0
CIRCLE
  8
0
 62
7
 10
-2.38639507E+02
 20
4.15178859E+01
 40
2.09999998E+00
  0
CIRCLE
  8
0
 62
2
 10
-2.38639507E+02
 20
4.15178859E+01
 40
2.50000000E+00
  0
ARC
  8
0
 62
7
 10
-2.34339516E+02
 20
-1.09821077E+01
 40
1.00000004E+00
 50
3.59999996E+02
 51
9.00000002E+01
  0
ARC
  8
0
 62
7
 10
-2.36139507E+02
 20
-8.98210642E+00
 40
1.00000004E+00
 50
2.10000508E+02
 51
2.70000000E+02
  0
ARC
  8
0
 62
7
 10
-2.34339516E+02
 20
1.10017877E+02
 40
1.00000004E+00
 50
2.70000000E+02
 51
4.32571134E-06
  0
ARC
  8
0
 62
7
 10
-2.36139507E+02
 20
1.08017869E+02
 40
1.00000004E+00
 50
9.00000002E+01
 51
1.49999492E+02
  0
CIRCLE
  8
0
 62
7
 10
-2.21139507E+02
 20
7.20178847E+01
 40
5.99999944E+00
  0
CIRCLE
  8
0
 62
2
 10
-2.21139507E+02
 20
7.20178847E+01
 40
4.50000008E+00
  0
CIRCLE
  8
0
 62
7
 10
-2.21139507E+02
 20
7.20178847E+01
 40
5.00000000E+00
  0
LINE
  8
0
  6
CENTER
 62
2
 10
-2.21139507E+02
 20
6.40178847E+01
 11
-2.21139507E+02
 21
8.00178847E+01
  0
LINE
  8
0
  6
CENTER
 62
2
 10
-2.13139507E+02
 20
7.20178847E+01
 11
-2.29139507E+02
 21
7.20178847E+01
  0
ARC
  8
0
 62
4
 10
1.77968833E+02
 20
-1.31070980E+01
 40
1.30000000E+00
 50
2.70000000E+02
 51
3.00000000E+02
  0
ARC
  8
0
 62
4
 10
1.80094440E+02
 20
-1.48820993E+01
 40
1.30000000E+00
 50
9.00000002E+01
 51
1.20000000E+02
  0
ARC
  8
0
 62
4
 10
1.77305195E+02
 20
-1.04570938E+01
 40
1.30000000E+00
 50
2.70000000E+02
 51
3.00000000E+02
  0
ARC
  8
0
 62
4
 10
1.79344192E+02
 20
-1.22820993E+01
 40
1.30000000E+00
 50
9.00000002E+01
 51
1.20000000E+02
  0
LINE
  8
0
 62
4
 10
1.76440304E+02
 20
-1.17570938E+01
 11
1.77305195E+02
 21
-1.17570938E+01
  0
LINE
  8
0
 62
4
 10
1.76810476E+02
 20
-1.44070980E+01
 11
1.77968833E+02
 21
-1.44070980E+01
  0
LINE
  8
0
 62
4
 10
1.78618833E+02
 20
-1.42329310E+01
 11
1.79444440E+02
 21
-1.37562663E+01
  0
LINE
  8
0
 62
4
 10
1.77955195E+02
 20
-1.15829268E+01
 11
1.78694192E+02
 21
-1.11562663E+01
  0
LINE
  8
0
 62
4
 10
1.81360488E+02
 20
-1.35820993E+01
 11
1.80094440E+02
 21
-1.35820993E+01
  0
LINE
  8
0
 62
4
 10
1.81360488E+02
 20
-1.09820993E+01
 11
1.79344192E+02
 21
-1.09820993E+01
  0
CIRCLE
  8
0
 62
4
 10
1.81360488E+02
 20
-1.22820993E+01
 40
1.30000000E+00
  0
LINE
  8
0
  6
CENTER
 62
6
 10
1.74760476E+02
 20
-1.75321153E+01
 11
1.74760476E+02
 21
-1.05621153E+01
  0
LINE
  8
0
 62
4
 10
1.76810476E+02
 20
-1.44821153E+01
 11
1.76810476E+02
 21
-1.29321153E+01
  0
LINE
  8
0
 62
4
 10
1.76810476E+02
 20
-1.44821153E+01
 11
1.76260476E+02
 21
-1.50321153E+01
  0
LINE
  8
0
 62
4
 10
1.76260476E+02
 20
-1.54821153E+01
 11
1.76260476E+02
 21
-1.50321153E+01
  0
LINE
  8
0
 62
4
 10
1.76260476E+02
 20
-1.54821153E+01
 11
1.73260476E+02
 21
-1.54821153E+01
  0
LINE
  8
0
 62
4
 10
1.73260476E+02
 20
-1.54821153E+01
 11
1.73260476E+02
 21
-1.50321153E+01
  0
LINE
  8
0
 62
4
 10
1.72710476E+02
 20
-1.44821153E+01
 11
1.73260476E+02
 21
-1.50321153E+01
  0
LINE
  8
0
 62
4
 10
1.72710476E+02
 20
-1.44821153E+01
 11
1.72710476E+02
 21
-1.29321153E+01
  0
LINE
  8
0
 62
4
 10
1.76010476E+02
 20
-1.59821153E+01
 11
1.76010476E+02
 21
-1.54821153E+01
  0
LINE
  8
0
 62
6
 10
1.75780476E+02
 20
-1.59821153E+01
 11
1.75780476E+02
 21
-1.54821153E+01
  0
LINE
  8
0
 62
6
 10
1.73740476E+02
 20
-1.59821153E+01
 11
1.73740476E+02
 21
-1.54821153E+01
  0
LINE
  8
0
 62
4
 10
1.73510476E+02
 20
-1.59821153E+01
 11
1.73510476E+02
 21
-1.54821153E+01
  0
LINE
  8
0
 62
4
 10
1.76010476E+02
 20
-1.59821153E+01
 11
1.73510476E+02
 21
-1.59821153E+01
  0
ARC
  8
0
 62
4
 10
1.74760474E+02
 20
-1.29321176E+01
 40
2.05000229E+00
 50
6.39705167E-05
 51
9.00000002E+01
  0
ARC
  8
0
 62
4
 10
1.74760479E+02
 20
-1.29321176E+01
 40
2.05000229E+00
 50
9.00000002E+01
 51
1.79999936E+02
  0
CIRCLE
  8
0
 62
4
 10
1.74760476E+02
 20
-1.31816399E+01
 40
1.30000000E+00
  0
LINE
  8
0
  6
CENTER
 62
2
 10
2.02360477E+02
 20
8.51788722E+00
 11
2.18360477E+02
 21
8.51788722E+00
  0
LINE
  8
0
  6
CENTER
 62
2
 10
2.02360477E+02
 20
9.05178821E+01
 11
2.18360477E+02
 21
9.05178821E+01
  0
LINE
  8
0
 62
7
 10
1.94110474E+02
 20
-9.48211151E+00
 11
1.94110474E+02
 21
-1.04821408E+01
  0
LINE
  8
0
 62
7
 10
2.00610474E+02
 20
-9.48211151E+00
 11
2.00610474E+02
 21
-1.04821408E+01
  0
LINE
  8
0
  6
CENTER
 62
2
 10
1.71860493E+02
 20
8.00178847E+01
 11
1.71860493E+02
 21
6.40178847E+01
  0
LINE
  8
0
  6
CENTER
 62
2
 10
1.79860493E+02
 20
7.20178847E+01
 11
1.63860493E+02
 21
7.20178847E+01
  0
LINE
  8
0
 62
7
 10
1.94110474E+02
 20
1.08517875E+02
 11
1.94110474E+02
 21
1.09517872E+02
  0
LINE
  8
0
 62
7
 10
2.00610474E+02
 20
1.08517875E+02
 11
2.00610474E+02
 21
1.09517872E+02
  0
LINE
  8
0
 62
7
 10
1.76360488E+02
 20
-1.54821153E+01
 11
1.78628427E+02
 21
-1.54821153E+01
  0
LINE
  8
0
 62
7
 10
1.73160465E+02
 20
-1.49821102E+01
 11
1.73160465E+02
 21
-1.54821153E+01
  0
LINE
  8
0
 62
7
 10
1.71360488E+02
 20
-1.54821153E+01
 11
1.73160465E+02
 21
-1.54821153E+01
  0
LINE
  8
0
 62
7
 10
2.10360477E+02
 20
-9.48211151E+00
 11
2.10360477E+02
 21
1.08517875E+02
  0
LINE
  8
0
 62
7
 10
1.76360488E+02
 20
1.14517872E+02
 11
1.78628427E+02
 21
1.14517872E+02
  0
LINE
  8
0
 62
7
 10
1.71360488E+02
 20
1.14517872E+02
 11
1.73160465E+02
 21
1.14517872E+02
  0
LINE
  8
0
 62
7
 10
1.78360449E+02
 20
1.13517880E+02
 11
1.79746089E+02
 21
1.12717880E+02
  0
LINE
  8
0
 62
7
 10
1.76860493E+02
 20
1.13517875E+02
 11
1.78360482E+02
 21
1.13517875E+02
  0
LINE
  8
0
 62
7
 10
1.76860468E+02
 20
1.13517853E+02
 11
1.76360469E+02
 21
1.14017851E+02
  0
LINE
  8
0
 62
7
 10
1.72660460E+02
 20
1.13517875E+02
 11
1.72660460E+02
 21
1.11917863E+02
  0
LINE
  8
0
 62
7
 10
1.71360488E+02
 20
1.12017872E+02
 11
1.71360488E+02
 21
1.14517872E+02
  0
LINE
  8
0
 62
7
 10
1.57360472E+02
 20
1.13517875E+02
 11
1.57360472E+02
 21
8.90178923E+01
  0
LINE
  8
0
 62
7
 10
1.57360481E+02
 20
8.90178789E+01
 11
1.58360470E+02
 21
8.80178904E+01
  0
LINE
  8
0
 62
7
 10
1.78360478E+02
 20
-1.44821153E+01
 11
1.79746106E+02
 21
-1.36821225E+01
  0
LINE
  8
0
 62
7
 10
1.58360482E+02
 20
8.80178821E+01
 11
1.58360482E+02
 21
1.10178872E+01
  0
LINE
  8
0
 62
7
 10
1.57360472E+02
 20
1.00178898E+01
 11
1.57360472E+02
 21
-1.44821179E+01
  0
LINE
  8
0
 62
7
 10
1.72660453E+02
 20
1.13517839E+02
 11
1.73160478E+02
 21
1.14017865E+02
  0
LINE
  8
0
 62
7
 10
1.76483829E+02
 20
1.10717874E+02
 11
1.77610233E+02
 21
1.10717874E+02
  0
LINE
  8
0
 62
7
 10
1.77610231E+02
 20
-1.16821010E+01
 11
1.78995860E+02
 21
-1.08821081E+01
  0
LINE
  8
0
 62
7
 10
1.76860493E+02
 20
-1.44821115E+01
 11
1.78360482E+02
 21
-1.44821115E+01
  0
LINE
  8
0
 62
7
 10
1.72660460E+02
 20
-1.44821115E+01
 11
1.72660460E+02
 21
-1.28821067E+01
  0
LINE
  8
0
 62
7
 10
1.76483829E+02
 20
-1.16821110E+01
 11
1.77610233E+02
 21
-1.16821110E+01
  0
LINE
  8
0
 62
7
 10
1.76860472E+02
 20
-1.44821150E+01
 11
1.76360483E+02
 21
-1.49821048E+01
  0
LINE
  8
0
 62
7
 10
1.71360488E+02
 20
-1.29821153E+01
 11
1.71360488E+02
 21
-1.54821153E+01
  0
LINE
  8
0
 62
7
 10
1.78995858E+02
 20
-1.08821054E+01
 11
1.81360488E+02
 21
-1.08821054E+01
  0
LINE
  8
0
 62
7
 10
1.84060505E+02
 20
-1.08821054E+01
 11
1.84060505E+02
 21
-1.24821102E+01
  0
LINE
  8
0
 62
7
 10
1.76360488E+02
 20
-1.49821102E+01
 11
1.76360488E+02
 21
-1.54821153E+01
  0
LINE
  8
0
 62
7
 10
1.79746108E+02
 20
1.12717869E+02
 11
1.81360488E+02
 21
1.12717869E+02
  0
LINE
  8
0
 62
7
 10
1.72660462E+02
 20
-1.44821330E+01
 11
1.73160460E+02
 21
-1.49821317E+01
  0
LINE
  8
0
 62
7
 10
1.58360456E+02
 20
1.10178653E+01
 11
1.57360477E+02
 21
1.00178858E+01
  0
LINE
  8
0
 62
7
 10
1.69360493E+02
 20
1.08517875E+02
 11
1.69360493E+02
 21
1.13517875E+02
  0
LINE
  8
0
 62
7
 10
1.69360493E+02
 20
-9.48211151E+00
 11
1.69360493E+02
 21
-1.44821179E+01
  0
LINE
  8
0
 62
7
 10
1.73160465E+02
 20
1.14017880E+02
 11
1.73160465E+02
 21
1.14517872E+02
  0
LINE
  8
0
 62
7
 10
1.78995858E+02
 20
1.09917868E+02
 11
1.81360488E+02
 21
1.09917868E+02
  0
LINE
  8
0
 62
7
 10
1.76360488E+02
 20
1.14017880E+02
 11
1.76360488E+02
 21
1.14517872E+02
  0
LINE
  8
0
 62
7
 10
1.84060505E+02
 20
1.10017877E+02
 11
1.84060505E+02
 21
1.11517880E+02
  0
LINE
  8
0
 62
7
 10
1.77610212E+02
 20
1.10717882E+02
 11
1.78995852E+02
 21
1.09917883E+02
  0
LINE
  8
0
 62
7
 10
1.78628408E+02
 20
1.14517886E+02
 11
1.79494453E+02
 21
1.14017875E+02
  0
LINE
  8
0
 62
7
 10
1.78628430E+02
 20
-1.54821107E+01
 11
1.79494464E+02
 21
-1.49821056E+01
  0
LINE
  8
0
 62
7
 10
1.79746108E+02
 20
-1.36821123E+01
 11
1.81360488E+02
 21
-1.36821123E+01
  0
LINE
  8
0
 62
7
 10
1.79494465E+02
 20
1.14017880E+02
 11
1.81560505E+02
 21
1.14017880E+02
  0
LINE
  8
0
 62
7
 10
1.79494465E+02
 20
-1.49821102E+01
 11
1.81560505E+02
 21
-1.49821102E+01
  0
LINE
  8
0
 62
7
 10
1.59360493E+02
 20
1.08517875E+02
 11
1.59360493E+02
 21
-9.48211151E+00
  0
LINE
  8
0
 62
7
 10
1.85060490E+02
 20
-9.98210388E+00
 11
1.86860493E+02
 21
-9.98210388E+00
  0
LINE
  8
0
 62
7
 10
1.87860477E+02
 20
-1.04821153E+01
 11
1.87860477E+02
 21
-9.48211151E+00
  0
LINE
  8
0
 62
7
 10
1.59360493E+02
 20
-9.48211151E+00
 11
2.10360477E+02
 21
-9.48211151E+00
  0
LINE
  8
0
 62
7
 10
1.87860477E+02
 20
1.09517872E+02
 11
1.87860477E+02
 21
1.08517875E+02
  0
LINE
  8
0
 62
7
 10
1.85060490E+02
 20
1.09017880E+02
 11
1.86860493E+02
 21
1.09017880E+02
  0
LINE
  8
0
 62
7
 10
1.87860477E+02
 20
1.09517872E+02
 11
1.94110477E+02
 21
1.09517872E+02
  0
LINE
  8
0
 62
7
 10
1.59360493E+02
 20
1.08517875E+02
 11
2.10360477E+02
 21
1.08517875E+02
  0
LINE
  8
0
 62
7
 10
1.72510466E+02
 20
7.69754525E+01
 11
1.72510466E+02
 21
6.70603168E+01
  0
LINE
  8
0
 62
7
 10
1.71210494E+02
 20
7.69754525E+01
 11
1.71210494E+02
 21
6.70603168E+01
  0
ARC
  8
0
 62
7
 10
1.81360488E+02
 20
1.11317862E+02
 40
1.39999986E+00
 50
2.70000000E+02
 51
9.00000002E+01
  0
ARC
  8
0
 62
7
 10
1.74860472E+02
 20
1.12017872E+02
 40
3.49999984E+00
 50
1.79999991E+02
 51
2.70000000E+02
  0
ARC
  8
0
 62
7
 10
1.81560505E+02
 20
1.11517880E+02
 40
2.50000000E+00
 50
3.60000000E+02
 51
9.00000002E+01
  0
ARC
  8
0
 62
7
 10
1.74760476E+02
 20
1.11917863E+02
 40
2.09999998E+00
 50
1.80000008E+02
 51
3.25150053E+02
  0
ARC
  8
0
 62
7
 10
1.74760476E+02
 20
-1.28821067E+01
 40
2.09999998E+00
 50
3.48499474E+01
 51
1.79999991E+02
  0
ARC
  8
0
 62
7
 10
1.81360488E+02
 20
-1.22820993E+01
 40
1.39999986E+00
 50
2.70000000E+02
 51
9.00000002E+01
  0
ARC
  8
0
 62
7
 10
1.74860472E+02
 20
-1.29821153E+01
 40
3.49999984E+00
 50
9.00000002E+01
 51
1.79999991E+02
  0
ARC
  8
0
 62
7
 10
1.81560505E+02
 20
-1.24821102E+01
 40
2.50000000E+00
 50
2.70000000E+02
 51
2.50447807E-06
  0
ARC
  8
0
 62
7
 10
1.86860493E+02
 20
-8.98210642E+00
 40
1.00000004E+00
 50
2.70000000E+02
 51
3.29999491E+02
  0
ARC
  8
0
 62
7
 10
1.86860493E+02
 20
1.08017869E+02
 40
1.00000004E+00
 50
3.00005097E+01
 51
9.00000002E+01
  0
ARC
  8
0
 62
7
 10
1.85060490E+02
 20
1.10017877E+02
 40
1.00000004E+00
 50
1.79999991E+02
 51
2.70000000E+02
  0
ARC
  8
0
 62
7
 10
1.85060490E+02
 20
-1.09821077E+01
 40
1.00000004E+00
 50
9.00000002E+01
 51
1.80000005E+02
  0
CIRCLE
  8
0
 62
7
 10
1.71860493E+02
 20
7.20178847E+01
 40
5.99999944E+00
  0
CIRCLE
  8
0
 62
7
 10
1.71860493E+02
 20
7.20178847E+01
 40
5.00000000E+00
  0
CIRCLE
  8
0
 62
2
 10
1.71860493E+02
 20
7.20178847E+01
 40
4.50000008E+00
  0
LINE
  8
0
 62
7
 10
2.09860472E+02
 20
1.09517872E+02
 11
2.09860472E+02
 21
1.08517875E+02
  0
LINE
  8
0
 62
7
 10
2.00610474E+02
 20
1.09517872E+02
 11
2.09860472E+02
 21
1.09517872E+02
  0
LINE
  8
0
 62
7
 10
2.00610474E+02
 20
-1.04821408E+01
 11
2.09860472E+02
 21
-1.04821408E+01
  0
LINE
  8
0
 62
7
 10
1.87860474E+02
 20
-1.04821408E+01
 11
1.94110474E+02
 21
-1.04821408E+01
  0
LINE
  8
0
 62
7
 10
2.09860472E+02
 20
-1.04821408E+01
 11
2.09860472E+02
 21
-9.48211151E+00
  0
LINE
  8
0
  6
DASHED
 62
2
 10
2.00610474E+02
 20
1.06017868E+02
 11
2.00610474E+02
 21
1.08517875E+02
  0
LINE
  8
0
  6
DASHED
 62
2
 10
1.94110474E+02
 20
1.06017868E+02
 11
1.94110474E+02
 21
1.08517875E+02
  0
LINE
  8
0
  6
CENTER
 62
2
 10
1.97360475E+02
 20
9.70178592E+01
 11
1.97360475E+02
 21
1.12017872E+02
  0
LINE
  8
0
  6
DASHED
 62
2
 10
1.92110476E+02
 20
1.06017868E+02
 11
2.02610472E+02
 21
1.06017868E+02
  0
LINE
  8
0
  6
DASHED
 62
2
 10
1.94110474E+02
 20
9.95178592E+01
 11
1.94110474E+02
 21
1.00517869E+02
  0
LINE
  8
0
  6
DASHED
 62
2
 10
1.92110476E+02
 20
1.00517869E+02
 11
1.94110474E+02
 21
1.00517869E+02
  0
LINE
  8
0
  6
DASHED
 62
2
 10
2.00610474E+02
 20
1.00517869E+02
 11
2.02610472E+02
 21
1.00517869E+02
  0
LINE
  8
0
  6
DASHED
 62
2
 10
1.92110476E+02
 20
1.00517869E+02
 11
1.92110476E+02
 21
1.06017868E+02
  0
LINE
  8
0
  6
DASHED
 62
2
 10
2.00610474E+02
 20
9.95178592E+01
 11
2.00610474E+02
 21
1.00517869E+02
  0
LINE
  8
0
  6
DASHED
 62
2
 10
1.94110474E+02
 20
9.95178592E+01
 11
2.00610474E+02
 21
9.95178592E+01
  0
LINE
  8
0
  6
DASHED
 62
2
 10
2.02610472E+02
 20
1.00517869E+02
 11
2.02610472E+02
 21
1.06017868E+02
  0
LINE
  8
0
  6
DASHED
 62
2
 10
1.92360475E+02
 20
1.01517867E+02
 11
2.02360472E+02
 21
1.01517867E+02
  0
LINE
  8
0
  6
DASHED
 62
2
 10
2.02360472E+02
 20
1.01517867E+02
 11
2.02360472E+02
 21
1.06017868E+02
  0
LINE
  8
0
  6
DASHED
 62
2
 10
1.92360475E+02
 20
1.01517867E+02
 11
1.92360475E+02
 21
1.06017868E+02
  0
LINE
  8
0
  6
DASHED
 62
2
 10
2.00360474E+02
 20
1.01517867E+02
 11
2.00360474E+02
 21
1.06017868E+02
  0
LINE
  8
0
  6
DASHED
 62
2
 10
1.94360474E+02
 20
1.01517867E+02
 11
1.94360474E+02
 21
1.06017868E+02
  0
LINE
  8
0
  6
DASHED
 62
2
 10
1.99860475E+02
 20
1.01517867E+02
 11
1.99860475E+02
 21
1.06017868E+02
  0
LINE
  8
0
  6
DASHED
 62
2
 10
1.94860475E+02
 20
1.01517867E+02
 11
1.94860475E+02
 21
1.06017868E+02
  0
LINE
  8
0
  6
DASHED
 62
2
 10
2.06860470E+02
 20
8.87678643E+01
 11
2.10360471E+02
 21
8.87678643E+01
  0
LINE
  8
0
  6
DASHED
 62
2
 10
2.06860470E+02
 20
9.52678669E+01
 11
2.10360471E+02
 21
9.52678669E+01
  0
LINE
  8
0
  6
CENTER
 62
2
 10
1.97860474E+02
 20
9.20178592E+01
 11
2.12860471E+02
 21
9.20178592E+01
  0
LINE
  8
0
  6
DASHED
 62
2
 10
2.01360475E+02
 20
8.67678694E+01
 11
2.06860470E+02
 21
8.67678694E+01
  0
LINE
  8
0
  6
DASHED
 62
2
 10
2.01360475E+02
 20
9.72678618E+01
 11
2.06860470E+02
 21
9.72678618E+01
  0
LINE
  8
0
  6
DASHED
 62
2
 10
2.00360474E+02
 20
8.87678643E+01
 11
2.01360475E+02
 21
8.87678643E+01
  0
LINE
  8
0
  6
DASHED
 62
2
 10
2.00360474E+02
 20
9.52678669E+01
 11
2.00360474E+02
 21
8.87678643E+01
  0
LINE
  8
0
  6
DASHED
 62
2
 10
2.00360474E+02
 20
9.52678669E+01
 11
2.01360475E+02
 21
9.52678669E+01
  0
LINE
  8
0
  6
DASHED
 62
2
 10
2.01360475E+02
 20
9.72678618E+01
 11
2.01360475E+02
 21
9.52678669E+01
  0
LINE
  8
0
  6
DASHED
 62
2
 10
2.06860470E+02
 20
9.72678618E+01
 11
2.06860470E+02
 21
8.67678694E+01
  0
LINE
  8
0
  6
DASHED
 62
2
 10
2.01360475E+02
 20
8.87678643E+01
 11
2.01360475E+02
 21
8.67678694E+01
  0
LINE
  8
0
  6
DASHED
 62
2
 10
2.02360472E+02
 20
9.70178592E+01
 11
2.02360472E+02
 21
8.70178592E+01
  0
LINE
  8
0
  6
DASHED
 62
2
 10
2.02360472E+02
 20
8.70178592E+01
 11
2.06860470E+02
 21
8.70178592E+01
  0
LINE
  8
0
  6
DASHED
 62
2
 10
2.02360472E+02
 20
9.70178592E+01
 11
2.06860470E+02
 21
9.70178592E+01
  0
LINE
  8
0
  6
DASHED
 62
2
 10
2.02360472E+02
 20
8.90178669E+01
 11
2.06860470E+02
 21
8.90178669E+01
  0
LINE
  8
0
  6
DASHED
 62
2
 10
2.02360472E+02
 20
9.50178643E+01
 11
2.06860470E+02
 21
9.50178643E+01
  0
LINE
  8
0
  6
DASHED
 62
2
 10
2.02360472E+02
 20
9.45178592E+01
 11
2.06860470E+02
 21
9.45178592E+01
  0
LINE
  8
0
  6
DASHED
 62
2
 10
2.02360472E+02
 20
8.95178592E+01
 11
2.06860470E+02
 21
8.95178592E+01
  0
LINE
  8
0
  6
DASHED
 62
2
 10
1.94110474E+02
 20
-6.98213058E+00
 11
1.94110474E+02
 21
-9.48211151E+00
  0
LINE
  8
0
  6
DASHED
 62
2
 10
2.00610474E+02
 20
-6.98213058E+00
 11
2.00610474E+02
 21
-9.48211151E+00
  0
LINE
  8
0
  6
CENTER
 62
2
 10
1.97360475E+02
 20
2.01787196E+00
 11
1.97360475E+02
 21
-1.29821408E+01
  0
LINE
  8
0
  6
DASHED
 62
2
 10
2.00610474E+02
 20
-4.82128041E-01
 11
2.00610474E+02
 21
-1.48212550E+00
  0
LINE
  8
0
  6
DASHED
 62
2
 10
2.02610472E+02
 20
-1.48212550E+00
 11
2.02610472E+02
 21
-6.98213058E+00
  0
LINE
  8
0
  6
DASHED
 62
2
 10
2.00610474E+02
 20
-1.48212550E+00
 11
2.02610472E+02
 21
-1.48212550E+00
  0
LINE
  8
0
  6
DASHED
 62
2
 10
1.92110476E+02
 20
-1.48212550E+00
 11
1.92110476E+02
 21
-6.98213058E+00
  0
LINE
  8
0
  6
DASHED
 62
2
 10
1.94110474E+02
 20
-4.82128041E-01
 11
2.00610474E+02
 21
-4.82128041E-01
  0
LINE
  8
0
  6
DASHED
 62
2
 10
1.92110476E+02
 20
-1.48212550E+00
 11
1.94110474E+02
 21
-1.48212550E+00
  0
LINE
  8
0
  6
DASHED
 62
2
 10
1.92110476E+02
 20
-6.98213058E+00
 11
2.02610472E+02
 21
-6.98213058E+00
  0
LINE
  8
0
  6
DASHED
 62
2
 10
1.94110474E+02
 20
-4.82128041E-01
 11
1.94110474E+02
 21
-1.48212550E+00
  0
LINE
  8
0
  6
DASHED
 62
2
 10
1.92360475E+02
 20
-2.48213567E+00
 11
2.02360472E+02
 21
-2.48213567E+00
  0
LINE
  8
0
  6
DASHED
 62
2
 10
2.02360472E+02
 20
-2.48213567E+00
 11
2.02360472E+02
 21
-6.98213058E+00
  0
LINE
  8
0
  6
DASHED
 62
2
 10
1.92360475E+02
 20
-2.48213567E+00
 11
1.92360475E+02
 21
-6.98213058E+00
  0
LINE
  8
0
  6
DASHED
 62
2
 10
2.00360474E+02
 20
-2.48213567E+00
 11
2.00360474E+02
 21
-6.98213058E+00
  0
LINE
  8
0
  6
DASHED
 62
2
 10
1.94360474E+02
 20
-2.48213567E+00
 11
1.94360474E+02
 21
-6.98213058E+00
  0
LINE
  8
0
  6
DASHED
 62
2
 10
1.99860475E+02
 20
-2.48213567E+00
 11
1.99860475E+02
 21
-6.98213058E+00
  0
LINE
  8
0
  6
DASHED
 62
2
 10
1.94860475E+02
 20
-2.48213567E+00
 11
1.94860475E+02
 21
-6.98213058E+00
  0
LINE
  8
0
  6
CENTER
 62
2
 10
1.97860474E+02
 20
7.01787196E+00
 11
2.12860471E+02
 21
7.01787196E+00
  0
LINE
  8
0
  6
DASHED
 62
2
 10
2.00360474E+02
 20
3.76787704E+00
 11
2.01360475E+02
 21
3.76787704E+00
  0
LINE
  8
0
  6
DASHED
 62
2
 10
2.00360474E+02
 20
1.02678796E+01
 11
2.01360475E+02
 21
1.02678796E+01
  0
LINE
  8
0
  6
DASHED
 62
2
 10
2.06860470E+02
 20
1.02678796E+01
 11
2.10360471E+02
 21
1.02678796E+01
  0
LINE
  8
0
  6
DASHED
 62
2
 10
2.06860470E+02
 20
3.76787704E+00
 11
2.10360471E+02
 21
3.76787704E+00
  0
LINE
  8
0
  6
DASHED
 62
2
 10
2.01360475E+02
 20
1.76788213E+00
 11
2.06860470E+02
 21
1.76788213E+00
  0
LINE
  8
0
  6
DASHED
 62
2
 10
2.01360475E+02
 20
1.22678745E+01
 11
2.06860470E+02
 21
1.22678745E+01
  0
LINE
  8
0
  6
DASHED
 62
2
 10
2.01360475E+02
 20
1.76788213E+00
 11
2.01360475E+02
 21
3.76787704E+00
  0
LINE
  8
0
  6
DASHED
 62
2
 10
2.06860470E+02
 20
1.76788213E+00
 11
2.06860470E+02
 21
1.22678745E+01
  0
LINE
  8
0
  6
DASHED
 62
2
 10
2.01360475E+02
 20
1.02678796E+01
 11
2.01360475E+02
 21
1.22678745E+01
  0
LINE
  8
0
  6
DASHED
 62
2
 10
2.02360472E+02
 20
1.20178720E+01
 11
2.06860470E+02
 21
1.20178720E+01
  0
LINE
  8
0
  6
DASHED
 62
2
 10
2.02360472E+02
 20
2.01787196E+00
 11
2.02360472E+02
 21
1.20178720E+01
  0
LINE
  8
0
  6
DASHED
 62
2
 10
2.02360472E+02
 20
2.01787196E+00
 11
2.06860470E+02
 21
2.01787196E+00
  0
LINE
  8
0
  6
DASHED
 62
2
 10
2.02360472E+02
 20
4.01787959E+00
 11
2.06860470E+02
 21
4.01787959E+00
  0
LINE
  8
0
  6
DASHED
 62
2
 10
2.02360472E+02
 20
1.00178770E+01
 11
2.06860470E+02
 21
1.00178770E+01
  0
LINE
  8
0
  6
DASHED
 62
2
 10
2.02360472E+02
 20
4.51787196E+00
 11
2.06860470E+02
 21
4.51787196E+00
  0
LINE
  8
0
  6
DASHED
 62
2
 10
2.02360472E+02
 20
9.51787196E+00
 11
2.06860470E+02
 21
9.51787196E+00
  0
LINE
  8
0
  6
DASHED
 62
2
 10
2.00360474E+02
 20
3.76787704E+00
 11
2.00360474E+02
 21
1.02678796E+01
  0
LINE
  8
0
 62
7
 10
1.57360472E+02
 20
1.13517875E+02
 11
1.69360493E+02
 21
1.13517875E+02
  0
LINE
  8
0
 62
7
 10
1.57360472E+02
 20
-1.44821179E+01
 11
1.69360493E+02
 21
-1.44821179E+01
  0
LINE
  8
0
  6
CENTER
 62
2
 10
3.93604835E+01
 20
-7.21487796E+01
 11
3.93604835E+01
 21
-1.35148782E+02
  0
LINE
  8
0
  6
CENTER
 62
2
 10
-6.06395165E+01
 20
-7.21487796E+01
 11
-6.06395165E+01
 21
-1.35148782E+02
  0
LINE
  8
0
  6
PHANTOM
 10
1.93604796E+01
 20
-3.99563975E+01
 11
1.93604796E+01
 21
-1.44363333E+02
  0
LINE
  8
0
  6
CENTER
 62
2
 10
1.30360475E+02
 20
-1.38148776E+02
 11
1.30360475E+02
 21
-1.22148776E+02
  0
LINE
  8
0
  6
CENTER
 62
2
 10
-1.51639516E+02
 20
-1.38148776E+02
 11
-1.51639516E+02
 21
-1.22148776E+02
  0
LINE
  8
0
  6
CENTER
 62
6
 10
3.53604835E+01
 20
-9.17187805E+01
 11
3.53604835E+01
 21
-9.72987805E+01
  0
LINE
  8
0
  6
CENTER
 62
6
 10
3.05604835E+01
 20
-9.45487805E+01
 11
6.07604835E+01
 21
-9.45487805E+01
  0
LINE
  8
0
 62
4
 10
3.33604835E+01
 20
-9.60487805E+01
 11
5.53604835E+01
 21
-9.60487805E+01
  0
LINE
  8
0
 62
4
 10
3.33604835E+01
 20
-9.30487805E+01
 11
5.53604835E+01
 21
-9.30487805E+01
  0
LINE
  8
0
 62
6
 10
5.64404835E+01
 20
-9.23887805E+01
 11
5.89404835E+01
 21
-9.67087805E+01
  0
LINE
  8
0
 62
4
 10
5.53604835E+01
 20
-9.32487805E+01
 11
5.69404835E+01
 21
-9.32487805E+01
  0
LINE
  8
0
 62
4
 10
5.53604835E+01
 20
-9.58487805E+01
 11
5.84504835E+01
 21
-9.58487805E+01
  0
LINE
  8
0
 62
4
 10
3.43504835E+01
 20
-9.52687805E+01
 11
3.60904835E+01
 21
-9.35387805E+01
  0
LINE
  8
0
 62
4
 10
3.46304835E+01
 20
-9.55487805E+01
 11
3.63704835E+01
 21
-9.38187805E+01
  0
LINE
  8
0
 62
4
 10
3.33604835E+01
 20
-9.29487805E+01
 11
3.33604835E+01
 21
-9.61487805E+01
  0
LINE
  8
0
 62
4
 10
5.53604835E+01
 20
-9.29487805E+01
 11
5.53604835E+01
 21
-9.61487805E+01
  0
CIRCLE
  8
0
 62
6
 10
3.53604988E+01
 20
-9.45550671E+01
 40
1.00000000E+00
  0
CIRCLE
  8
0
 62
4
 10
3.53604988E+01
 20
-9.45550671E+01
 40
1.25000000E+00
  0
LINE
  8
0
  6
CENTER
 62
6
 10
-6.46395165E+01
 20
-9.17187805E+01
 11
-6.46395165E+01
 21
-9.72987805E+01
  0
LINE
  8
0
  6
CENTER
 62
6
 10
-6.94395165E+01
 20
-9.45487805E+01
 11
-3.92395165E+01
 21
-9.45487805E+01
  0
LINE
  8
0
 62
4
 10
-6.66395165E+01
 20
-9.60487805E+01
 11
-4.46395165E+01
 21
-9.60487805E+01
  0
LINE
  8
0
 62
4
 10
-6.66395165E+01
 20
-9.30487805E+01
 11
-4.46395165E+01
 21
-9.30487805E+01
  0
LINE
  8
0
 62
6
 10
-4.35595165E+01
 20
-9.23887805E+01
 11
-4.10595165E+01
 21
-9.67087805E+01
  0
LINE
  8
0
 62
4
 10
-4.46395165E+01
 20
-9.32487805E+01
 11
-4.30595165E+01
 21
-9.32487805E+01
  0
LINE
  8
0
 62
4
 10
-4.46395165E+01
 20
-9.58487805E+01
 11
-4.15495165E+01
 21
-9.58487805E+01
  0
LINE
  8
0
 62
4
 10
-6.56495165E+01
 20
-9.52687805E+01
 11
-6.39095165E+01
 21
-9.35387805E+01
  0
LINE
  8
0
 62
4
 10
-6.53695165E+01
 20
-9.55487805E+01
 11
-6.36295165E+01
 21
-9.38187805E+01
  0
LINE
  8
0
 62
4
 10
-6.66395165E+01
 20
-9.29487805E+01
 11
-6.66395165E+01
 21
-9.61487805E+01
  0
LINE
  8
0
 62
4
 10
-4.46395165E+01
 20
-9.29487805E+01
 11
-4.46395165E+01
 21
-9.61487805E+01
  0
CIRCLE
  8
0
 62
6
 10
-6.46395012E+01
 20
-9.45550671E+01
 40
1.00000000E+00
  0
CIRCLE
  8
0
 62
4
 10
-6.46395012E+01
 20
-9.45550671E+01
 40
1.25000000E+00
  0
LINE
  8
0
 62
7
 10
-1.44639514E+02
 20
-1.30148776E+02
 11
-1.44639514E+02
 21
-7.91487800E+01
  0
LINE
  8
0
 62
7
 10
-1.58639517E+02
 20
-7.91487800E+01
 11
-1.58639517E+02
 21
-1.30148776E+02
  0
LINE
  8
0
 62
7
 10
-1.20639515E+02
 20
-7.71487796E+01
 11
-1.20639515E+02
 21
-8.91487800E+01
  0
LINE
  8
0
 62
7
 10
-1.58639517E+02
 20
-1.30148776E+02
 11
1.37360482E+02
 21
-1.30148776E+02
  0
LINE
  8
0
 62
7
 10
-1.20639515E+02
 20
-7.71487796E+01
 11
-6.39524410E-01
 21
-7.71487796E+01
  0
LINE
  8
0
 62
7
 10
-1.25639515E+02
 20
-7.91487800E+01
 11
-1.25639515E+02
 21
-9.11487797E+01
  0
LINE
  8
0
 62
7
 10
-1.35139512E+02
 20
-8.09167311E+01
 11
-1.33639515E+02
 21
-8.17827548E+01
  0
LINE
  8
0
 62
7
 10
-1.36639512E+02
 20
-8.35148076E+01
 11
-1.35139515E+02
 21
-8.43808313E+01
  0
LINE
  8
0
 62
7
 10
-1.35139515E+02
 20
-8.43808279E+01
 11
-1.33639513E+02
 21
-8.35148010E+01
  0
LINE
  8
0
 62
7
 10
-1.36639516E+02
 20
-8.17827501E+01
 11
-1.35139514E+02
 21
-8.09167232E+01
  0
LINE
  8
0
 62
7
 10
-1.33639514E+02
 20
-8.17827558E+01
 11
-1.33639514E+02
 21
-8.35148060E+01
  0
LINE
  8
0
 62
7
 10
-1.36639512E+02
 20
-8.17827558E+01
 11
-1.36639512E+02
 21
-8.35148060E+01
  0
LINE
  8
0
 62
7
 10
1.23360480E+02
 20
-7.91487800E+01
 11
1.23360480E+02
 21
-1.30148776E+02
  0
LINE
  8
0
 62
7
 10
1.37360482E+02
 20
-7.91487800E+01
 11
1.37360482E+02
 21
-1.30148776E+02
  0
LINE
  8
0
 62
7
 10
1.04360477E+02
 20
-7.91487800E+01
 11
1.04360477E+02
 21
-9.11487797E+01
  0
LINE
  8
0
 62
7
 10
-1.20639515E+02
 20
-8.91487800E+01
 11
-6.39524410E-01
 21
-8.91487800E+01
  0
LINE
  8
0
 62
7
 10
-1.44639514E+02
 20
-8.71487796E+01
 11
-1.25639515E+02
 21
-8.71487796E+01
  0
LINE
  8
0
 62
7
 10
-1.58639517E+02
 20
-7.91487802E+01
 11
-1.25639515E+02
 21
-7.91487802E+01
  0
LINE
  8
0
 62
2
 10
-1.20639515E+02
 20
-8.73987797E+01
 11
-1.25639515E+02
 21
-8.73987797E+01
  0
LINE
  8
0
 62
7
 10
-1.20639515E+02
 20
-8.66487796E+01
 11
-1.25639515E+02
 21
-8.66487796E+01
  0
LINE
  8
0
 62
7
 10
1.15360475E+02
 20
-8.17827558E+01
 11
1.15360475E+02
 21
-8.35148060E+01
  0
LINE
  8
0
 62
7
 10
1.15360470E+02
 20
-8.17827529E+01
 11
1.13860493E+02
 21
-8.09167403E+01
  0
LINE
  8
0
 62
7
 10
1.13860480E+02
 20
-8.09167261E+01
 11
1.12360502E+02
 21
-8.17827386E+01
  0
LINE
  8
0
 62
7
 10
1.15360479E+02
 20
-8.35148011E+01
 11
1.13860501E+02
 21
-8.43808137E+01
  0
LINE
  8
0
 62
7
 10
1.13860471E+02
 20
-8.43808280E+01
 11
1.12360493E+02
 21
-8.35148154E+01
  0
LINE
  8
0
 62
7
 10
1.12360482E+02
 20
-8.17827558E+01
 11
1.12360482E+02
 21
-8.35148060E+01
  0
LINE
  8
0
 62
7
 10
1.23360480E+02
 20
-8.71487796E+01
 11
1.04360477E+02
 21
-8.71487796E+01
  0
LINE
  8
0
 62
7
 10
1.37360482E+02
 20
-7.91487802E+01
 11
1.04360477E+02
 21
-7.91487802E+01
  0
LINE
  8
0
 62
7
 10
6.33604447E+01
 20
-9.06487881E+01
 11
6.38604569E+01
 21
-9.01487759E+01
  0
LINE
  8
0
 62
7
 10
6.33604924E+01
 20
-9.11487797E+01
 11
6.33604924E+01
 21
-9.06487802E+01
  0
LINE
  8
0
 62
7
 10
6.38604975E+01
 20
-9.01487799E+01
 11
7.33604924E+01
 21
-9.01487799E+01
  0
LINE
  8
0
 62
7
 10
7.68604899E+01
 20
-9.11487797E+01
 11
7.68604899E+01
 21
-8.66487796E+01
  0
LINE
  8
0
 62
7
 10
7.33604924E+01
 20
-9.11487797E+01
 11
7.33604924E+01
 21
-8.73987797E+01
  0
LINE
  8
0
 62
7
 10
7.33604924E+01
 20
-8.73987797E+01
 11
7.68604899E+01
 21
-8.73987797E+01
  0
LINE
  8
0
 62
2
 10
7.68604899E+01
 20
-8.73987797E+01
 11
1.04360477E+02
 21
-8.73987797E+01
  0
LINE
  8
0
 62
7
 10
7.68604899E+01
 20
-8.66487796E+01
 11
1.04360477E+02
 21
-8.66487796E+01
  0
LINE
  8
0
 62
7
 10
-1.44639514E+02
 20
-9.29487812E+01
 11
1.23360480E+02
 21
-9.29487812E+01
  0
LINE
  8
0
 62
7
 10
-1.44639514E+02
 20
-9.11487797E+01
 11
1.23360480E+02
 21
-9.11487797E+01
  0
LINE
  8
0
 62
7
 10
-1.44639514E+02
 20
-9.61487797E+01
 11
1.23360480E+02
 21
-9.61487797E+01
  0
LINE
  8
0
 62
7
 10
-1.44639514E+02
 20
-1.03848780E+02
 11
1.23360480E+02
 21
-1.03848780E+02
  0
LINE
  8
0
 62
7
 10
-1.44639514E+02
 20
-1.06648778E+02
 11
1.23360480E+02
 21
-1.06648778E+02
  0
LINE
  8
0
 62
7
 10
-6.39524410E-01
 20
-7.71487796E+01
 11
-6.39524410E-01
 21
-8.91487800E+01
  0
LINE
  8
0
 62
7
 10
-1.44639514E+02
 20
-1.13898779E+02
 11
1.23360480E+02
 21
-1.13898779E+02
  0
LINE
  8
0
 62
7
 10
-1.44639514E+02
 20
-1.20398778E+02
 11
1.23360480E+02
 21
-1.20398778E+02
  0
LINE
  8
0
 62
7
 10
-3.93951093E+00
 20
-8.91487800E+01
 11
-3.93951093E+00
 21
-9.11487797E+01
  0
LINE
  8
0
 62
7
 10
-3.73395315E+01
 20
-8.91487800E+01
 11
-3.73395315E+01
 21
-9.11487797E+01
  0
LINE
  8
0
 62
7
 10
-8.39395036E+01
 20
-8.91487800E+01
 11
-8.39395036E+01
 21
-9.11487797E+01
  0
LINE
  8
0
 62
7
 10
-1.17339528E+02
 20
-8.91487800E+01
 11
-1.17339528E+02
 21
-9.11487797E+01
  0
CIRCLE
  8
0
 62
7
 10
-1.35139513E+02
 20
-8.26487799E+01
 40
3.49999984E+00
  0
CIRCLE
  8
0
 62
7
 10
1.13860485E+02
 20
-8.26487799E+01
 40
3.49999984E+00
  0
TEXT
  8
0
 10
-1.75398028E+01
 20
1.34852586E+02
 40
6.30000019E+00
  1
STRETCH LINE
 41
1.05263158E+00
  7
MONOTXT
  0
LINE
  8
0
 62
7
 10
-2.71250000E+02
 20
-1.85000000E+02
 11
-2.71250000E+02
 21
-1.69000000E+02
  0
LINE
  8
0
 62
7
 10
-2.35250000E+02
 20
-1.85000000E+02
 11
-2.35250000E+02
 21
-1.69000000E+02
  0
LINE
  8
0
 62
7
 10
-2.17250000E+02
 20
-1.85000000E+02
 11
-2.17250000E+02
 21
-1.69000000E+02
  0
LINE
  8
0
 62
7
 10
-1.99250000E+02
 20
-1.85000000E+02
 11
-1.99250000E+02
 21
-1.69000000E+02
  0
LINE
  8
0
 62
7
 10
-1.81250000E+02
 20
-1.85000000E+02
 11
-1.81250000E+02
 21
-1.69000000E+02
  0
LINE
  8
0
 62
7
 10
-1.63250000E+02
 20
-1.85000000E+02
 11
-1.63250000E+02
 21
-1.69000000E+02
  0
LINE
  8
0
 62
7
 10
-1.45250000E+02
 20
-1.85000000E+02
 11
-1.45250000E+02
 21
-1.69000000E+02
  0
LINE
  8
0
 62
7
 10
-1.27250000E+02
 20
-1.85000000E+02
 11
-1.27250000E+02
 21
-1.69000000E+02
  0
TEXT
  8
0
 62
7
 10
-1.43013691E+02
 20
-1.66923793E+02
 40
4.50000000E+00
  1
(mm)
 41
1.00000000E+00
  7
MONOTXT
  0
TEXT
  8
0
 62
7
 10
-2.24161438E+02
 20
-1.66542818E+02
 40
4.50000000E+00
  1
STRETCH LIST
 41
1.05263158E+00
  7
MONOTXT
  0
TEXT
  8
0
 62
7
 10
-2.68507812E+02
 20
-1.83250000E+02
 40
4.50000000E+00
  1
STRETCH
 41
1.00000000E+00
  7
MONOTXT
  0
TEXT
  8
0
 62
7
 10
-2.28007812E+02
 20
-1.83250000E+02
 40
4.50000000E+00
  1
0
 41
1.00000000E+00
  7
MONOTXT
  0
TEXT
  8
0
 62
7
 10
-2.14507812E+02
 20
-1.83250000E+02
 40
4.50000000E+00
  1
100
 41
1.00000000E+00
  7
MONOTXT
  0
TEXT
  8
0
 62
7
 10
-1.96507812E+02
 20
-1.83250000E+02
 40
4.50000000E+00
  1
200
 41
1.00000000E+00
  7
MONOTXT
  0
TEXT
  8
0
 62
7
 10
-1.78507812E+02
 20
-1.83250000E+02
 40
4.50000000E+00
  1
300
 41
1.00000000E+00
  7
MONOTXT
  0
TEXT
  8
0
 62
7
 10
-1.60507812E+02
 20
-1.83250000E+02
 40
4.50000000E+00
  1
400
 41
1.00000000E+00
  7
MONOTXT
  0
TEXT
  8
0
 62
7
 10
-1.42507812E+02
 20
-1.83250000E+02
 40
4.50000000E+00
  1
500
 41
1.00000000E+00
  7
MONOTXT
  0
TEXT
  8
0
 62
7
 10
-1.42507812E+02
 20
-1.75250000E+02
 40
4.50000000E+00
  1
600
 41
1.00000000E+00
  7
MONOTXT
  0
TEXT
  8
0
 62
7
 10
-1.60507812E+02
 20
-1.75250000E+02
 40
4.50000000E+00
  1
500
 41
1.00000000E+00
  7
MONOTXT
  0
TEXT
  8
0
 62
7
 10
-1.78507812E+02
 20
-1.75250000E+02
 40
4.50000000E+00
  1
400
 41
1.00000000E+00
  7
MONOTXT
  0
TEXT
  8
0
 62
7
 10
-1.96507812E+02
 20
-1.75250000E+02
 40
4.50000000E+00
  1
300
 41
1.00000000E+00
  7
MONOTXT
  0
TEXT
  8
0
 62
7
 10
-2.14507812E+02
 20
-1.75250000E+02
 40
4.50000000E+00
  1
200
 41
1.00000000E+00
  7
MONOTXT
  0
TEXT
  8
0
 62
7
 10
-2.32507812E+02
 20
-1.75250000E+02
 40
4.50000000E+00
  1
100
 41
1.00000000E+00
  7
MONOTXT
  0
TEXT
  8
0
 62
7
 10
-2.66257812E+02
 20
-1.75250000E+02
 40
4.50000000E+00
  1
STROKE
 41
1.00000000E+00
  7
MONOTXT
  0
LINE
  8
0
 62
7
 10
-2.71250000E+02
 20
-1.69000000E+02
 11
-1.27250000E+02
 21
-1.69000000E+02
  0
LINE
  8
0
 62
7
 10
-2.71250000E+02
 20
-1.77000000E+02
 11
-1.27250000E+02
 21
-1.77000000E+02
  0
LINE
  8
0
 62
7
 10
-2.71250000E+02
 20
-1.85000000E+02
 11
-1.27250000E+02
 21
-1.85000000E+02
  0
TEXT
  8
0
 62
7
 10
-2.29800561E+02
 20
1.47350000E+02
 40
6.30000019E+00
  1
(WITH SENSOR SWITCH)
 41
1.06382979E+00
  7
MONOTXT
  0
LINE
  8
0
 62
7
 10
2.82099854E+02
 20
1.95500000E+02
 11
2.82099854E+02
 21
-1.95000000E+02
  0
LINE
  8
0
 62
7
 10
-2.81250000E+02
 20
1.95500000E+02
 11
2.82099854E+02
 21
1.95500000E+02
  0
LINE
  8
0
 62
7
 10
-2.81250000E+02
 20
1.95500000E+02
 11
-2.81250000E+02
 21
-1.95000000E+02
  0
LINE
  8
0
 62
7
 10
-2.81250000E+02
 20
-1.95000000E+02
 11
2.82099854E+02
 21
-1.95000000E+02
  0
LINE
  8
0
 62
7
 10
1.62099976E+02
 20
-1.75000000E+02
 11
1.62099976E+02
 21
-1.95000000E+02
  0
LINE
  8
0
 62
7
 10
1.62099976E+02
 20
-1.75000000E+02
 11
2.82099854E+02
 21
-1.75000000E+02
  0
LINE
  8
0
 62
7
 10
1.62099976E+02
 20
1.75500000E+02
 11
2.82099854E+02
 21
1.75500000E+02
  0
LINE
  8
0
 62
7
 10
-2.81250000E+02
 20
1.75500000E+02
 11
-1.61250000E+02
 21
1.75500000E+02
  0
LINE
  8
0
 62
7
 10
1.62099976E+02
 20
1.95500000E+02
 11
1.62099976E+02
 21
1.75500000E+02
  0
LINE
  8
0
 62
7
 10
-1.61250000E+02
 20
1.95500000E+02
 11
-1.61250000E+02
 21
1.75500000E+02
  0
TEXT
  8
0
 62
7
 10
1.97799694E+02
 20
1.82350000E+02
 40
6.30000019E+00
  1
Ver. 1.0
 41
1.08108108E+00
  7
MONOTXT
  0
TEXT
  8
0
 62
7
 10
1.69885289E+02
 20
-1.89500000E+02
 40
9.00000000E+00
  1
KOGANEI CORP.
 41
1.04838710E+00
  7
MONOTXT
  0
TEXT
  8
0
 62
7
 10
-2.70750283E+02
 20
1.82350000E+02
 40
6.30000019E+00
  1
RODLESS CYLINDER
 41
1.03896104E+00
  7
MONOTXT
  0
TEXT
  8
0
 62
7
 10
-2.67600562E+02
 20
1.57350000E+02
 40
6.30000019E+00
  1
MODEL:ORW16*ST(100)
 41
1.00000000E+00
  7
MONOTXT
  0
ENDSEC
  0
EOF
