  0
SECTION
  2
HEADER
  9
$ACADVER
  1
AC1003
  9
$EXTMIN
 10
-5.64500000E+02
 20
-4.00500000E+02
  9
$EXTMAX
 10
5.74500000E+02
 20
4.00500000E+02
  9
$LIMMIN
 10
-5.64501000E+02
 20
-4.00501000E+02
  9
$LIMMAX
 10
5.74501000E+02
 20
4.00501000E+02
  9
$SNAPUNIT
 10
1
 20
1
  9
$SNAPBASE
 10
0
 20
0
  9
$GRIDMODE
 70
0
  9
$GRIDUNIT
 10
0
 20
0
  9
$LTSCALE
 40
1.89833333E+01
  9
$TEXTSIZE
 40
3.2
  9
$DIMTAD
 70
0
  9
$LUNITS
 70
2
  9
$LUPREC
 70
4
  9
$FILLETRAD
 40
0
  9
$AUNITS
 70
0
  9
$AUPREC
 70
0
  0
ENDSEC
  0
SECTION
  2
TABLES
  0
TABLE
  2
LTYPE
 70
2
  0
LTYPE
  2
CONTINUOUS
 70
64
  3
Solid-Line
 72
65
 73
0
 40
0
  0
LTYPE
  2
DASHED
 70
64
  3
DASHED
 72
65
 73
2
 40
.75
 49
.5
 49
-.25
  0
LTYPE
  2
HIDDEN
 70
64
  3
HIDDEN
 72
65
 73
2
 40
.375
 49
.25
 49
-.125
  0
LTYPE
  2
CENTER
 70
64
  3
CENTER
 72
65
 73
4
 40
2
 49
1.25
 49
-.25
 49
.25
 49
-.25
  0
LTYPE
  2
PHANTOM
 70
64
  3
PHANTOM
 72
65
 73
6
 40
2.5
 49
1.25
 49
-.25
 49
.25
 49
-.25
 49
.25
 49
-.25
  0
ENDTAB
  0
TABLE
  2
LAYER
 70
1
  0
LAYER
  2
0
 70
0
 62
3
  6
CONTINUOUS
 0
ENDTAB
  0
TABLE
  2
STYLE
 70
2
  0
STYLE
  2
MONOTXT
 70
0
 40
0
 41
1
 50
0
 71
0
 42
.2
  3
monotxt
  0
STYLE
  2
BIGFONT
 70
0
 40
0
 41
1
 50
0
 71
0
 42
.2
  3
txt
  4
bigfont
  0
ENDTAB
  0
ENDSEC
  0
SECTION
  2
ENTITIES
  0
LINE
  8
0
  6
PHANTOM
 62
1
 10
6.50000203E+00
 20
2.51597213E+02
 11
6.50000203E+00
 21
-3.48365372E+01
  0
LINE
  8
0
  6
CENTER
 62
2
 10
1.96161407E+02
 20
1.65000002E+02
 11
3.30000007E+02
 21
1.65000002E+02
  0
LINE
  8
0
  6
CENTER
 62
6
 10
1.52499998E+02
 20
1.81999982E+01
 11
1.52499998E+02
 21
2.28499982E+01
  0
LINE
  8
0
 62
4
 10
1.51249998E+02
 20
1.84999982E+01
 11
1.51249998E+02
 21
1.89999982E+01
  0
LINE
  8
0
 62
6
 10
1.51469998E+02
 20
1.84999982E+01
 11
1.51469998E+02
 21
1.89999982E+01
  0
LINE
  8
0
 62
6
 10
1.53519998E+02
 20
1.84999982E+01
 11
1.53519998E+02
 21
1.89999982E+01
  0
LINE
  8
0
 62
4
 10
1.53749998E+02
 20
1.84999982E+01
 11
1.53749998E+02
 21
1.89999982E+01
  0
LINE
  8
0
 62
4
 10
1.51249998E+02
 20
1.84999982E+01
 11
1.53749998E+02
 21
1.84999982E+01
  0
LINE
  8
0
  6
CENTER
 62
6
 10
-1.47500002E+02
 20
1.81999982E+01
 11
-1.47500002E+02
 21
2.28499982E+01
  0
LINE
  8
0
 62
4
 10
-1.48750002E+02
 20
1.84999982E+01
 11
-1.48750002E+02
 21
1.89999982E+01
  0
LINE
  8
0
 62
6
 10
-1.48530002E+02
 20
1.84999982E+01
 11
-1.48530002E+02
 21
1.89999982E+01
  0
LINE
  8
0
 62
6
 10
-1.46480002E+02
 20
1.84999982E+01
 11
-1.46480002E+02
 21
1.89999982E+01
  0
LINE
  8
0
 62
4
 10
-1.46250002E+02
 20
1.84999982E+01
 11
-1.46250002E+02
 21
1.89999982E+01
  0
LINE
  8
0
 62
4
 10
-1.48750002E+02
 20
1.84999982E+01
 11
-1.46250002E+02
 21
1.84999982E+01
  0
LINE
  8
0
  6
CENTER
 62
2
 10
-1.43500002E+02
 20
2.39033070E+02
 11
-1.43500002E+02
 21
1.39999982E+01
  0
LINE
  8
0
 62
7
 10
-2.46500001E+02
 20
2.22499992E+02
 11
-2.46500001E+02
 21
2.04999991E+01
  0
LINE
  8
0
 62
7
 10
-4.05000093E+01
 20
2.22499992E+02
 11
-4.05000093E+01
 21
2.04999991E+01
  0
LINE
  8
0
 62
7
 10
-2.86500004E+02
 20
2.24000008E+02
 11
-2.86500004E+02
 21
1.89999982E+01
  0
LINE
  8
0
 62
7
 10
2.72500021E+02
 20
7.14999982E+01
 11
-4.05000093E+01
 21
7.14999982E+01
  0
LINE
  8
0
 62
7
 10
2.72500021E+02
 20
1.47499992E+02
 11
-4.05000093E+01
 21
1.47499992E+02
  0
LINE
  8
0
 62
7
 10
-2.86500004E+02
 20
1.06499998E+02
 11
-2.60500002E+02
 21
1.06499998E+02
  0
LINE
  8
0
 62
7
 10
-2.86500004E+02
 20
1.12499992E+02
 11
-2.60500002E+02
 21
1.12499992E+02
  0
LINE
  8
0
 62
7
 10
-2.60500002E+02
 20
8.76270123E+01
 11
-2.60500002E+02
 21
6.75000020E+01
  0
LINE
  8
0
 62
7
 10
-2.60500002E+02
 20
1.23627007E+02
 11
-2.60500002E+02
 21
9.53729840E+01
  0
LINE
  8
0
 62
7
 10
-2.60500002E+02
 20
1.49999992E+02
 11
-2.60500002E+02
 21
1.31372978E+02
  0
LINE
  8
0
 62
7
 10
2.98500006E+02
 20
1.06499998E+02
 11
2.72500021E+02
 21
1.06499998E+02
  0
LINE
  8
0
 62
7
 10
2.98500006E+02
 20
1.12499992E+02
 11
2.72500021E+02
 21
1.12499992E+02
  0
LINE
  8
0
 62
7
 10
2.72500021E+02
 20
8.76270123E+01
 11
2.72500021E+02
 21
6.75000020E+01
  0
LINE
  8
0
 62
7
 10
2.72500021E+02
 20
1.23627007E+02
 11
2.72500021E+02
 21
9.53729840E+01
  0
LINE
  8
0
 62
7
 10
2.72500021E+02
 20
1.49999992E+02
 11
2.72500021E+02
 21
1.31372978E+02
  0
LINE
  8
0
 62
7
 10
-2.84500001E+02
 20
6.75000020E+01
 11
-2.46500001E+02
 21
6.75000020E+01
  0
LINE
  8
0
 62
7
 10
-2.67500026E+02
 20
8.86132409E+01
 11
-2.65000025E+02
 21
9.00566174E+01
  0
LINE
  8
0
 62
7
 10
-2.70000026E+02
 20
9.29433678E+01
 11
-2.67500025E+02
 21
9.43867443E+01
  0
LINE
  8
0
 62
7
 10
-2.69999998E+02
 20
9.00566125E+01
 11
-2.67500005E+02
 21
8.86132408E+01
  0
LINE
  8
0
 62
7
 10
-2.67499998E+02
 20
9.43867395E+01
 11
-2.65000005E+02
 21
9.29433677E+01
  0
LINE
  8
0
 62
7
 10
-2.65000003E+02
 20
9.29433747E+01
 11
-2.65000003E+02
 21
9.00566216E+01
  0
LINE
  8
0
 62
7
 10
-2.70000003E+02
 20
9.29433747E+01
 11
-2.70000003E+02
 21
9.00566216E+01
  0
LINE
  8
0
 62
7
 10
-2.70000003E+02
 20
1.26056645E+02
 11
-2.70000003E+02
 21
1.28943359E+02
  0
LINE
  8
0
 62
7
 10
-2.65000003E+02
 20
1.26056645E+02
 11
-2.65000003E+02
 21
1.28943359E+02
  0
LINE
  8
0
 62
7
 10
-2.67499987E+02
 20
1.30386761E+02
 11
-2.64999994E+02
 21
1.28943389E+02
  0
LINE
  8
0
 62
7
 10
-2.70000028E+02
 20
1.28943373E+02
 11
-2.67500030E+02
 21
1.30386747E+02
  0
LINE
  8
0
 62
7
 10
-2.67500028E+02
 20
1.24613246E+02
 11
-2.65000030E+02
 21
1.26056620E+02
  0
LINE
  8
0
 62
7
 10
-2.69999987E+02
 20
1.26056634E+02
 11
-2.67499994E+02
 21
1.24613262E+02
  0
LINE
  8
0
  6
CENTER
 62
2
 10
1.56499998E+02
 20
2.39033070E+02
 11
1.56499998E+02
 21
1.39999982E+01
  0
LINE
  8
0
 62
7
 10
2.81999991E+02
 20
9.29433747E+01
 11
2.81999991E+02
 21
9.00566216E+01
  0
LINE
  8
0
 62
7
 10
2.81999991E+02
 20
1.26056645E+02
 11
2.81999991E+02
 21
1.28943359E+02
  0
LINE
  8
0
 62
7
 10
2.76999991E+02
 20
1.26056645E+02
 11
2.76999991E+02
 21
1.28943359E+02
  0
LINE
  8
0
 62
7
 10
2.76999991E+02
 20
9.29433747E+01
 11
2.76999991E+02
 21
9.00566216E+01
  0
LINE
  8
0
 62
7
 10
2.79500012E+02
 20
8.86132187E+01
 11
2.77000011E+02
 21
9.00565953E+01
  0
LINE
  8
0
 62
7
 10
2.79500029E+02
 20
1.24613270E+02
 11
2.77000027E+02
 21
1.26056646E+02
  0
LINE
  8
0
 62
7
 10
2.81999974E+02
 20
9.00566128E+01
 11
2.79499989E+02
 21
8.86132458E+01
  0
LINE
  8
0
 62
7
 10
2.79499965E+02
 20
1.30386740E+02
 11
2.76999980E+02
 21
1.28943373E+02
  0
LINE
  8
0
 62
7
 10
2.79499974E+02
 20
9.43867397E+01
 11
2.76999989E+02
 21
9.29433727E+01
  0
LINE
  8
0
 62
7
 10
2.82000010E+02
 20
1.28943364E+02
 11
2.79500008E+02
 21
1.30386740E+02
  0
LINE
  8
0
 62
7
 10
2.81999965E+02
 20
1.26056613E+02
 11
2.79499980E+02
 21
1.24613246E+02
  0
LINE
  8
0
 62
7
 10
2.82000012E+02
 20
9.29433457E+01
 11
2.79500011E+02
 21
9.43867222E+01
  0
LINE
  8
0
 62
7
 10
-2.51500001E+02
 20
2.05500004E+02
 11
-2.46500001E+02
 21
2.05500004E+02
  0
LINE
  8
0
 62
7
 10
-2.51500001E+02
 20
1.90500004E+02
 11
-2.46500001E+02
 21
1.90500004E+02
  0
LINE
  8
0
 62
7
 10
-4.05000093E+01
 20
2.05500004E+02
 11
2.64499991E+02
 21
2.05500004E+02
  0
LINE
  8
0
 62
7
 10
-4.05000093E+01
 20
1.90500004E+02
 11
2.64499991E+02
 21
1.90500004E+02
  0
LINE
  8
0
 62
7
 10
-2.46500001E+02
 20
1.47499992E+02
 11
-2.60500002E+02
 21
1.47499992E+02
  0
LINE
  8
0
 62
7
 10
-2.46500001E+02
 20
7.14999982E+01
 11
-2.60500002E+02
 21
7.14999982E+01
  0
LINE
  8
0
 62
7
 10
-4.05000093E+01
 20
1.51500008E+02
 11
2.64499991E+02
 21
1.51500008E+02
  0
LINE
  8
0
 62
7
 10
-4.05000093E+01
 20
6.75000020E+01
 11
2.96499998E+02
 21
6.75000020E+01
  0
LINE
  8
0
 62
7
 10
-4.05000093E+01
 20
1.18000004E+02
 11
2.72500021E+02
 21
1.18000004E+02
  0
LINE
  8
0
 62
7
 10
-4.05000093E+01
 20
1.00999996E+02
 11
2.72500021E+02
 21
1.00999996E+02
  0
LINE
  8
0
 62
7
 10
-2.46500001E+02
 20
1.18000004E+02
 11
-2.60500002E+02
 21
1.18000004E+02
  0
LINE
  8
0
 62
7
 10
-2.46500001E+02
 20
1.00999996E+02
 11
-2.60500002E+02
 21
1.00999996E+02
  0
LINE
  8
0
 62
7
 10
-4.05000093E+01
 20
3.75000020E+01
 11
2.98500006E+02
 21
3.75000020E+01
  0
LINE
  8
0
 62
7
 10
-4.05000093E+01
 20
5.25000020E+01
 11
2.98500006E+02
 21
5.25000020E+01
  0
LINE
  8
0
 62
7
 10
-2.85500000E+02
 20
3.75000020E+01
 11
-2.46500001E+02
 21
3.75000020E+01
  0
LINE
  8
0
 62
7
 10
-2.85500000E+02
 20
3.75000020E+01
 11
-2.85500000E+02
 21
5.25000020E+01
  0
LINE
  8
0
 62
7
 10
-2.85500000E+02
 20
5.25000020E+01
 11
-2.46500001E+02
 21
5.25000020E+01
  0
LINE
  8
0
 62
7
 10
-2.51500001E+02
 20
2.11500008E+02
 11
-2.86500004E+02
 21
2.11500008E+02
  0
LINE
  8
0
 62
7
 10
-2.51500001E+02
 20
1.50999996E+02
 11
-2.86500004E+02
 21
1.50999996E+02
  0
LINE
  8
0
 62
7
 10
-2.75500005E+02
 20
1.50999996E+02
 11
-2.75500005E+02
 21
1.43000004E+02
  0
LINE
  8
0
 62
7
 10
-2.62500003E+02
 20
1.50999996E+02
 11
-2.62500003E+02
 21
1.43000004E+02
  0
LINE
  8
0
 62
7
 10
-2.62500003E+02
 20
1.43000004E+02
 11
-2.75500005E+02
 21
1.43000004E+02
  0
LINE
  8
0
 62
7
 10
-2.51500001E+02
 20
2.11500008E+02
 11
-2.51500001E+02
 21
1.49999992E+02
  0
LINE
  8
0
 62
7
 10
-2.51500001E+02
 20
1.64000008E+02
 11
-2.86500004E+02
 21
1.64000008E+02
  0
LINE
  8
0
 62
7
 10
-2.51500001E+02
 20
1.65999996E+02
 11
-2.86500004E+02
 21
1.65999996E+02
  0
LINE
  8
0
 62
2
 10
-2.72399996E+02
 20
1.65999996E+02
 11
-2.72399996E+02
 21
1.64000008E+02
  0
LINE
  8
0
 62
2
 10
-2.65600007E+02
 20
1.65999996E+02
 11
-2.65600007E+02
 21
1.64000008E+02
  0
LINE
  8
0
 62
7
 10
-2.65000003E+02
 20
1.65999996E+02
 11
-2.65000003E+02
 21
1.64000008E+02
  0
LINE
  8
0
 62
7
 10
-2.73000005E+02
 20
1.65999996E+02
 11
-2.73000005E+02
 21
1.64000008E+02
  0
LINE
  8
0
 62
7
 10
-2.77499997E+02
 20
1.77535878E+02
 11
-2.80500002E+02
 21
1.79267932E+02
  0
LINE
  8
0
 62
7
 10
-2.74499995E+02
 20
1.82732034E+02
 11
-2.77500000E+02
 21
1.84464088E+02
  0
LINE
  8
0
 62
7
 10
-2.77499999E+02
 20
1.84464106E+02
 11
-2.80499988E+02
 21
1.82732062E+02
  0
LINE
  8
0
 62
7
 10
-2.74499997E+02
 20
1.79267951E+02
 11
-2.77499986E+02
 21
1.77535906E+02
  0
LINE
  8
0
 62
7
 10
-2.63500002E+02
 20
1.79267952E+02
 11
-2.63500002E+02
 21
1.82732060E+02
  0
LINE
  8
0
 62
7
 10
-2.57500003E+02
 20
1.79267952E+02
 11
-2.57500003E+02
 21
1.82732060E+02
  0
LINE
  8
0
 62
7
 10
-2.60499988E+02
 20
1.84464108E+02
 11
-2.63500001E+02
 21
1.82732050E+02
  0
LINE
  8
0
 62
7
 10
-2.57499986E+02
 20
1.79267953E+02
 11
-2.60500000E+02
 21
1.77535894E+02
  0
LINE
  8
0
 62
7
 10
-2.60500002E+02
 20
1.77535886E+02
 11
-2.63500007E+02
 21
1.79267939E+02
  0
LINE
  8
0
 62
7
 10
-2.57500000E+02
 20
1.82732041E+02
 11
-2.60500005E+02
 21
1.84464095E+02
  0
LINE
  8
0
 62
7
 10
-2.74500001E+02
 20
1.79267952E+02
 11
-2.74500001E+02
 21
1.82732060E+02
  0
LINE
  8
0
 62
7
 10
-2.80500005E+02
 20
1.79267952E+02
 11
-2.80500005E+02
 21
1.82732060E+02
  0
LINE
  8
0
 62
7
 10
-2.46500001E+02
 20
1.74999992E+02
 11
-2.51500001E+02
 21
1.74999992E+02
  0
LINE
  8
0
 62
2
 10
-2.46500001E+02
 20
1.74000008E+02
 11
-2.51500001E+02
 21
1.74000008E+02
  0
LINE
  8
0
 62
2
 10
-2.46500001E+02
 20
1.55999996E+02
 11
-2.51500001E+02
 21
1.55999996E+02
  0
LINE
  8
0
 62
7
 10
-2.46500001E+02
 20
1.54999992E+02
 11
-2.51500001E+02
 21
1.54999992E+02
  0
LINE
  8
0
 62
7
 10
2.86000006E+02
 20
1.65999996E+02
 11
2.86000006E+02
 21
1.64000008E+02
  0
LINE
  8
0
 62
7
 10
2.78000014E+02
 20
1.65999996E+02
 11
2.78000014E+02
 21
1.64000008E+02
  0
LINE
  8
0
 62
2
 10
2.78599989E+02
 20
1.65999996E+02
 11
2.78599989E+02
 21
1.64000008E+02
  0
LINE
  8
0
 62
2
 10
2.85400030E+02
 20
1.65999996E+02
 11
2.85400030E+02
 21
1.64000008E+02
  0
LINE
  8
0
 62
7
 10
2.64499991E+02
 20
1.65999996E+02
 11
2.99499991E+02
 21
1.65999996E+02
  0
LINE
  8
0
 62
7
 10
2.64499991E+02
 20
1.64000008E+02
 11
2.99499991E+02
 21
1.64000008E+02
  0
LINE
  8
0
 62
7
 10
2.64499991E+02
 20
2.11500008E+02
 11
2.64499991E+02
 21
1.49999992E+02
  0
LINE
  8
0
 62
7
 10
2.64499991E+02
 20
1.50999996E+02
 11
2.99499991E+02
 21
1.50999996E+02
  0
LINE
  8
0
 62
7
 10
2.75500014E+02
 20
1.43000004E+02
 11
2.88500006E+02
 21
1.43000004E+02
  0
LINE
  8
0
 62
7
 10
2.75500014E+02
 20
1.50999996E+02
 11
2.75500014E+02
 21
1.43000004E+02
  0
LINE
  8
0
 62
7
 10
2.88500006E+02
 20
1.50999996E+02
 11
2.88500006E+02
 21
1.43000004E+02
  0
LINE
  8
0
 62
7
 10
2.64499991E+02
 20
2.11500008E+02
 11
2.99499991E+02
 21
2.11500008E+02
  0
LINE
  8
0
 62
7
 10
2.90499934E+02
 20
1.77535862E+02
 11
2.93499956E+02
 21
1.79267926E+02
  0
LINE
  8
0
 62
7
 10
2.87499935E+02
 20
1.82732014E+02
 11
2.90499956E+02
 21
1.84464077E+02
  0
LINE
  8
0
 62
7
 10
2.90499997E+02
 20
1.84464035E+02
 11
2.93500002E+02
 21
1.82731982E+02
  0
LINE
  8
0
 62
7
 10
2.87500004E+02
 20
1.79267896E+02
 11
2.90500009E+02
 21
1.77535842E+02
  0
LINE
  8
0
 62
7
 10
2.76499998E+02
 20
1.79267952E+02
 11
2.76499998E+02
 21
1.82732060E+02
  0
LINE
  8
0
 62
7
 10
2.70500014E+02
 20
1.79267952E+02
 11
2.70500014E+02
 21
1.82732060E+02
  0
LINE
  8
0
 62
7
 10
2.73499987E+02
 20
1.84464059E+02
 11
2.76499992E+02
 21
1.82732005E+02
  0
LINE
  8
0
 62
7
 10
2.70499995E+02
 20
1.79267920E+02
 11
2.73500000E+02
 21
1.77535866E+02
  0
LINE
  8
0
 62
7
 10
2.73499957E+02
 20
1.77535877E+02
 11
2.76499913E+02
 21
1.79267902E+02
  0
LINE
  8
0
 62
7
 10
2.70499958E+02
 20
1.82732029E+02
 11
2.73499913E+02
 21
1.84464054E+02
  0
LINE
  8
0
 62
7
 10
2.87500021E+02
 20
1.79267952E+02
 11
2.87500021E+02
 21
1.82732060E+02
  0
LINE
  8
0
 62
7
 10
2.93500006E+02
 20
1.79267952E+02
 11
2.93500006E+02
 21
1.82732060E+02
  0
LINE
  8
0
 62
7
 10
2.64499991E+02
 20
1.89000008E+02
 11
-4.05000093E+01
 21
1.89000008E+02
  0
LINE
  8
0
 62
7
 10
2.99499991E+02
 20
1.49999992E+02
 11
2.88500006E+02
 21
1.49999992E+02
  0
LINE
  8
0
 62
7
 10
2.99499991E+02
 20
6.64999982E+01
 11
-4.05000093E+01
 21
6.64999982E+01
  0
LINE
  8
0
 62
7
 10
2.99499991E+02
 20
5.39999982E+01
 11
-4.05000093E+01
 21
5.39999982E+01
  0
LINE
  8
0
 62
7
 10
-2.51500001E+02
 20
1.49999992E+02
 11
-2.62500003E+02
 21
1.49999992E+02
  0
LINE
  8
0
 62
7
 10
-2.46500001E+02
 20
6.64999982E+01
 11
-2.86500004E+02
 21
6.64999982E+01
  0
LINE
  8
0
 62
7
 10
-2.46500001E+02
 20
5.39999982E+01
 11
-2.86500004E+02
 21
5.39999982E+01
  0
LINE
  8
0
 62
7
 10
2.98500006E+02
 20
3.75000020E+01
 11
2.98500006E+02
 21
5.25000020E+01
  0
LINE
  8
0
 62
7
 10
2.26999999E+02
 20
1.55999991E+02
 11
2.28000003E+02
 21
1.54999988E+02
  0
LINE
  8
0
 62
7
 10
2.22500002E+02
 20
1.55999996E+02
 11
2.27000010E+02
 21
1.55999996E+02
  0
LINE
  8
0
 62
7
 10
2.22500002E+02
 20
1.74000008E+02
 11
2.22500002E+02
 21
1.55999996E+02
  0
LINE
  8
0
 62
7
 10
2.27000010E+02
 20
1.74000008E+02
 11
2.27000010E+02
 21
1.55999996E+02
  0
LINE
  8
0
 62
7
 10
2.27000026E+02
 20
1.74000023E+02
 11
2.28000006E+02
 21
1.75000003E+02
  0
LINE
  8
0
 62
2
 10
2.27000010E+02
 20
1.74000008E+02
 11
2.64499991E+02
 21
1.74000008E+02
  0
LINE
  8
0
 62
2
 10
2.27000010E+02
 20
1.55999996E+02
 11
2.64499991E+02
 21
1.55999996E+02
  0
LINE
  8
0
 62
7
 10
2.22500002E+02
 20
1.74000008E+02
 11
2.27000010E+02
 21
1.74000008E+02
  0
LINE
  8
0
 62
7
 10
2.28000014E+02
 20
1.54999992E+02
 11
2.64499991E+02
 21
1.54999992E+02
  0
LINE
  8
0
 62
7
 10
2.28000014E+02
 20
1.74999992E+02
 11
2.64499991E+02
 21
1.74999992E+02
  0
LINE
  8
0
 62
7
 10
2.22500002E+02
 20
1.62000000E+02
 11
2.07500002E+02
 21
1.62000000E+02
  0
LINE
  8
0
 62
7
 10
2.22500002E+02
 20
1.68000004E+02
 11
2.07500002E+02
 21
1.68000004E+02
  0
LINE
  8
0
 62
7
 10
2.06499998E+02
 20
1.67000000E+02
 11
2.06499998E+02
 21
1.63000004E+02
  0
LINE
  8
0
 62
7
 10
2.06500013E+02
 20
1.67000006E+02
 11
2.07499993E+02
 21
1.67999986E+02
  0
LINE
  8
0
 62
7
 10
2.06500031E+02
 20
1.63000019E+02
 11
2.07500033E+02
 21
1.62000017E+02
  0
LINE
  8
0
 62
7
 10
-2.51500001E+02
 20
1.51500008E+02
 11
-2.46500001E+02
 21
1.51500008E+02
  0
LINE
  8
0
 62
7
 10
-2.75500005E+02
 20
1.49999992E+02
 11
-2.86500004E+02
 21
1.49999992E+02
  0
LINE
  8
0
 62
7
 10
-3.08500002E+02
 20
2.18000004E+02
 11
-3.08500002E+02
 21
2.50000020E+01
  0
LINE
  8
0
  6
CENTER
 62
2
 10
-2.83750003E+02
 20
2.04000008E+02
 11
-3.11250007E+02
 21
2.04000008E+02
  0
LINE
  8
0
  6
CENTER
 62
2
 10
-2.97500003E+02
 20
2.17750008E+02
 11
-2.97500003E+02
 21
1.90250008E+02
  0
LINE
  8
0
  6
CENTER
 62
2
 10
-2.83750003E+02
 20
3.89999982E+01
 11
-3.11250007E+02
 21
3.89999982E+01
  0
LINE
  8
0
  6
CENTER
 62
2
 10
-2.97500003E+02
 20
5.27499982E+01
 11
-2.97500003E+02
 21
2.52499982E+01
  0
LINE
  8
0
 62
7
 10
3.21499998E+02
 20
2.18000004E+02
 11
3.21499998E+02
 21
2.50000020E+01
  0
LINE
  8
0
  6
CENTER
 62
2
 10
2.96750014E+02
 20
3.89999982E+01
 11
3.24250014E+02
 21
3.89999982E+01
  0
LINE
  8
0
  6
CENTER
 62
2
 10
2.96750014E+02
 20
2.04000008E+02
 11
3.24250014E+02
 21
2.04000008E+02
  0
LINE
  8
0
  6
CENTER
 62
2
 10
3.10500014E+02
 20
2.17750008E+02
 11
3.10500014E+02
 21
1.90250008E+02
  0
LINE
  8
0
  6
CENTER
 62
2
 10
3.10500014E+02
 20
5.27499982E+01
 11
3.10500014E+02
 21
2.52499982E+01
  0
LINE
  8
0
 62
7
 10
-4.05000093E+01
 20
1.85250008E+02
 11
2.64499991E+02
 21
1.85250008E+02
  0
LINE
  8
0
 62
7
 10
-4.05000093E+01
 20
1.76750004E+02
 11
2.64499991E+02
 21
1.76750004E+02
  0
LINE
  8
0
 62
7
 10
-2.51500001E+02
 20
1.85250008E+02
 11
-2.46500001E+02
 21
1.85250008E+02
  0
LINE
  8
0
 62
7
 10
-2.51500001E+02
 20
1.76750004E+02
 11
-2.46500001E+02
 21
1.76750004E+02
  0
LINE
  8
0
 62
7
 10
-2.85500000E+02
 20
4.33000012E+01
 11
-2.86500004E+02
 21
4.33000012E+01
  0
LINE
  8
0
 62
7
 10
-2.85500000E+02
 20
4.66999932E+01
 11
-2.86500004E+02
 21
4.66999932E+01
  0
LINE
  8
0
 62
7
 10
2.99499991E+02
 20
4.66999932E+01
 11
2.98500006E+02
 21
4.66999932E+01
  0
LINE
  8
0
 62
7
 10
2.99499991E+02
 20
4.33000012E+01
 11
2.98500006E+02
 21
4.33000012E+01
  0
LINE
  8
0
 62
7
 10
-2.46500001E+02
 20
2.22499992E+02
 11
-4.05000093E+01
 21
2.22499992E+02
  0
LINE
  8
0
 62
7
 10
2.98500006E+02
 20
1.49500000E+02
 11
2.98500006E+02
 21
6.95000001E+01
  0
LINE
  8
0
 62
7
 10
2.99499991E+02
 20
9.20000001E+01
 11
2.98500006E+02
 21
9.20000001E+01
  0
LINE
  8
0
 62
7
 10
2.99499991E+02
 20
1.27000000E+02
 11
2.98500006E+02
 21
1.27000000E+02
  0
LINE
  8
0
 62
7
 10
2.75500014E+02
 20
1.49999992E+02
 11
2.64499991E+02
 21
1.49999992E+02
  0
LINE
  8
0
 62
7
 10
-2.86500004E+02
 20
1.89999982E+01
 11
2.99499991E+02
 21
1.89999982E+01
  0
LINE
  8
0
 62
7
 10
-2.86500004E+02
 20
2.50000020E+01
 11
-2.46500001E+02
 21
2.50000020E+01
  0
LINE
  8
0
 62
7
 10
-2.86500004E+02
 20
2.95000001E+01
 11
-2.46500001E+02
 21
2.95000001E+01
  0
LINE
  8
0
 62
7
 10
-4.05000093E+01
 20
2.95000001E+01
 11
2.99499991E+02
 21
2.95000001E+01
  0
LINE
  8
0
 62
7
 10
-4.05000093E+01
 20
2.50000020E+01
 11
2.99499991E+02
 21
2.50000020E+01
  0
LINE
  8
0
 62
7
 10
-2.46500001E+02
 20
2.04999991E+01
 11
-4.05000093E+01
 21
2.04999991E+01
  0
LINE
  8
0
 62
7
 10
2.99499991E+02
 20
3.30000039E+01
 11
-4.05000093E+01
 21
3.30000039E+01
  0
LINE
  8
0
 62
7
 10
-2.46500001E+02
 20
3.30000039E+01
 11
-2.86500004E+02
 21
3.30000039E+01
  0
LINE
  8
0
 62
7
 10
3.21499998E+02
 20
2.50000020E+01
 11
2.99499991E+02
 21
2.50000020E+01
  0
LINE
  8
0
 62
7
 10
-3.08500002E+02
 20
2.50000020E+01
 11
-2.86500004E+02
 21
2.50000020E+01
  0
LINE
  8
0
 62
7
 10
-2.86500004E+02
 20
2.18000004E+02
 11
-3.08500002E+02
 21
2.18000004E+02
  0
LINE
  8
0
 62
7
 10
-2.86500004E+02
 20
2.24000008E+02
 11
2.99499991E+02
 21
2.24000008E+02
  0
LINE
  8
0
 62
7
 10
-4.05000093E+01
 20
2.18000004E+02
 11
2.99499991E+02
 21
2.18000004E+02
  0
LINE
  8
0
 62
7
 10
-4.05000093E+01
 20
2.13499996E+02
 11
2.99499991E+02
 21
2.13499996E+02
  0
LINE
  8
0
 62
7
 10
-2.86500004E+02
 20
2.13499996E+02
 11
-2.46500001E+02
 21
2.13499996E+02
  0
LINE
  8
0
 62
7
 10
-2.86500004E+02
 20
2.18000004E+02
 11
-2.46500001E+02
 21
2.18000004E+02
  0
LINE
  8
0
 62
7
 10
3.21499998E+02
 20
2.18000004E+02
 11
2.99499991E+02
 21
2.18000004E+02
  0
LINE
  8
0
 62
7
 10
2.99499991E+02
 20
2.24000008E+02
 11
2.99499991E+02
 21
1.89999982E+01
  0
LINE
  8
0
  6
CENTER
 62
2
 10
-5.85000017E+01
 20
2.08499996E+02
 11
-5.85000017E+01
 21
1.88499996E+02
  0
LINE
  8
0
  6
CENTER
 62
2
 10
-2.28500002E+02
 20
2.08499996E+02
 11
-2.28500002E+02
 21
1.88499996E+02
  0
LINE
  8
0
  6
CENTER
 62
2
 10
-2.28500002E+02
 20
5.45000001E+01
 11
-2.28500002E+02
 21
3.45000001E+01
  0
LINE
  8
0
 62
7
 10
-2.46500001E+02
 20
5.29999848E+01
 11
-4.05000093E+01
 21
5.29999848E+01
  0
LINE
  8
0
 62
7
 10
-2.46500001E+02
 20
1.90000031E+02
 11
-4.05000093E+01
 21
1.90000031E+02
  0
CIRCLE
  8
0
 62
7
 10
2.79499991E+02
 20
9.14999982E+01
 40
5.50000012E+00
  0
CIRCLE
  8
0
 62
7
 10
2.79499991E+02
 20
1.27499992E+02
 40
5.50000012E+00
  0
ARC
  8
0
 62
7
 10
-2.84500001E+02
 20
6.95000001E+01
 40
2.00000003E+00
 50
1.79999991E+02
 51
2.70000000E+02
  0
ARC
  8
0
 62
7
 10
-2.84500001E+02
 20
1.49500000E+02
 40
2.00000003E+00
 50
1.65522490E+02
 51
1.80000005E+02
  0
ARC
  8
0
 62
7
 10
-2.67500003E+02
 20
9.14999982E+01
 40
8.00000012E+00
 50
3.31044980E+02
 51
2.89550263E+01
  0
ARC
  8
0
 62
7
 10
-2.67500003E+02
 20
1.27499992E+02
 40
8.00000012E+00
 50
3.31044980E+02
 51
2.89550263E+01
  0
CIRCLE
  8
0
 62
7
 10
-2.67500003E+02
 20
9.14999982E+01
 40
5.50000012E+00
  0
CIRCLE
  8
0
 62
7
 10
-2.67500003E+02
 20
1.27499992E+02
 40
5.50000012E+00
  0
ARC
  8
0
 62
7
 10
2.96499998E+02
 20
6.95000001E+01
 40
2.00000003E+00
 50
2.70000000E+02
 51
9.33466753E-06
  0
ARC
  8
0
 62
7
 10
2.96499998E+02
 20
1.49500000E+02
 40
2.00000003E+00
 50
0.00000000E+00
 51
1.44775114E+01
  0
ARC
  8
0
 62
7
 10
2.79499991E+02
 20
9.14999982E+01
 40
8.00000012E+00
 50
1.51044975E+02
 51
2.08955021E+02
  0
ARC
  8
0
 62
7
 10
2.79499991E+02
 20
1.27499992E+02
 40
8.00000012E+00
 50
1.51044975E+02
 51
2.08955021E+02
  0
CIRCLE
  8
0
 62
7
 10
-2.67500003E+02
 20
9.14999982E+01
 40
5.00000000E+00
  0
CIRCLE
  8
0
 62
7
 10
-2.67500003E+02
 20
1.27499992E+02
 40
5.00000000E+00
  0
CIRCLE
  8
0
 62
7
 10
2.79499991E+02
 20
1.27499992E+02
 40
5.00000000E+00
  0
CIRCLE
  8
0
 62
7
 10
2.79499991E+02
 20
9.14999982E+01
 40
5.00000000E+00
  0
CIRCLE
  8
0
 62
7
 10
-2.60500002E+02
 20
1.80999996E+02
 40
6.99999988E+00
  0
CIRCLE
  8
0
 62
7
 10
-2.77500003E+02
 20
1.80999996E+02
 40
6.99999988E+00
  0
CIRCLE
  8
0
 62
7
 10
-2.77500003E+02
 20
1.80999996E+02
 40
6.49999976E+00
  0
CIRCLE
  8
0
 62
7
 10
-2.60500002E+02
 20
1.80999996E+02
 40
6.49999976E+00
  0
CIRCLE
  8
0
 62
7
 10
2.90500014E+02
 20
1.80999996E+02
 40
6.99999988E+00
  0
CIRCLE
  8
0
 62
7
 10
2.73500006E+02
 20
1.80999996E+02
 40
6.99999988E+00
  0
CIRCLE
  8
0
 62
7
 10
2.90500014E+02
 20
1.80999996E+02
 40
6.49999976E+00
  0
CIRCLE
  8
0
 62
7
 10
2.73500006E+02
 20
1.80999996E+02
 40
6.49999976E+00
  0
CIRCLE
  8
0
 62
6
 10
-2.28500002E+02
 20
1.98499996E+02
 40
5.00000000E+00
  0
CIRCLE
  8
0
 62
6
 10
-5.85000017E+01
 20
1.98499996E+02
 40
5.00000000E+00
  0
CIRCLE
  8
0
 62
6
 10
-5.85000017E+01
 20
4.45000001E+01
 40
5.00000000E+00
  0
CIRCLE
  8
0
 62
6
 10
-2.28500002E+02
 20
4.45000001E+01
 40
5.00000000E+00
  0
CIRCLE
  8
0
 62
4
 10
-2.28500002E+02
 20
4.45000001E+01
 40
4.25000012E+00
  0
CIRCLE
  8
0
 62
4
 10
-5.85000017E+01
 20
4.45000001E+01
 40
4.25000012E+00
  0
CIRCLE
  8
0
 62
4
 10
-5.85000017E+01
 20
1.98499996E+02
 40
4.25000012E+00
  0
CIRCLE
  8
0
 62
4
 10
-2.28500002E+02
 20
1.98499996E+02
 40
4.25000012E+00
  0
CIRCLE
  8
0
 62
7
 10
-2.97500003E+02
 20
2.04000008E+02
 40
5.50000012E+00
  0
CIRCLE
  8
0
 62
7
 10
-2.97500003E+02
 20
2.04000008E+02
 40
8.75000000E+00
  0
CIRCLE
  8
0
 62
7
 10
-2.97500003E+02
 20
3.89999982E+01
 40
8.75000000E+00
  0
CIRCLE
  8
0
 62
7
 10
-2.97500003E+02
 20
3.89999982E+01
 40
5.50000012E+00
  0
CIRCLE
  8
0
 62
7
 10
3.10500014E+02
 20
3.89999982E+01
 40
5.50000012E+00
  0
CIRCLE
  8
0
 62
7
 10
3.10500014E+02
 20
2.04000008E+02
 40
8.75000000E+00
  0
CIRCLE
  8
0
 62
7
 10
3.10500014E+02
 20
3.89999982E+01
 40
8.75000000E+00
  0
CIRCLE
  8
0
 62
7
 10
3.10500014E+02
 20
2.04000008E+02
 40
5.50000012E+00
  0
LINE
  8
0
  6
CENTER
 62
2
 10
-5.85000017E+01
 20
5.45000001E+01
 11
-5.85000017E+01
 21
3.45000001E+01
  0
LINE
  8
0
  6
CENTER
 62
2
 10
-2.38500002E+02
 20
4.45000001E+01
 11
-4.85000017E+01
 21
4.45000001E+01
  0
LINE
  8
0
  6
CENTER
 62
2
 10
-2.38500002E+02
 20
1.98500015E+02
 11
-4.85000017E+01
 21
1.98500015E+02
  0
LINE
  8
0
 62
4
 10
-1.38500002E+02
 20
1.99500015E+02
 11
-1.38500002E+02
 21
1.97500015E+02
  0
LINE
  8
0
 62
4
 10
-1.48500002E+02
 20
1.99500015E+02
 11
-1.48500002E+02
 21
1.97500015E+02
  0
ARC
  8
0
 62
4
 10
-1.43500002E+02
 20
1.99500015E+02
 40
5.00000007E+00
 50
0.00000000E+00
 51
1.80000000E+02
  0
ARC
  8
0
 62
4
 10
-1.43500002E+02
 20
1.97500015E+02
 40
5.00000007E+00
 50
1.80000000E+02
 51
0.00000000E+00
  0
CIRCLE
  8
0
 62
4
 10
-1.43500002E+02
 20
4.45000001E+01
 40
5.00000007E+00
  0
LINE
  8
0
  6
CENTER
 62
2
 10
-1.52124016E+02
 20
1.99500015E+02
 11
-1.34750002E+02
 21
1.99500015E+02
  0
LINE
  8
0
  6
CENTER
 62
2
 10
-1.52124016E+02
 20
1.97500015E+02
 11
-1.34750002E+02
 21
1.97500015E+02
  0
LINE
  8
0
 62
7
 10
2.07500002E+02
 20
1.68000004E+02
 11
2.07500002E+02
 21
1.62000000E+02
  0
LINE
  8
0
  6
CENTER
 62
2
 10
2.86500006E+02
 20
2.39033070E+02
 11
2.86500006E+02
 21
1.39999982E+01
  0
LINE
  8
0
  6
CENTER
 62
2
 10
-4.90500007E+02
 20
3.89999982E+01
 11
-4.70500007E+02
 21
3.89999982E+01
  0
LINE
  8
0
  6
CENTER
 62
2
 10
-4.90500007E+02
 20
2.04000008E+02
 11
-4.70500007E+02
 21
2.04000008E+02
  0
LINE
  8
0
 62
7
 10
-4.20999961E+02
 20
1.89999982E+01
 11
-4.23267951E+02
 21
1.89999982E+01
  0
LINE
  8
0
 62
7
 10
-4.21123347E+02
 20
2.28000041E+01
 11
-4.22249732E+02
 21
2.28000041E+01
  0
LINE
  8
0
 62
7
 10
-4.21499972E+02
 20
2.00000020E+01
 11
-4.22999969E+02
 21
2.00000020E+01
  0
LINE
  8
0
 62
7
 10
-4.10500007E+02
 20
1.89999982E+01
 11
-4.12299991E+02
 21
1.89999982E+01
  0
LINE
  8
0
  6
CENTER
 62
6
 10
-4.13899999E+02
 20
1.69499982E+01
 11
-4.13899999E+02
 21
2.39199982E+01
  0
LINE
  8
0
  6
CENTER
 62
6
 10
-4.19399972E+02
 20
1.69499982E+01
 11
-4.19399972E+02
 21
2.39199982E+01
  0
ARC
  8
0
 62
4
 10
-4.19399970E+02
 20
2.15499959E+01
 40
2.05000229E+00
 50
9.00000002E+01
 51
1.79999936E+02
  0
ARC
  8
0
 62
4
 10
-4.19399974E+02
 20
2.15499959E+01
 40
2.05000229E+00
 50
6.39705167E-05
 51
9.00000002E+01
  0
LINE
  8
0
 62
4
 10
-4.18149972E+02
 20
1.84999982E+01
 11
-4.20649972E+02
 21
1.84999982E+01
  0
LINE
  8
0
 62
4
 10
-4.20649972E+02
 20
1.84999982E+01
 11
-4.20649972E+02
 21
1.89999982E+01
  0
LINE
  8
0
 62
6
 10
-4.20419972E+02
 20
1.84999982E+01
 11
-4.20419972E+02
 21
1.89999982E+01
  0
LINE
  8
0
 62
6
 10
-4.18379972E+02
 20
1.84999982E+01
 11
-4.18379972E+02
 21
1.89999982E+01
  0
LINE
  8
0
 62
4
 10
-4.18149972E+02
 20
1.84999982E+01
 11
-4.18149972E+02
 21
1.89999982E+01
  0
LINE
  8
0
 62
4
 10
-4.18149972E+02
 20
2.27699982E+01
 11
-4.20649972E+02
 21
2.27699982E+01
  0
LINE
  8
0
 62
4
 10
-4.20649972E+02
 20
2.15899982E+01
 11
-4.20649972E+02
 21
2.27699982E+01
  0
LINE
  8
0
 62
6
 10
-4.20419972E+02
 20
2.15899982E+01
 11
-4.20419972E+02
 21
2.29999982E+01
  0
LINE
  8
0
 62
6
 10
-4.18379972E+02
 20
2.15899982E+01
 11
-4.18379972E+02
 21
2.29999982E+01
  0
LINE
  8
0
 62
4
 10
-4.18149972E+02
 20
2.15899982E+01
 11
-4.18149972E+02
 21
2.27699982E+01
  0
LINE
  8
0
 62
4
 10
-4.18379972E+02
 20
2.29999982E+01
 11
-4.18149972E+02
 21
2.27699982E+01
  0
LINE
  8
0
 62
4
 10
-4.20419972E+02
 20
2.29999982E+01
 11
-4.20649972E+02
 21
2.27699982E+01
  0
LINE
  8
0
 62
4
 10
-4.18379972E+02
 20
2.29999982E+01
 11
-4.20419972E+02
 21
2.29999982E+01
  0
LINE
  8
0
 62
4
 10
-4.17349972E+02
 20
2.15899982E+01
 11
-4.21449972E+02
 21
2.15899982E+01
  0
LINE
  8
0
 62
4
 10
-4.17349972E+02
 20
2.07999982E+01
 11
-4.21449972E+02
 21
2.07999982E+01
  0
LINE
  8
0
 62
4
 10
-4.21449972E+02
 20
1.99999982E+01
 11
-4.21449972E+02
 21
2.15499982E+01
  0
LINE
  8
0
 62
4
 10
-4.21449972E+02
 20
1.99999982E+01
 11
-4.20899972E+02
 21
1.94499982E+01
  0
LINE
  8
0
 62
4
 10
-4.20899972E+02
 20
1.89999982E+01
 11
-4.20899972E+02
 21
1.94499982E+01
  0
LINE
  8
0
 62
4
 10
-4.17899972E+02
 20
1.89999982E+01
 11
-4.20899972E+02
 21
1.89999982E+01
  0
LINE
  8
0
 62
4
 10
-4.17899972E+02
 20
1.89999982E+01
 11
-4.17899972E+02
 21
1.94499982E+01
  0
LINE
  8
0
 62
4
 10
-4.17349972E+02
 20
1.99999982E+01
 11
-4.17899972E+02
 21
1.94499982E+01
  0
LINE
  8
0
 62
4
 10
-4.17349972E+02
 20
1.99999982E+01
 11
-4.17349972E+02
 21
2.15499982E+01
  0
ARC
  8
0
 62
4
 10
-4.13899996E+02
 20
2.15499959E+01
 40
2.05000229E+00
 50
9.00000002E+01
 51
1.79999936E+02
  0
ARC
  8
0
 62
4
 10
-4.13900001E+02
 20
2.15499959E+01
 40
2.05000229E+00
 50
6.39705167E-05
 51
9.00000002E+01
  0
LINE
  8
0
 62
4
 10
-4.12649999E+02
 20
1.84999982E+01
 11
-4.15149999E+02
 21
1.84999982E+01
  0
LINE
  8
0
 62
4
 10
-4.15149999E+02
 20
1.84999982E+01
 11
-4.15149999E+02
 21
1.89999982E+01
  0
LINE
  8
0
 62
6
 10
-4.14919999E+02
 20
1.84999982E+01
 11
-4.14919999E+02
 21
1.89999982E+01
  0
LINE
  8
0
 62
6
 10
-4.12879999E+02
 20
1.84999982E+01
 11
-4.12879999E+02
 21
1.89999982E+01
  0
LINE
  8
0
 62
4
 10
-4.12649999E+02
 20
1.84999982E+01
 11
-4.12649999E+02
 21
1.89999982E+01
  0
LINE
  8
0
 62
4
 10
-4.12649999E+02
 20
2.27699982E+01
 11
-4.15149999E+02
 21
2.27699982E+01
  0
LINE
  8
0
 62
4
 10
-4.15149999E+02
 20
2.15899982E+01
 11
-4.15149999E+02
 21
2.27699982E+01
  0
LINE
  8
0
 62
6
 10
-4.14919999E+02
 20
2.15899982E+01
 11
-4.14919999E+02
 21
2.29999982E+01
  0
LINE
  8
0
 62
6
 10
-4.12879999E+02
 20
2.15899982E+01
 11
-4.12879999E+02
 21
2.29999982E+01
  0
LINE
  8
0
 62
4
 10
-4.12649999E+02
 20
2.15899982E+01
 11
-4.12649999E+02
 21
2.27699982E+01
  0
LINE
  8
0
 62
4
 10
-4.12879999E+02
 20
2.29999982E+01
 11
-4.12649999E+02
 21
2.27699982E+01
  0
LINE
  8
0
 62
4
 10
-4.14919999E+02
 20
2.29999982E+01
 11
-4.15149999E+02
 21
2.27699982E+01
  0
LINE
  8
0
 62
4
 10
-4.12879999E+02
 20
2.29999982E+01
 11
-4.14919999E+02
 21
2.29999982E+01
  0
LINE
  8
0
 62
4
 10
-4.11849999E+02
 20
2.15899982E+01
 11
-4.15949999E+02
 21
2.15899982E+01
  0
LINE
  8
0
 62
4
 10
-4.11849999E+02
 20
2.07999982E+01
 11
-4.15949999E+02
 21
2.07999982E+01
  0
LINE
  8
0
 62
4
 10
-4.15949999E+02
 20
1.99999982E+01
 11
-4.15949999E+02
 21
2.15499982E+01
  0
LINE
  8
0
 62
4
 10
-4.15949999E+02
 20
1.99999982E+01
 11
-4.15399999E+02
 21
1.94499982E+01
  0
LINE
  8
0
 62
4
 10
-4.15399999E+02
 20
1.89999982E+01
 11
-4.15399999E+02
 21
1.94499982E+01
  0
LINE
  8
0
 62
4
 10
-4.12399999E+02
 20
1.89999982E+01
 11
-4.15399999E+02
 21
1.89999982E+01
  0
LINE
  8
0
 62
4
 10
-4.12399999E+02
 20
1.89999982E+01
 11
-4.12399999E+02
 21
1.94499982E+01
  0
LINE
  8
0
 62
4
 10
-4.11849999E+02
 20
1.99999982E+01
 11
-4.12399999E+02
 21
1.94499982E+01
  0
LINE
  8
0
 62
4
 10
-4.11849999E+02
 20
1.99999982E+01
 11
-4.11849999E+02
 21
2.15499982E+01
  0
LINE
  8
0
 62
7
 10
-4.17799983E+02
 20
1.95000001E+01
 11
-4.17799983E+02
 21
1.89999982E+01
  0
LINE
  8
0
 62
7
 10
-4.12299991E+02
 20
1.95000001E+01
 11
-4.12299991E+02
 21
1.89999982E+01
  0
LINE
  8
0
 62
7
 10
-4.16000000E+02
 20
1.99999832E+01
 11
-4.15500010E+02
 21
1.94999935E+01
  0
LINE
  8
0
 62
7
 10
-4.20999961E+02
 20
1.95000001E+01
 11
-4.20999961E+02
 21
1.89999982E+01
  0
LINE
  8
0
 62
7
 10
-4.15999999E+02
 20
2.16000052E+01
 11
-4.15999999E+02
 21
2.00000020E+01
  0
LINE
  8
0
 62
7
 10
-4.11799979E+02
 20
2.00000020E+01
 11
-4.11799979E+02
 21
2.16000052E+01
  0
LINE
  8
0
 62
7
 10
-4.15500007E+02
 20
1.95000001E+01
 11
-4.15500007E+02
 21
1.89999982E+01
  0
LINE
  8
0
 62
7
 10
-4.11799996E+02
 20
1.99999765E+01
 11
-4.12299986E+02
 21
1.94999867E+01
  0
LINE
  8
0
 62
7
 10
-4.15500007E+02
 20
1.89999982E+01
 11
-4.17799983E+02
 21
1.89999982E+01
  0
LINE
  8
0
 62
7
 10
-4.21499988E+02
 20
1.99999899E+01
 11
-4.20999985E+02
 21
1.94999867E+01
  0
LINE
  8
0
 62
7
 10
-4.17299991E+02
 20
2.00000020E+01
 11
-4.17299991E+02
 21
2.16000052E+01
  0
LINE
  8
0
 62
7
 10
-4.17299991E+02
 20
2.00000034E+01
 11
-4.17799994E+02
 21
1.95000002E+01
  0
ARC
  8
0
 62
7
 10
-4.19400001E+02
 20
2.16000052E+01
 40
2.09999993E+00
 50
2.50447803E-06
 51
1.45150057E+02
  0
ARC
  8
0
 62
7
 10
-4.13899989E+02
 20
2.16000052E+01
 40
2.09999993E+00
 50
2.50447803E-06
 51
1.80000005E+02
  0
LINE
  8
0
 62
7
 10
-3.86499991E+02
 20
1.89000008E+02
 11
-3.86499991E+02
 21
5.39999982E+01
  0
LINE
  8
0
 62
7
 10
-3.85500007E+02
 20
2.22499992E+02
 11
-3.85500007E+02
 21
1.89999992E+02
  0
LINE
  8
0
 62
7
 10
-3.85500007E+02
 20
5.30000039E+01
 11
-3.85500007E+02
 21
2.04999991E+01
  0
LINE
  8
0
 62
7
 10
-3.86500005E+02
 20
5.39999937E+01
 11
-3.85499985E+02
 21
5.29999737E+01
  0
LINE
  8
0
 62
7
 10
-3.86499988E+02
 20
1.89000019E+02
 11
-3.85499988E+02
 21
1.90000020E+02
  0
LINE
  8
0
 62
7
 10
-3.87499995E+02
 20
2.18000004E+02
 11
-3.87499995E+02
 21
2.50000020E+01
  0
LINE
  8
0
 62
7
 10
-4.07000003E+02
 20
2.50000020E+01
 11
-4.07000003E+02
 21
2.04999991E+01
  0
LINE
  8
0
  6
CENTER
 62
2
 10
-4.48999991E+02
 20
4.57500001E+01
 11
-4.48999991E+02
 21
6.92500039E+01
  0
LINE
  8
0
  6
CENTER
 62
2
 10
-4.37249999E+02
 20
5.75000020E+01
 11
-4.60750003E+02
 21
5.75000020E+01
  0
LINE
  8
0
 62
7
 10
-3.85500007E+02
 20
2.22499992E+02
 11
-4.07000003E+02
 21
2.22499992E+02
  0
LINE
  8
0
 62
7
 10
-3.85500007E+02
 20
2.04999991E+01
 11
-4.07000003E+02
 21
2.04999991E+01
  0
LINE
  8
0
 62
7
 10
-4.80500007E+02
 20
2.50000020E+01
 11
-4.80500007E+02
 21
2.18000004E+02
  0
LINE
  8
0
 62
7
 10
-4.07000003E+02
 20
2.18000004E+02
 11
-4.07000003E+02
 21
2.22499992E+02
  0
LINE
  8
0
 62
7
 10
-4.24385619E+02
 20
2.08000012E+01
 11
-4.25999961E+02
 21
2.08000012E+01
  0
LINE
  8
0
 62
7
 10
-4.23635383E+02
 20
2.36000081E+01
 11
-4.25999961E+02
 21
2.36000081E+01
  0
LINE
  8
0
 62
7
 10
-4.22999972E+02
 20
1.99999853E+01
 11
-4.24385612E+02
 21
2.07999846E+01
  0
LINE
  8
0
 62
7
 10
-4.28699985E+02
 20
2.35000010E+01
 11
-4.28699985E+02
 21
2.20000001E+01
  0
LINE
  8
0
 62
7
 10
-4.22249728E+02
 20
2.27999956E+01
 11
-4.23635368E+02
 21
2.35999948E+01
  0
LINE
  8
0
 62
7
 10
-4.10500007E+02
 20
1.89999982E+01
 11
-4.10500007E+02
 21
2.20000001E+01
  0
LINE
  8
0
 62
7
 10
-4.23267925E+02
 20
1.89999886E+01
 11
-4.24133970E+02
 21
1.95000000E+01
  0
LINE
  8
0
 62
7
 10
-4.24133964E+02
 20
1.95000001E+01
 11
-4.26199985E+02
 21
1.95000001E+01
  0
LINE
  8
0
 62
7
 10
-3.87499995E+02
 20
2.50000020E+01
 11
-4.80500007E+02
 21
2.50000020E+01
  0
LINE
  8
0
 62
7
 10
-3.87499995E+02
 20
2.18000004E+02
 11
-4.80500007E+02
 21
2.18000004E+02
  0
LINE
  8
0
 62
7
 10
-4.17299988E+02
 20
2.22999996E+02
 11
-4.17799977E+02
 21
2.23499985E+02
  0
LINE
  8
0
 62
7
 10
-4.17299991E+02
 20
2.23000004E+02
 11
-4.17299991E+02
 21
2.21399986E+02
  0
LINE
  8
0
 62
7
 10
-4.24133964E+02
 20
2.23499996E+02
 11
-4.26199985E+02
 21
2.23499996E+02
  0
LINE
  8
0
 62
7
 10
-4.23267933E+02
 20
2.24000012E+02
 11
-4.24133986E+02
 21
2.23499995E+02
  0
LINE
  8
0
 62
7
 10
-4.20999961E+02
 20
2.24000008E+02
 11
-4.23267951E+02
 21
2.24000008E+02
  0
LINE
  8
0
 62
7
 10
-4.21499993E+02
 20
2.23000001E+02
 11
-4.20999982E+02
 21
2.23500012E+02
  0
LINE
  8
0
 62
7
 10
-4.10500007E+02
 20
2.24000008E+02
 11
-4.10500007E+02
 21
2.20999996E+02
  0
LINE
  8
0
 62
7
 10
-4.21123347E+02
 20
2.20200016E+02
 11
-4.22249732E+02
 21
2.20200016E+02
  0
LINE
  8
0
 62
7
 10
-4.15500007E+02
 20
2.24000008E+02
 11
-4.17799983E+02
 21
2.24000008E+02
  0
LINE
  8
0
 62
7
 10
-4.11800009E+02
 20
2.23000034E+02
 11
-4.12299998E+02
 21
2.23500023E+02
  0
LINE
  8
0
 62
7
 10
-4.15500007E+02
 20
2.23499996E+02
 11
-4.15500007E+02
 21
2.24000008E+02
  0
LINE
  8
0
 62
7
 10
-4.22249731E+02
 20
2.20199996E+02
 11
-4.23635379E+02
 21
2.19399992E+02
  0
LINE
  8
0
 62
7
 10
-4.21499972E+02
 20
2.23000004E+02
 11
-4.22999969E+02
 21
2.23000004E+02
  0
LINE
  8
0
 62
7
 10
-4.28699985E+02
 20
2.19500000E+02
 11
-4.28699985E+02
 21
2.20999996E+02
  0
LINE
  8
0
 62
7
 10
-4.11799979E+02
 20
2.23000004E+02
 11
-4.11799979E+02
 21
2.21399986E+02
  0
LINE
  8
0
 62
7
 10
-4.10500007E+02
 20
2.24000008E+02
 11
-4.12299991E+02
 21
2.24000008E+02
  0
LINE
  8
0
 62
7
 10
-4.22999987E+02
 20
2.23000027E+02
 11
-4.24385635E+02
 21
2.22200023E+02
  0
LINE
  8
0
 62
7
 10
-4.15999999E+02
 20
2.21399986E+02
 11
-4.15999999E+02
 21
2.23000004E+02
  0
LINE
  8
0
 62
7
 10
-4.20999961E+02
 20
2.23499996E+02
 11
-4.20999961E+02
 21
2.24000008E+02
  0
LINE
  8
0
 62
7
 10
-4.15999987E+02
 20
2.23000012E+02
 11
-4.15499998E+02
 21
2.23500001E+02
  0
LINE
  8
0
 62
7
 10
-4.12299991E+02
 20
2.23499996E+02
 11
-4.12299991E+02
 21
2.24000008E+02
  0
LINE
  8
0
 62
7
 10
-4.23635383E+02
 20
2.19399998E+02
 11
-4.25999961E+02
 21
2.19399998E+02
  0
LINE
  8
0
 62
7
 10
-4.17799983E+02
 20
2.23499996E+02
 11
-4.17799983E+02
 21
2.24000008E+02
  0
LINE
  8
0
 62
7
 10
-4.24385619E+02
 20
2.22200005E+02
 11
-4.25999961E+02
 21
2.22200005E+02
  0
LINE
  8
0
  6
CENTER
 62
2
 10
-4.29250007E+02
 20
1.09500000E+02
 11
-4.52749991E+02
 21
1.09500000E+02
  0
LINE
  8
0
  6
CENTER
 62
2
 10
-4.40999999E+02
 20
1.21249992E+02
 11
-4.40999999E+02
 21
9.77499982E+01
  0
LINE
  8
0
 62
7
 10
-4.32499976E+02
 20
2.19000008E+02
 11
-4.32499976E+02
 21
2.18000004E+02
  0
LINE
  8
0
 62
7
 10
-4.29699988E+02
 20
2.18499996E+02
 11
-4.31499991E+02
 21
2.18499996E+02
  0
LINE
  8
0
 62
7
 10
-4.60249991E+02
 20
2.18000004E+02
 11
-4.60249991E+02
 21
2.19000008E+02
  0
LINE
  8
0
 62
7
 10
-4.49749999E+02
 20
2.50000020E+01
 11
-4.49749999E+02
 21
2.39999982E+01
  0
LINE
  8
0
 62
7
 10
-4.60249991E+02
 20
2.19000008E+02
 11
-4.79999995E+02
 21
2.19000008E+02
  0
LINE
  8
0
 62
7
 10
-4.32499995E+02
 20
2.39999982E+01
 11
-4.32499995E+02
 21
2.50000020E+01
  0
LINE
  8
0
 62
7
 10
-4.29699988E+02
 20
2.45000001E+01
 11
-4.31499991E+02
 21
2.45000001E+01
  0
LINE
  8
0
 62
7
 10
-4.60249991E+02
 20
2.50000020E+01
 11
-4.60249991E+02
 21
2.39999982E+01
  0
LINE
  8
0
 62
7
 10
-4.60249991E+02
 20
2.39999982E+01
 11
-4.79999995E+02
 21
2.39999982E+01
  0
LINE
  8
0
 62
7
 10
-4.32499995E+02
 20
2.39999982E+01
 11
-4.49749999E+02
 21
2.39999982E+01
  0
LINE
  8
0
 62
7
 10
-4.49749999E+02
 20
2.18000004E+02
 11
-4.49749999E+02
 21
2.19000008E+02
  0
LINE
  8
0
 62
7
 10
-4.32499995E+02
 20
2.19000008E+02
 11
-4.49749999E+02
 21
2.19000008E+02
  0
LINE
  8
0
 62
7
 10
-4.79999995E+02
 20
2.39999982E+01
 11
-4.79999995E+02
 21
2.50000020E+01
  0
LINE
  8
0
 62
7
 10
-4.79999995E+02
 20
2.19000008E+02
 11
-4.79999995E+02
 21
2.18000004E+02
  0
LINE
  8
0
 62
7
 10
-4.10850005E+02
 20
1.74978859E+02
 11
-4.10850005E+02
 21
1.55021145E+02
  0
LINE
  8
0
 62
7
 10
-4.12149997E+02
 20
1.74978859E+02
 11
-4.12149997E+02
 21
1.55021145E+02
  0
CIRCLE
  8
0
 62
7
 10
-4.40999999E+02
 20
1.09500000E+02
 40
5.50000012E+00
  0
CIRCLE
  8
0
 62
2
 10
-4.40999999E+02
 20
1.09500000E+02
 40
6.75000012E+00
  0
CIRCLE
  8
0
 62
7
 10
-4.48999991E+02
 20
5.75000020E+01
 40
5.50000012E+00
  0
CIRCLE
  8
0
 62
2
 10
-4.48999991E+02
 20
5.75000020E+01
 40
6.75000012E+00
  0
ARC
  8
0
 62
7
 10
-4.26199985E+02
 20
2.20000001E+01
 40
2.50000000E+00
 50
1.79999991E+02
 51
2.70000000E+02
  0
ARC
  8
0
 62
7
 10
-4.25999961E+02
 20
2.22000142E+01
 40
1.40000001E+00
 50
9.00000002E+01
 51
2.70000000E+02
  0
ARC
  8
0
 62
7
 10
-4.13499999E+02
 20
2.20000001E+01
 40
3.00000012E+00
 50
2.50447803E-06
 51
9.00000002E+01
  0
ARC
  8
0
 62
7
 10
-4.29699988E+02
 20
2.35000010E+01
 40
1.00000001E+00
 50
3.59999996E+02
 51
9.00000002E+01
  0
ARC
  8
0
 62
7
 10
-4.13899989E+02
 20
2.21399986E+02
 40
2.09999993E+00
 50
1.79999991E+02
 51
1.00179125E-05
  0
ARC
  8
0
 62
7
 10
-4.19400001E+02
 20
2.21399986E+02
 40
2.09999993E+00
 50
2.14849942E+02
 51
3.59999996E+02
  0
ARC
  8
0
 62
7
 10
-4.29699988E+02
 20
2.19500000E+02
 40
1.00000001E+00
 50
2.70000000E+02
 51
2.50447843E-06
  0
ARC
  8
0
 62
7
 10
-4.13499999E+02
 20
2.20999996E+02
 40
3.00000012E+00
 50
2.70000000E+02
 51
3.59999996E+02
  0
ARC
  8
0
 62
7
 10
-4.25999961E+02
 20
2.20799992E+02
 40
1.40000001E+00
 50
9.00000002E+01
 51
2.70000000E+02
  0
ARC
  8
0
 62
7
 10
-4.26199985E+02
 20
2.20999996E+02
 40
2.50000000E+00
 50
9.00000002E+01
 51
1.80000005E+02
  0
ARC
  8
0
 62
7
 10
-4.31499991E+02
 20
2.17499992E+02
 40
1.00000001E+00
 50
9.00000002E+01
 51
1.49999997E+02
  0
ARC
  8
0
 62
7
 10
-4.31499991E+02
 20
2.54999991E+01
 40
1.00000001E+00
 50
2.10000003E+02
 51
2.70000000E+02
  0
CIRCLE
  8
0
 62
7
 10
-4.11499991E+02
 20
1.64999992E+02
 40
1.14999998E+01
  0
CIRCLE
  8
0
 62
7
 10
-4.11499991E+02
 20
1.64999992E+02
 40
1.00000000E+01
  0
CIRCLE
  8
0
 62
2
 10
-4.11499991E+02
 20
1.64999992E+02
 40
8.99999976E+00
  0
LINE
  8
0
  6
CENTER
 62
2
 10
-3.96499991E+02
 20
1.64999992E+02
 11
-4.26499991E+02
 21
1.64999992E+02
  0
LINE
  8
0
  6
CENTER
 62
2
 10
-4.11499991E+02
 20
1.79999992E+02
 11
-4.11499991E+02
 21
1.49999992E+02
  0
LINE
  8
0
  6
CENTER
 62
2
 10
4.62000015E+02
 20
3.89999982E+01
 11
4.82000015E+02
 21
3.89999982E+01
  0
LINE
  8
0
  6
CENTER
 62
2
 10
4.62000015E+02
 20
2.04000008E+02
 11
4.82000015E+02
 21
2.04000008E+02
  0
LINE
  8
0
 62
7
 10
4.02000015E+02
 20
1.89999982E+01
 11
4.03799979E+02
 21
1.89999982E+01
  0
LINE
  8
0
  6
CENTER
 62
6
 10
4.05399997E+02
 20
1.69499982E+01
 11
4.05399997E+02
 21
2.39199982E+01
  0
LINE
  8
0
  6
CENTER
 62
6
 10
4.10899970E+02
 20
1.69499982E+01
 11
4.10899970E+02
 21
2.39199982E+01
  0
CIRCLE
  8
0
 62
4
 10
4.10899970E+02
 20
2.13004736E+01
 40
1.30000000E+00
  0
ARC
  8
0
 62
4
 10
4.10899973E+02
 20
2.15499959E+01
 40
2.05000229E+00
 50
9.00000002E+01
 51
1.79999936E+02
  0
ARC
  8
0
 62
4
 10
4.10899968E+02
 20
2.15499959E+01
 40
2.05000229E+00
 50
6.39705167E-05
 51
9.00000002E+01
  0
LINE
  8
0
 62
4
 10
4.12149970E+02
 20
1.84999982E+01
 11
4.09649970E+02
 21
1.84999982E+01
  0
LINE
  8
0
 62
4
 10
4.09649970E+02
 20
1.84999982E+01
 11
4.09649970E+02
 21
1.89999982E+01
  0
LINE
  8
0
 62
6
 10
4.09879970E+02
 20
1.84999982E+01
 11
4.09879970E+02
 21
1.89999982E+01
  0
LINE
  8
0
 62
6
 10
4.11919970E+02
 20
1.84999982E+01
 11
4.11919970E+02
 21
1.89999982E+01
  0
LINE
  8
0
 62
4
 10
4.12149970E+02
 20
1.84999982E+01
 11
4.12149970E+02
 21
1.89999982E+01
  0
LINE
  8
0
 62
4
 10
4.08849970E+02
 20
1.99999982E+01
 11
4.08849970E+02
 21
2.15499982E+01
  0
LINE
  8
0
 62
4
 10
4.08849970E+02
 20
1.99999982E+01
 11
4.09399970E+02
 21
1.94499982E+01
  0
LINE
  8
0
 62
4
 10
4.09399970E+02
 20
1.89999982E+01
 11
4.09399970E+02
 21
1.94499982E+01
  0
LINE
  8
0
 62
4
 10
4.12399970E+02
 20
1.89999982E+01
 11
4.09399970E+02
 21
1.89999982E+01
  0
LINE
  8
0
 62
4
 10
4.12399970E+02
 20
1.89999982E+01
 11
4.12399970E+02
 21
1.94499982E+01
  0
LINE
  8
0
 62
4
 10
4.12949970E+02
 20
1.99999982E+01
 11
4.12399970E+02
 21
1.94499982E+01
  0
LINE
  8
0
 62
4
 10
4.12949970E+02
 20
1.99999982E+01
 11
4.12949970E+02
 21
2.15499982E+01
  0
CIRCLE
  8
0
 62
4
 10
4.05399997E+02
 20
2.13004736E+01
 40
1.30000000E+00
  0
ARC
  8
0
 62
4
 10
4.05399999E+02
 20
2.15499959E+01
 40
2.05000229E+00
 50
9.00000002E+01
 51
1.79999936E+02
  0
ARC
  8
0
 62
4
 10
4.05399995E+02
 20
2.15499959E+01
 40
2.05000229E+00
 50
6.39705167E-05
 51
9.00000002E+01
  0
LINE
  8
0
 62
4
 10
4.06649997E+02
 20
1.84999982E+01
 11
4.04149997E+02
 21
1.84999982E+01
  0
LINE
  8
0
 62
4
 10
4.04149997E+02
 20
1.84999982E+01
 11
4.04149997E+02
 21
1.89999982E+01
  0
LINE
  8
0
 62
6
 10
4.04379997E+02
 20
1.84999982E+01
 11
4.04379997E+02
 21
1.89999982E+01
  0
LINE
  8
0
 62
6
 10
4.06419997E+02
 20
1.84999982E+01
 11
4.06419997E+02
 21
1.89999982E+01
  0
LINE
  8
0
 62
4
 10
4.06649997E+02
 20
1.84999982E+01
 11
4.06649997E+02
 21
1.89999982E+01
  0
LINE
  8
0
 62
4
 10
4.03349997E+02
 20
1.99999982E+01
 11
4.03349997E+02
 21
2.15499982E+01
  0
LINE
  8
0
 62
4
 10
4.03349997E+02
 20
1.99999982E+01
 11
4.03899997E+02
 21
1.94499982E+01
  0
LINE
  8
0
 62
4
 10
4.03899997E+02
 20
1.89999982E+01
 11
4.03899997E+02
 21
1.94499982E+01
  0
LINE
  8
0
 62
4
 10
4.06899997E+02
 20
1.89999982E+01
 11
4.03899997E+02
 21
1.89999982E+01
  0
LINE
  8
0
 62
4
 10
4.06899997E+02
 20
1.89999982E+01
 11
4.06899997E+02
 21
1.94499982E+01
  0
LINE
  8
0
 62
4
 10
4.07449997E+02
 20
1.99999982E+01
 11
4.06899997E+02
 21
1.94499982E+01
  0
LINE
  8
0
 62
4
 10
4.07449997E+02
 20
1.99999982E+01
 11
4.07449997E+02
 21
2.15499982E+01
  0
LINE
  8
0
 62
7
 10
4.08799973E+02
 20
1.99999967E+01
 11
4.09299976E+02
 21
1.94999935E+01
  0
LINE
  8
0
 62
7
 10
4.08799979E+02
 20
2.00000020E+01
 11
4.08799979E+02
 21
2.16000052E+01
  0
LINE
  8
0
 62
7
 10
4.12999984E+02
 20
1.99999967E+01
 11
4.12499967E+02
 21
1.94999800E+01
  0
LINE
  8
0
 62
7
 10
4.07000015E+02
 20
1.89999982E+01
 11
4.09299972E+02
 21
1.89999982E+01
  0
LINE
  8
0
 62
7
 10
4.03299991E+02
 20
1.99999832E+01
 11
4.03799981E+02
 21
1.94999935E+01
  0
LINE
  8
0
 62
7
 10
4.07000015E+02
 20
1.95000001E+01
 11
4.07000015E+02
 21
1.89999982E+01
  0
LINE
  8
0
 62
7
 10
4.03299987E+02
 20
2.00000020E+01
 11
4.03299987E+02
 21
2.16000052E+01
  0
LINE
  8
0
 62
7
 10
4.07500007E+02
 20
2.16000052E+01
 11
4.07500007E+02
 21
2.00000020E+01
  0
LINE
  8
0
 62
7
 10
4.12499969E+02
 20
1.95000001E+01
 11
4.12499969E+02
 21
1.89999982E+01
  0
LINE
  8
0
 62
7
 10
4.07500002E+02
 20
1.99999832E+01
 11
4.07000012E+02
 21
1.94999935E+01
  0
LINE
  8
0
 62
7
 10
4.03799979E+02
 20
1.95000001E+01
 11
4.03799979E+02
 21
1.89999982E+01
  0
LINE
  8
0
 62
7
 10
4.09299972E+02
 20
1.95000001E+01
 11
4.09299972E+02
 21
1.89999982E+01
  0
ARC
  8
0
 62
7
 10
4.10900008E+02
 20
2.16000052E+01
 40
2.09999993E+00
 50
3.48499440E+01
 51
1.79999991E+02
  0
LINE
  8
0
 62
7
 10
4.03649986E+02
 20
1.74978859E+02
 11
4.03649986E+02
 21
1.55021145E+02
  0
LINE
  8
0
 62
7
 10
4.02350013E+02
 20
1.74978859E+02
 11
4.02350013E+02
 21
1.55021145E+02
  0
LINE
  8
0
 62
7
 10
4.23999984E+02
 20
2.19000008E+02
 11
4.41250007E+02
 21
2.19000008E+02
  0
LINE
  8
0
 62
7
 10
4.23999984E+02
 20
2.39999982E+01
 11
4.41249988E+02
 21
2.39999982E+01
  0
LINE
  8
0
 62
7
 10
4.21199996E+02
 20
2.45000001E+01
 11
4.22999999E+02
 21
2.45000001E+01
  0
LINE
  8
0
 62
7
 10
4.23999984E+02
 20
2.39999982E+01
 11
4.23999984E+02
 21
2.50000020E+01
  0
LINE
  8
0
 62
7
 10
4.21199996E+02
 20
2.18499996E+02
 11
4.22999999E+02
 21
2.18499996E+02
  0
LINE
  8
0
 62
7
 10
4.23999984E+02
 20
2.19000008E+02
 11
4.23999984E+02
 21
2.18000004E+02
  0
LINE
  8
0
 62
7
 10
4.15885627E+02
 20
2.22200005E+02
 11
4.17499969E+02
 21
2.22200005E+02
  0
LINE
  8
0
 62
7
 10
4.09299972E+02
 20
2.23499996E+02
 11
4.09299972E+02
 21
2.24000008E+02
  0
LINE
  8
0
 62
7
 10
4.15135390E+02
 20
2.19399998E+02
 11
4.17499969E+02
 21
2.19399998E+02
  0
LINE
  8
0
 62
7
 10
4.03799979E+02
 20
2.23499996E+02
 11
4.03799979E+02
 21
2.24000008E+02
  0
LINE
  8
0
 62
7
 10
4.07499975E+02
 20
2.22999999E+02
 11
4.06999985E+02
 21
2.23499989E+02
  0
LINE
  8
0
 62
7
 10
4.12499969E+02
 20
2.23499996E+02
 11
4.12499969E+02
 21
2.24000008E+02
  0
LINE
  8
0
 62
7
 10
4.07500007E+02
 20
2.21399986E+02
 11
4.07500007E+02
 21
2.23000004E+02
  0
LINE
  8
0
 62
7
 10
4.14499969E+02
 20
2.23000018E+02
 11
4.15885625E+02
 21
2.22200009E+02
  0
LINE
  8
0
 62
7
 10
4.02000015E+02
 20
2.24000008E+02
 11
4.03799979E+02
 21
2.24000008E+02
  0
LINE
  8
0
 62
7
 10
4.03299987E+02
 20
2.23000004E+02
 11
4.03299987E+02
 21
2.21399986E+02
  0
LINE
  8
0
 62
7
 10
4.20199973E+02
 20
2.19500000E+02
 11
4.20199973E+02
 21
2.20999996E+02
  0
LINE
  8
0
 62
7
 10
4.12999961E+02
 20
2.23000004E+02
 11
4.14499976E+02
 21
2.23000004E+02
  0
LINE
  8
0
 62
7
 10
4.13749713E+02
 20
2.20199987E+02
 11
4.15135368E+02
 21
2.19399978E+02
  0
LINE
  8
0
 62
7
 10
4.07000015E+02
 20
2.23499996E+02
 11
4.07000015E+02
 21
2.24000008E+02
  0
LINE
  8
0
 62
7
 10
4.03299991E+02
 20
2.23000026E+02
 11
4.03799981E+02
 21
2.23500016E+02
  0
LINE
  8
0
 62
7
 10
4.07000015E+02
 20
2.24000008E+02
 11
4.09299972E+02
 21
2.24000008E+02
  0
LINE
  8
0
 62
7
 10
4.12623336E+02
 20
2.20200016E+02
 11
4.13749740E+02
 21
2.20200016E+02
  0
LINE
  8
0
 62
7
 10
4.02000015E+02
 20
2.24000008E+02
 11
4.02000015E+02
 21
2.20999996E+02
  0
LINE
  8
0
 62
7
 10
4.12999977E+02
 20
2.22999992E+02
 11
4.12499967E+02
 21
2.23500002E+02
  0
LINE
  8
0
 62
7
 10
4.12499969E+02
 20
2.24000008E+02
 11
4.14767959E+02
 21
2.24000008E+02
  0
LINE
  8
0
 62
7
 10
4.14767915E+02
 20
2.24000002E+02
 11
4.15633976E+02
 21
2.23499981E+02
  0
LINE
  8
0
 62
7
 10
4.15633971E+02
 20
2.23499996E+02
 11
4.17699973E+02
 21
2.23499996E+02
  0
LINE
  8
0
 62
7
 10
4.08799979E+02
 20
2.23000004E+02
 11
4.08799979E+02
 21
2.21399986E+02
  0
LINE
  8
0
 62
7
 10
4.08799973E+02
 20
2.22999986E+02
 11
4.09299962E+02
 21
2.23499975E+02
  0
LINE
  8
0
 62
7
 10
3.78999984E+02
 20
2.18000004E+02
 11
4.72000015E+02
 21
2.18000004E+02
  0
LINE
  8
0
 62
7
 10
3.78999984E+02
 20
2.50000020E+01
 11
4.72000015E+02
 21
2.50000020E+01
  0
LINE
  8
0
 62
7
 10
4.15633971E+02
 20
1.95000001E+01
 11
4.17699973E+02
 21
1.95000001E+01
  0
LINE
  8
0
 62
7
 10
4.14767922E+02
 20
1.89999905E+01
 11
4.15633968E+02
 21
1.95000020E+01
  0
LINE
  8
0
 62
7
 10
4.12499969E+02
 20
1.89999982E+01
 11
4.14767959E+02
 21
1.89999982E+01
  0
LINE
  8
0
 62
7
 10
4.02000015E+02
 20
1.89999982E+01
 11
4.02000015E+02
 21
2.20000001E+01
  0
LINE
  8
0
 62
7
 10
4.12623336E+02
 20
2.28000041E+01
 11
4.13749740E+02
 21
2.28000041E+01
  0
LINE
  8
0
 62
7
 10
4.13749725E+02
 20
2.27999975E+01
 11
4.15135365E+02
 21
2.35999967E+01
  0
LINE
  8
0
 62
7
 10
4.12999961E+02
 20
2.00000020E+01
 11
4.14499976E+02
 21
2.00000020E+01
  0
LINE
  8
0
 62
7
 10
4.20199973E+02
 20
2.35000010E+01
 11
4.20199973E+02
 21
2.20000001E+01
  0
LINE
  8
0
 62
7
 10
4.14499972E+02
 20
1.99999831E+01
 11
4.15885611E+02
 21
2.07999824E+01
  0
LINE
  8
0
 62
7
 10
4.15135390E+02
 20
2.36000081E+01
 11
4.17499969E+02
 21
2.36000081E+01
  0
LINE
  8
0
 62
7
 10
4.15885627E+02
 20
2.08000012E+01
 11
4.17499969E+02
 21
2.08000012E+01
  0
LINE
  8
0
 62
7
 10
3.77000015E+02
 20
2.04999991E+01
 11
3.98499992E+02
 21
2.04999991E+01
  0
LINE
  8
0
 62
7
 10
3.77000015E+02
 20
2.22499992E+02
 11
3.98499992E+02
 21
2.22499992E+02
  0
LINE
  8
0
 62
7
 10
3.98499992E+02
 20
2.18000004E+02
 11
3.98499992E+02
 21
2.22499992E+02
  0
LINE
  8
0
 62
7
 10
4.72000015E+02
 20
2.50000020E+01
 11
4.72000015E+02
 21
2.18000004E+02
  0
LINE
  8
0
 62
7
 10
3.98499992E+02
 20
2.50000020E+01
 11
3.98499992E+02
 21
2.04999991E+01
  0
LINE
  8
0
 62
7
 10
3.78999984E+02
 20
2.18000004E+02
 11
3.78999984E+02
 21
2.50000020E+01
  0
LINE
  8
0
 62
7
 10
3.77999974E+02
 20
1.89000009E+02
 11
3.76999974E+02
 21
1.90000009E+02
  0
LINE
  8
0
 62
7
 10
3.78000000E+02
 20
5.40000004E+01
 11
3.76999967E+02
 21
5.29999670E+01
  0
LINE
  8
0
 62
7
 10
3.77000015E+02
 20
5.30000039E+01
 11
3.77000015E+02
 21
2.04999991E+01
  0
LINE
  8
0
 62
7
 10
3.77000015E+02
 20
2.22499992E+02
 11
3.77000015E+02
 21
1.89999992E+02
  0
LINE
  8
0
 62
7
 10
3.77999999E+02
 20
1.89000008E+02
 11
3.77999999E+02
 21
5.39999982E+01
  0
CIRCLE
  8
0
 62
2
 10
4.02999999E+02
 20
1.64999992E+02
 40
8.99999976E+00
  0
CIRCLE
  8
0
 62
7
 10
4.02999999E+02
 20
1.64999992E+02
 40
1.00000000E+01
  0
CIRCLE
  8
0
 62
7
 10
4.02999999E+02
 20
1.64999992E+02
 40
1.14999998E+01
  0
ARC
  8
0
 62
7
 10
4.22999999E+02
 20
2.54999991E+01
 40
1.00000001E+00
 50
2.70000000E+02
 51
3.29999996E+02
  0
ARC
  8
0
 62
7
 10
4.22999999E+02
 20
2.17499992E+02
 40
1.00000001E+00
 50
3.00000043E+01
 51
9.00000002E+01
  0
ARC
  8
0
 62
7
 10
4.17699973E+02
 20
2.20999996E+02
 40
2.50000000E+00
 50
3.59999995E+02
 51
9.00000002E+01
  0
ARC
  8
0
 62
7
 10
4.17499969E+02
 20
2.20799992E+02
 40
1.40000001E+00
 50
2.70000000E+02
 51
9.00000002E+01
  0
ARC
  8
0
 62
7
 10
4.05000007E+02
 20
2.20999996E+02
 40
3.00000012E+00
 50
1.80000008E+02
 51
2.70000000E+02
  0
ARC
  8
0
 62
7
 10
4.21199996E+02
 20
2.19500000E+02
 40
1.00000001E+00
 50
1.79999991E+02
 51
2.70000000E+02
  0
ARC
  8
0
 62
7
 10
4.10900008E+02
 20
2.21399986E+02
 40
2.09999993E+00
 50
1.80000008E+02
 51
3.25150056E+02
  0
ARC
  8
0
 62
7
 10
4.05399978E+02
 20
2.21399986E+02
 40
2.09999993E+00
 50
1.79999995E+02
 51
8.65142229E-06
  0
ARC
  8
0
 62
7
 10
4.05399978E+02
 20
2.16000052E+01
 40
2.09999993E+00
 50
3.59999995E+02
 51
1.79999991E+02
  0
ARC
  8
0
 62
7
 10
4.21199996E+02
 20
2.35000010E+01
 40
1.00000001E+00
 50
9.00000002E+01
 51
1.80000005E+02
  0
ARC
  8
0
 62
7
 10
4.05000007E+02
 20
2.20000001E+01
 40
3.00000012E+00
 50
9.00000002E+01
 51
1.79999991E+02
  0
ARC
  8
0
 62
7
 10
4.17499969E+02
 20
2.22000142E+01
 40
1.40000001E+00
 50
2.70000000E+02
 51
9.00000002E+01
  0
ARC
  8
0
 62
7
 10
4.17699973E+02
 20
2.20000001E+01
 40
2.50000000E+00
 50
2.70000000E+02
 51
8.65142224E-06
  0
LINE
  8
0
  6
CENTER
 62
2
 10
4.46499984E+02
 20
1.98000004E+02
 11
4.46499984E+02
 21
2.24999992E+02
  0
LINE
  8
0
  6
DASHED
 62
2
 10
4.41249988E+02
 20
2.14000008E+02
 11
4.41249988E+02
 21
2.18000004E+02
  0
LINE
  8
0
  6
DASHED
 62
2
 10
4.51749985E+02
 20
2.14000008E+02
 11
4.51749985E+02
 21
2.18000004E+02
  0
LINE
  8
0
  6
DASHED
 62
2
 10
4.41249988E+02
 20
2.03000004E+02
 11
4.51749985E+02
 21
2.03000004E+02
  0
LINE
  8
0
  6
DASHED
 62
2
 10
4.51749985E+02
 20
2.04999992E+02
 11
4.55499985E+02
 21
2.04999992E+02
  0
LINE
  8
0
  6
DASHED
 62
2
 10
4.37499988E+02
 20
2.04999992E+02
 11
4.37499988E+02
 21
2.14000008E+02
  0
LINE
  8
0
  6
DASHED
 62
2
 10
4.55499985E+02
 20
2.04999992E+02
 11
4.55499985E+02
 21
2.14000008E+02
  0
LINE
  8
0
  6
DASHED
 62
2
 10
4.37499988E+02
 20
2.04999992E+02
 11
4.41249988E+02
 21
2.04999992E+02
  0
LINE
  8
0
  6
DASHED
 62
2
 10
4.41249988E+02
 20
2.03000004E+02
 11
4.41249988E+02
 21
2.04999992E+02
  0
LINE
  8
0
  6
DASHED
 62
2
 10
4.51749985E+02
 20
2.03000004E+02
 11
4.51749985E+02
 21
2.04999992E+02
  0
LINE
  8
0
  6
DASHED
 62
2
 10
4.37499988E+02
 20
2.14000008E+02
 11
4.55499985E+02
 21
2.14000008E+02
  0
LINE
  8
0
  6
DASHED
 62
2
 10
4.37999985E+02
 20
2.05999996E+02
 11
4.37999985E+02
 21
2.14000008E+02
  0
LINE
  8
0
  6
DASHED
 62
2
 10
4.54999988E+02
 20
2.05999996E+02
 11
4.54999988E+02
 21
2.14000008E+02
  0
LINE
  8
0
  6
DASHED
 62
2
 10
4.37999985E+02
 20
2.05999996E+02
 11
4.54999988E+02
 21
2.05999996E+02
  0
LINE
  8
0
  6
DASHED
 62
2
 10
4.41499984E+02
 20
2.05999996E+02
 11
4.41499984E+02
 21
2.14000008E+02
  0
LINE
  8
0
  6
DASHED
 62
2
 10
4.51499984E+02
 20
2.05999996E+02
 11
4.51499984E+02
 21
2.14000008E+02
  0
LINE
  8
0
  6
DASHED
 62
2
 10
4.42249987E+02
 20
2.05999996E+02
 11
4.42249987E+02
 21
2.14000008E+02
  0
LINE
  8
0
  6
DASHED
 62
2
 10
4.50749986E+02
 20
2.05999996E+02
 11
4.50749986E+02
 21
2.14000008E+02
  0
LINE
  8
0
  6
CENTER
 62
2
 10
4.51999986E+02
 20
1.90500004E+02
 11
4.78999984E+02
 21
1.90500004E+02
  0
LINE
  8
0
  6
DASHED
 62
2
 10
4.65999987E+02
 20
1.95750000E+02
 11
4.71999986E+02
 21
1.95750000E+02
  0
LINE
  8
0
  6
DASHED
 62
2
 10
4.65999987E+02
 20
1.85250008E+02
 11
4.71999986E+02
 21
1.85250008E+02
  0
LINE
  8
0
  6
DASHED
 62
2
 10
4.56999986E+02
 20
1.81500008E+02
 11
4.65999987E+02
 21
1.81500008E+02
  0
LINE
  8
0
  6
DASHED
 62
2
 10
4.54999988E+02
 20
1.95750000E+02
 11
4.54999988E+02
 21
1.85250008E+02
  0
LINE
  8
0
  6
DASHED
 62
2
 10
4.65999987E+02
 20
1.99500000E+02
 11
4.65999987E+02
 21
1.81500008E+02
  0
LINE
  8
0
  6
DASHED
 62
2
 10
4.56999986E+02
 20
1.85250008E+02
 11
4.56999986E+02
 21
1.81500008E+02
  0
LINE
  8
0
  6
DASHED
 62
2
 10
4.56999986E+02
 20
1.99500000E+02
 11
4.65999987E+02
 21
1.99500000E+02
  0
LINE
  8
0
  6
DASHED
 62
2
 10
4.56999986E+02
 20
1.99500000E+02
 11
4.56999986E+02
 21
1.95750000E+02
  0
LINE
  8
0
  6
DASHED
 62
2
 10
4.54999988E+02
 20
1.95750000E+02
 11
4.56999986E+02
 21
1.95750000E+02
  0
LINE
  8
0
  6
DASHED
 62
2
 10
4.54999988E+02
 20
1.85250008E+02
 11
4.56999986E+02
 21
1.85250008E+02
  0
LINE
  8
0
  6
DASHED
 62
2
 10
4.57999985E+02
 20
1.99000008E+02
 11
4.57999985E+02
 21
1.82000000E+02
  0
LINE
  8
0
  6
DASHED
 62
2
 10
4.57999985E+02
 20
1.94749996E+02
 11
4.65999987E+02
 21
1.94749996E+02
  0
LINE
  8
0
  6
DASHED
 62
2
 10
4.57999985E+02
 20
1.86249992E+02
 11
4.65999987E+02
 21
1.86249992E+02
  0
LINE
  8
0
  6
DASHED
 62
2
 10
4.57999985E+02
 20
1.85500004E+02
 11
4.65999987E+02
 21
1.85500004E+02
  0
LINE
  8
0
  6
DASHED
 62
2
 10
4.57999985E+02
 20
1.99000008E+02
 11
4.65999987E+02
 21
1.99000008E+02
  0
LINE
  8
0
  6
DASHED
 62
2
 10
4.57999985E+02
 20
1.82000000E+02
 11
4.65999987E+02
 21
1.82000000E+02
  0
LINE
  8
0
  6
DASHED
 62
2
 10
4.57999985E+02
 20
1.95500004E+02
 11
4.65999987E+02
 21
1.95500004E+02
  0
LINE
  8
0
  6
CENTER
 62
2
 10
4.51999986E+02
 20
5.24999924E+01
 11
4.78999984E+02
 21
5.24999924E+01
  0
LINE
  8
0
  6
DASHED
 62
2
 10
4.65999987E+02
 20
4.72499963E+01
 11
4.71999986E+02
 21
4.72499963E+01
  0
LINE
  8
0
  6
DASHED
 62
2
 10
4.65999987E+02
 20
5.77500077E+01
 11
4.71999986E+02
 21
5.77500077E+01
  0
LINE
  8
0
  6
DASHED
 62
2
 10
4.56999986E+02
 20
6.15000077E+01
 11
4.65999987E+02
 21
6.15000077E+01
  0
LINE
  8
0
  6
DASHED
 62
2
 10
4.54999988E+02
 20
4.72499963E+01
 11
4.54999988E+02
 21
5.77500077E+01
  0
LINE
  8
0
  6
DASHED
 62
2
 10
4.65999987E+02
 20
4.34999963E+01
 11
4.65999987E+02
 21
6.15000077E+01
  0
LINE
  8
0
  6
DASHED
 62
2
 10
4.56999986E+02
 20
5.77500077E+01
 11
4.56999986E+02
 21
6.15000077E+01
  0
LINE
  8
0
  6
DASHED
 62
2
 10
4.56999986E+02
 20
4.34999963E+01
 11
4.65999987E+02
 21
4.34999963E+01
  0
LINE
  8
0
  6
DASHED
 62
2
 10
4.56999986E+02
 20
4.34999963E+01
 11
4.56999986E+02
 21
4.72499963E+01
  0
LINE
  8
0
  6
DASHED
 62
2
 10
4.54999988E+02
 20
4.72499963E+01
 11
4.56999986E+02
 21
4.72499963E+01
  0
LINE
  8
0
  6
DASHED
 62
2
 10
4.54999988E+02
 20
5.77500077E+01
 11
4.56999986E+02
 21
5.77500077E+01
  0
LINE
  8
0
  6
DASHED
 62
2
 10
4.57999985E+02
 20
4.39999982E+01
 11
4.57999985E+02
 21
6.09999963E+01
  0
LINE
  8
0
  6
DASHED
 62
2
 10
4.57999985E+02
 20
6.09999963E+01
 11
4.65999987E+02
 21
6.09999963E+01
  0
LINE
  8
0
  6
DASHED
 62
2
 10
4.57999985E+02
 20
4.39999982E+01
 11
4.65999987E+02
 21
4.39999982E+01
  0
LINE
  8
0
  6
DASHED
 62
2
 10
4.57999985E+02
 20
5.74999924E+01
 11
4.65999987E+02
 21
5.74999924E+01
  0
LINE
  8
0
  6
DASHED
 62
2
 10
4.57999985E+02
 20
4.75000020E+01
 11
4.65999987E+02
 21
4.75000020E+01
  0
LINE
  8
0
  6
DASHED
 62
2
 10
4.57999985E+02
 20
5.67500039E+01
 11
4.65999987E+02
 21
5.67500039E+01
  0
LINE
  8
0
  6
DASHED
 62
2
 10
4.57999985E+02
 20
4.82500001E+01
 11
4.65999987E+02
 21
4.82500001E+01
  0
LINE
  8
0
  6
CENTER
 62
2
 10
4.46499984E+02
 20
4.50000020E+01
 11
4.46499984E+02
 21
1.80000039E+01
  0
LINE
  8
0
  6
DASHED
 62
2
 10
4.41249988E+02
 20
2.89999982E+01
 11
4.41249988E+02
 21
2.50000020E+01
  0
LINE
  8
0
  6
DASHED
 62
2
 10
4.51749985E+02
 20
2.89999982E+01
 11
4.51749985E+02
 21
2.50000020E+01
  0
LINE
  8
0
  6
DASHED
 62
2
 10
4.41249988E+02
 20
4.00000020E+01
 11
4.51749985E+02
 21
4.00000020E+01
  0
LINE
  8
0
  6
DASHED
 62
2
 10
4.51749985E+02
 20
3.80000039E+01
 11
4.55499985E+02
 21
3.80000039E+01
  0
LINE
  8
0
  6
DASHED
 62
2
 10
4.37499988E+02
 20
3.80000039E+01
 11
4.37499988E+02
 21
2.89999982E+01
  0
LINE
  8
0
  6
DASHED
 62
2
 10
4.55499985E+02
 20
3.80000039E+01
 11
4.55499985E+02
 21
2.89999982E+01
  0
LINE
  8
0
  6
DASHED
 62
2
 10
4.37499988E+02
 20
3.80000039E+01
 11
4.41249988E+02
 21
3.80000039E+01
  0
LINE
  8
0
  6
DASHED
 62
2
 10
4.41249988E+02
 20
4.00000020E+01
 11
4.41249988E+02
 21
3.80000039E+01
  0
LINE
  8
0
  6
DASHED
 62
2
 10
4.51749985E+02
 20
4.00000020E+01
 11
4.51749985E+02
 21
3.80000039E+01
  0
LINE
  8
0
  6
DASHED
 62
2
 10
4.37499988E+02
 20
2.89999982E+01
 11
4.55499985E+02
 21
2.89999982E+01
  0
LINE
  8
0
  6
DASHED
 62
2
 10
4.54999988E+02
 20
3.70000001E+01
 11
4.54999988E+02
 21
2.89999982E+01
  0
LINE
  8
0
  6
DASHED
 62
2
 10
4.37999985E+02
 20
3.70000001E+01
 11
4.37999985E+02
 21
2.89999982E+01
  0
LINE
  8
0
  6
DASHED
 62
2
 10
4.37999985E+02
 20
3.70000001E+01
 11
4.54999988E+02
 21
3.70000001E+01
  0
LINE
  8
0
  6
DASHED
 62
2
 10
4.51499984E+02
 20
3.70000001E+01
 11
4.51499984E+02
 21
2.89999982E+01
  0
LINE
  8
0
  6
DASHED
 62
2
 10
4.41499984E+02
 20
3.70000001E+01
 11
4.41499984E+02
 21
2.89999982E+01
  0
LINE
  8
0
  6
DASHED
 62
2
 10
4.42249987E+02
 20
3.70000001E+01
 11
4.42249987E+02
 21
2.89999982E+01
  0
LINE
  8
0
  6
DASHED
 62
2
 10
4.50749986E+02
 20
3.70000001E+01
 11
4.50749986E+02
 21
2.89999982E+01
  0
LINE
  8
0
 62
7
 10
4.51749985E+02
 20
2.19000008E+02
 11
4.71499984E+02
 21
2.19000008E+02
  0
LINE
  8
0
 62
7
 10
4.71499984E+02
 20
2.19000008E+02
 11
4.71499984E+02
 21
2.18000004E+02
  0
LINE
  8
0
 62
7
 10
4.51749985E+02
 20
2.39999982E+01
 11
4.71499984E+02
 21
2.39999982E+01
  0
LINE
  8
0
 62
7
 10
4.71499984E+02
 20
2.39999982E+01
 11
4.71499984E+02
 21
2.50000020E+01
  0
LINE
  8
0
 62
7
 10
4.51749985E+02
 20
2.18000004E+02
 11
4.51749985E+02
 21
2.19000008E+02
  0
LINE
  8
0
 62
7
 10
4.41249988E+02
 20
2.18000004E+02
 11
4.41249988E+02
 21
2.19000008E+02
  0
LINE
  8
0
 62
7
 10
4.51749985E+02
 20
2.50000020E+01
 11
4.51749985E+02
 21
2.39999982E+01
  0
LINE
  8
0
 62
7
 10
4.41249988E+02
 20
2.50000020E+01
 11
4.41249988E+02
 21
2.39999982E+01
  0
LINE
  8
0
  6
CENTER
 62
2
 10
4.17999999E+02
 20
1.64999992E+02
 11
3.87999999E+02
 21
1.64999992E+02
  0
LINE
  8
0
  6
CENTER
 62
2
 10
4.02999999E+02
 20
1.79999992E+02
 11
4.02999999E+02
 21
1.49999992E+02
  0
LINE
  8
0
  6
PHANTOM
 62
1
 10
6.50000203E+00
 20
-3.48365372E+01
 11
6.50000203E+00
 21
-2.37775486E+02
  0
LINE
  8
0
  6
CENTER
 62
2
 10
3.10500014E+02
 20
-2.17500000E+02
 11
3.10500014E+02
 21
-1.97500000E+02
  0
LINE
  8
0
  6
CENTER
 62
2
 10
-2.97500003E+02
 20
-2.17500000E+02
 11
-2.97500003E+02
 21
-1.97500000E+02
  0
CIRCLE
  8
0
 62
4
 10
-1.47499986E+02
 20
-1.40906273E+02
 40
1.25000000E+00
  0
CIRCLE
  8
0
 62
6
 10
-1.47499986E+02
 20
-1.40906273E+02
 40
1.00000000E+00
  0
LINE
  8
0
 62
4
 10
-1.27500002E+02
 20
-1.39299986E+02
 11
-1.27500002E+02
 21
-1.42499986E+02
  0
LINE
  8
0
 62
4
 10
-1.49500002E+02
 20
-1.39299986E+02
 11
-1.49500002E+02
 21
-1.42499986E+02
  0
LINE
  8
0
 62
4
 10
-1.48230002E+02
 20
-1.41899986E+02
 11
-1.46490002E+02
 21
-1.40169986E+02
  0
LINE
  8
0
 62
4
 10
-1.48510002E+02
 20
-1.41619986E+02
 11
-1.46770002E+02
 21
-1.39889986E+02
  0
LINE
  8
0
 62
4
 10
-1.27500002E+02
 20
-1.42199986E+02
 11
-1.24410002E+02
 21
-1.42199986E+02
  0
LINE
  8
0
 62
4
 10
-1.27500002E+02
 20
-1.39599986E+02
 11
-1.25920002E+02
 21
-1.39599986E+02
  0
LINE
  8
0
 62
6
 10
-1.26420002E+02
 20
-1.38739986E+02
 11
-1.23920002E+02
 21
-1.43059986E+02
  0
LINE
  8
0
  6
CENTER
 62
6
 10
-1.47500002E+02
 20
-1.38069986E+02
 11
-1.47500002E+02
 21
-1.43649986E+02
  0
LINE
  8
0
 62
4
 10
-1.49500002E+02
 20
-1.39399986E+02
 11
-1.27500002E+02
 21
-1.39399986E+02
  0
LINE
  8
0
 62
4
 10
-1.49500002E+02
 20
-1.42399986E+02
 11
-1.27500002E+02
 21
-1.42399986E+02
  0
LINE
  8
0
  6
CENTER
 62
6
 10
-1.52300002E+02
 20
-1.40899986E+02
 11
-1.22100002E+02
 21
-1.40899986E+02
  0
CIRCLE
  8
0
 62
4
 10
1.52500014E+02
 20
-1.46406271E+02
 40
1.25000000E+00
  0
CIRCLE
  8
0
 62
6
 10
1.52500014E+02
 20
-1.46406271E+02
 40
1.00000000E+00
  0
LINE
  8
0
 62
4
 10
1.72499998E+02
 20
-1.44799984E+02
 11
1.72499998E+02
 21
-1.47999984E+02
  0
LINE
  8
0
 62
4
 10
1.50499998E+02
 20
-1.44799984E+02
 11
1.50499998E+02
 21
-1.47999984E+02
  0
LINE
  8
0
 62
4
 10
1.51769998E+02
 20
-1.47399984E+02
 11
1.53509998E+02
 21
-1.45669984E+02
  0
LINE
  8
0
 62
4
 10
1.51489998E+02
 20
-1.47119984E+02
 11
1.53229998E+02
 21
-1.45389984E+02
  0
LINE
  8
0
 62
4
 10
1.72499998E+02
 20
-1.47699984E+02
 11
1.75589998E+02
 21
-1.47699984E+02
  0
LINE
  8
0
 62
4
 10
1.72499998E+02
 20
-1.45099984E+02
 11
1.74079998E+02
 21
-1.45099984E+02
  0
LINE
  8
0
 62
6
 10
1.73579998E+02
 20
-1.44239984E+02
 11
1.76079998E+02
 21
-1.48559984E+02
  0
LINE
  8
0
  6
CENTER
 62
6
 10
1.52499998E+02
 20
-1.43569984E+02
 11
1.52499998E+02
 21
-1.49149984E+02
  0
LINE
  8
0
 62
4
 10
1.50499998E+02
 20
-1.44899984E+02
 11
1.72499998E+02
 21
-1.44899984E+02
  0
LINE
  8
0
 62
4
 10
1.50499998E+02
 20
-1.47899984E+02
 11
1.72499998E+02
 21
-1.47899984E+02
  0
LINE
  8
0
  6
CENTER
 62
6
 10
1.47699998E+02
 20
-1.46399984E+02
 11
1.77899998E+02
 21
-1.46399984E+02
  0
LINE
  8
0
  6
CENTER
 62
2
 10
-1.43500002E+02
 20
-9.99999999E+01
 11
-1.43500002E+02
 21
-2.21029120E+02
  0
LINE
  8
0
  6
CENTER
 62
2
 10
1.56499998E+02
 20
-9.99999999E+01
 11
1.56499998E+02
 21
-2.21029120E+02
  0
LINE
  8
0
 62
7
 10
2.99499991E+02
 20
-1.14500000E+02
 11
2.99499991E+02
 21
-2.07500000E+02
  0
LINE
  8
0
 62
7
 10
-3.08500002E+02
 20
-2.07500000E+02
 11
3.21499998E+02
 21
-2.07500000E+02
  0
LINE
  8
0
 62
7
 10
-2.86500004E+02
 20
-1.87249999E+02
 11
2.99499991E+02
 21
-1.87249999E+02
  0
LINE
  8
0
 62
7
 10
-2.86500004E+02
 20
-1.76750002E+02
 11
2.99499991E+02
 21
-1.76750002E+02
  0
LINE
  8
0
 62
7
 10
-2.46500001E+02
 20
-1.12500000E+02
 11
-2.46500001E+02
 21
-1.34000000E+02
  0
LINE
  8
0
 62
7
 10
-4.05000093E+01
 20
-1.12500000E+02
 11
-4.05000093E+01
 21
-1.34000000E+02
  0
LINE
  8
0
 62
7
 10
-2.46500001E+02
 20
-1.12500000E+02
 11
-4.05000093E+01
 21
-1.12500000E+02
  0
LINE
  8
0
 62
7
 10
-3.08500002E+02
 20
-1.14500000E+02
 11
-2.51500001E+02
 21
-1.14500000E+02
  0
LINE
  8
0
 62
7
 10
-2.51500001E+02
 20
-1.14500000E+02
 11
-2.51500001E+02
 21
-1.37499984E+02
  0
LINE
  8
0
 62
7
 10
-2.86500004E+02
 20
-1.30000000E+02
 11
-2.51500001E+02
 21
-1.30000000E+02
  0
LINE
  8
0
 62
7
 10
-2.72000002E+02
 20
-1.22732054E+02
 11
-2.68999995E+02
 21
-1.24464109E+02
  0
LINE
  8
0
 62
7
 10
-2.69000002E+02
 20
-1.17535902E+02
 11
-2.65999995E+02
 21
-1.19267957E+02
  0
LINE
  8
0
 62
7
 10
-2.69000003E+02
 20
-1.24464100E+02
 11
-2.65999994E+02
 21
-1.22732044E+02
  0
LINE
  8
0
 62
7
 10
-2.72000003E+02
 20
-1.19267946E+02
 11
-2.68999994E+02
 21
-1.17535890E+02
  0
LINE
  8
0
 62
7
 10
-2.66000002E+02
 20
-1.19267948E+02
 11
-2.66000002E+02
 21
-1.22732052E+02
  0
LINE
  8
0
 62
7
 10
-2.72000001E+02
 20
-1.19267948E+02
 11
-2.72000001E+02
 21
-1.22732052E+02
  0
LINE
  8
0
 62
7
 10
2.85000021E+02
 20
-1.19267948E+02
 11
2.85000021E+02
 21
-1.22732052E+02
  0
LINE
  8
0
 62
7
 10
2.78999998E+02
 20
-1.19267948E+02
 11
2.78999998E+02
 21
-1.22732052E+02
  0
LINE
  8
0
 62
7
 10
2.85000002E+02
 20
-1.22732045E+02
 11
2.81999997E+02
 21
-1.24464099E+02
  0
LINE
  8
0
 62
7
 10
2.85000012E+02
 20
-1.19267946E+02
 11
2.82000007E+02
 21
-1.17535893E+02
  0
LINE
  8
0
 62
7
 10
2.82000001E+02
 20
-1.17535890E+02
 11
2.78999996E+02
 21
-1.19267943E+02
  0
LINE
  8
0
 62
7
 10
2.82000010E+02
 20
-1.24464102E+02
 11
2.79000005E+02
 21
-1.22732048E+02
  0
LINE
  8
0
 62
7
 10
2.99499991E+02
 20
-1.30000000E+02
 11
2.64499991E+02
 21
-1.30000000E+02
  0
LINE
  8
0
 62
7
 10
2.64499991E+02
 20
-1.14500000E+02
 11
2.64499991E+02
 21
-1.37499984E+02
  0
LINE
  8
0
 62
7
 10
3.21499998E+02
 20
-1.14500000E+02
 11
2.64499991E+02
 21
-1.14500000E+02
  0
LINE
  8
0
 62
7
 10
2.22500002E+02
 20
-1.29500000E+02
 11
2.22500002E+02
 21
-1.37499984E+02
  0
LINE
  8
0
 62
7
 10
2.27000010E+02
 20
-1.29500000E+02
 11
2.27000010E+02
 21
-1.37499984E+02
  0
LINE
  8
0
 62
7
 10
2.27000021E+02
 20
-1.29500013E+02
 11
2.28000001E+02
 21
-1.28500034E+02
  0
LINE
  8
0
 62
2
 10
2.27000010E+02
 20
-1.29500000E+02
 11
2.64499991E+02
 21
-1.29500000E+02
  0
LINE
  8
0
 62
7
 10
2.22500002E+02
 20
-1.29500000E+02
 11
2.27000010E+02
 21
-1.29500000E+02
  0
LINE
  8
0
 62
7
 10
2.28000014E+02
 20
-1.28500000E+02
 11
2.64499991E+02
 21
-1.28500000E+02
  0
LINE
  8
0
 62
7
 10
2.22500002E+02
 20
-1.35499999E+02
 11
2.07500002E+02
 21
-1.35499999E+02
  0
LINE
  8
0
 62
7
 10
2.06500009E+02
 20
-1.36500004E+02
 11
2.07499989E+02
 21
-1.35500025E+02
  0
LINE
  8
0
 62
7
 10
-3.08500002E+02
 20
-1.14500000E+02
 11
-3.08500002E+02
 21
-2.07500000E+02
  0
LINE
  8
0
 62
7
 10
-2.86500004E+02
 20
-1.14500000E+02
 11
-2.86500004E+02
 21
-2.07500000E+02
  0
LINE
  8
0
 62
7
 10
3.21499998E+02
 20
-1.14500000E+02
 11
3.21499998E+02
 21
-2.07500000E+02
  0
LINE
  8
0
 62
7
 10
-2.51500001E+02
 20
-1.28500000E+02
 11
-2.46500001E+02
 21
-1.28500000E+02
  0
LINE
  8
0
 62
2
 10
-2.51500001E+02
 20
-1.29500000E+02
 11
-2.46500001E+02
 21
-1.29500000E+02
  0
LINE
  8
0
 62
7
 10
-2.86500004E+02
 20
-1.37499984E+02
 11
2.99499991E+02
 21
-1.37499984E+02
  0
LINE
  8
0
 62
7
 10
-2.86500004E+02
 20
-1.39299987E+02
 11
2.99499991E+02
 21
-1.39299987E+02
  0
LINE
  8
0
 62
7
 10
-2.86500004E+02
 20
-1.42499984E+02
 11
2.99499991E+02
 21
-1.42499984E+02
  0
LINE
  8
0
 62
7
 10
-2.86500004E+02
 20
-1.44799986E+02
 11
2.99499991E+02
 21
-1.44799986E+02
  0
LINE
  8
0
 62
7
 10
-2.86500004E+02
 20
-1.47999983E+02
 11
2.99499991E+02
 21
-1.47999983E+02
  0
LINE
  8
0
 62
7
 10
-2.46500001E+02
 20
-1.34000000E+02
 11
-4.05000093E+01
 21
-1.34000000E+02
  0
LINE
  8
0
 62
7
 10
-2.86500004E+02
 20
-1.59499996E+02
 11
2.99499991E+02
 21
-1.59499996E+02
  0
LINE
  8
0
 62
7
 10
-2.86500004E+02
 20
-1.55699982E+02
 11
2.99499991E+02
 21
-1.55699982E+02
  0
LINE
  8
0
 62
7
 10
2.06499998E+02
 20
-1.36499996E+02
 11
2.06499998E+02
 21
-1.37499984E+02
  0
LINE
  8
0
 62
7
 10
-4.67000177E+01
 20
-1.34000000E+02
 11
-4.67000177E+01
 21
-1.37499984E+02
  0
LINE
  8
0
 62
7
 10
-1.00299986E+02
 20
-1.34000000E+02
 11
-1.00299986E+02
 21
-1.37499984E+02
  0
LINE
  8
0
 62
7
 10
-1.86700013E+02
 20
-1.34000000E+02
 11
-1.86700013E+02
 21
-1.37499984E+02
  0
LINE
  8
0
 62
7
 10
-2.40300005E+02
 20
-1.34000000E+02
 11
-2.40300005E+02
 21
-1.37499984E+02
  0
CIRCLE
  8
0
 62
7
 10
-2.69000004E+02
 20
-1.21000000E+02
 40
6.49999976E+00
  0
CIRCLE
  8
0
 62
7
 10
2.81999991E+02
 20
-1.21000000E+02
 40
6.49999976E+00
  0
TEXT
  8
0
 62
1
 10
-4.65156305E+01
 20
2.65551194E+02
 40
9.00000000E+00
  1
STRETCH LINE
 41
1.05263158E+00
  7
MONOTXT
  0
TEXT
  8
0
 62
7
 10
-1.86714687E+02
 20
-3.40000000E+02
 40
9.00000000E+00
  1
(mm)
 41
1.00000000E+00
  7
MONOTXT
  0
TEXT
  8
0
 62
7
 10
-1.82515625E+02
 20
-3.67500000E+02
 40
9.00000000E+00
  1
700
 41
1.00000000E+00
  7
MONOTXT
  0
TEXT
  8
0
 62
7
 10
-1.87015625E+02
 20
-3.52500000E+02
 40
9.00000000E+00
  1
1000
 41
1.00000000E+00
  7
MONOTXT
  0
TEXT
  8
0
 62
7
 10
-2.27515625E+02
 20
-3.67500000E+02
 40
9.00000000E+00
  1
500
 41
1.00000000E+00
  7
MONOTXT
  0
TEXT
  8
0
 62
7
 10
-2.27515625E+02
 20
-3.52500000E+02
 40
9.00000000E+00
  1
800
 41
1.00000000E+00
  7
MONOTXT
  0
TEXT
  8
0
 62
7
 10
-2.72515625E+02
 20
-3.67500000E+02
 40
9.00000000E+00
  1
400
 41
1.00000000E+00
  7
MONOTXT
  0
TEXT
  8
0
 62
7
 10
-2.72515625E+02
 20
-3.52500000E+02
 40
9.00000000E+00
  1
700
 41
1.00000000E+00
  7
MONOTXT
  0
TEXT
  8
0
 62
7
 10
-3.17515625E+02
 20
-3.67500000E+02
 40
9.00000000E+00
  1
300
 41
1.00000000E+00
  7
MONOTXT
  0
TEXT
  8
0
 62
7
 10
-3.17515625E+02
 20
-3.52500000E+02
 40
9.00000000E+00
  1
600
 41
1.00000000E+00
  7
MONOTXT
  0
TEXT
  8
0
 62
7
 10
-3.62515625E+02
 20
-3.67500000E+02
 40
9.00000000E+00
  1
200
 41
1.00000000E+00
  7
MONOTXT
  0
TEXT
  8
0
 62
7
 10
-3.62515625E+02
 20
-3.52500000E+02
 40
9.00000000E+00
  1
500
 41
1.00000000E+00
  7
MONOTXT
  0
TEXT
  8
0
 62
7
 10
-4.07515625E+02
 20
-3.67500000E+02
 40
9.00000000E+00
  1
100
 41
1.00000000E+00
  7
MONOTXT
  0
TEXT
  8
0
 62
7
 10
-4.07515625E+02
 20
-3.52500000E+02
 40
9.00000000E+00
  1
400
 41
1.00000000E+00
  7
MONOTXT
  0
TEXT
  8
0
 62
7
 10
-4.43515625E+02
 20
-3.67500000E+02
 40
9.00000000E+00
  1
0
 41
1.00000000E+00
  7
MONOTXT
  0
TEXT
  8
0
 62
7
 10
-4.52515625E+02
 20
-3.52500000E+02
 40
9.00000000E+00
  1
300
 41
1.00000000E+00
  7
MONOTXT
  0
LINE
  8
0
 62
7
 10
-1.47500000E+02
 20
-3.40500000E+02
 11
-1.47500000E+02
 21
-3.70500000E+02
  0
LINE
  8
0
 62
7
 10
-1.92500000E+02
 20
-3.40500000E+02
 11
-1.92500000E+02
 21
-3.70500000E+02
  0
LINE
  8
0
 62
7
 10
-2.37500000E+02
 20
-3.40500000E+02
 11
-2.37500000E+02
 21
-3.70500000E+02
  0
LINE
  8
0
 62
7
 10
-2.82500000E+02
 20
-3.40500000E+02
 11
-2.82500000E+02
 21
-3.70500000E+02
  0
LINE
  8
0
 62
7
 10
-3.27500000E+02
 20
-3.40500000E+02
 11
-3.27500000E+02
 21
-3.70500000E+02
  0
LINE
  8
0
 62
7
 10
-3.72500000E+02
 20
-3.40500000E+02
 11
-3.72500000E+02
 21
-3.70500000E+02
  0
LINE
  8
0
 62
7
 10
-4.17500000E+02
 20
-3.40500000E+02
 11
-4.17500000E+02
 21
-3.70500000E+02
  0
LINE
  8
0
 62
7
 10
-5.34500000E+02
 20
-3.55500000E+02
 11
-1.47500000E+02
 21
-3.55500000E+02
  0
TEXT
  8
0
 62
7
 10
-4.62179676E+02
 20
3.14250000E+02
 40
1.25000000E+01
  1
(WITH SENSOR SWITCH)
 41
1.06382995E+00
  7
MONOTXT
  0
LINE
  8
0
 62
7
 10
-5.34500000E+02
 20
-3.40500000E+02
 11
-1.47500000E+02
 21
-3.40500000E+02
  0
LINE
  8
0
 62
7
 10
-4.62500000E+02
 20
-3.40500000E+02
 11
-4.62500000E+02
 21
-3.70500000E+02
  0
LINE
  8
0
 62
7
 10
-5.34500000E+02
 20
-3.40500000E+02
 11
-5.34500000E+02
 21
-3.70500000E+02
  0
LINE
  8
0
 62
7
 10
-5.34500000E+02
 20
-3.70500000E+02
 11
-1.47500000E+02
 21
-3.70500000E+02
  0
TEXT
  8
0
 62
7
 10
-3.93714687E+02
 20
-3.38000000E+02
 40
9.00000000E+00
  1
STRETCH LIST
 41
1.05263158E+00
  7
MONOTXT
  0
TEXT
  8
0
 62
7
 10
-5.24515625E+02
 20
-3.52500000E+02
 40
9.00000000E+00
  1
STROKE
 41
1.00000000E+00
  7
MONOTXT
  0
TEXT
  8
0
 62
7
 10
-5.29015625E+02
 20
-3.67500000E+02
 40
9.00000000E+00
  1
STRETCH
 41
1.00000000E+00
  7
MONOTXT
  0
LINE
  8
0
 62
7
 10
5.74500000E+02
 20
4.00500000E+02
 11
5.74500000E+02
 21
-4.00500000E+02
  0
LINE
  8
0
 62
7
 10
-5.64500000E+02
 20
4.00500000E+02
 11
5.74500000E+02
 21
4.00500000E+02
  0
LINE
  8
0
 62
7
 10
-5.64500000E+02
 20
-4.00500000E+02
 11
5.74500000E+02
 21
-4.00500000E+02
  0
LINE
  8
0
 62
7
 10
-5.64500000E+02
 20
4.00500000E+02
 11
-5.64500000E+02
 21
-4.00500000E+02
  0
LINE
  8
0
 62
7
 10
-5.64500000E+02
 20
3.70500000E+02
 11
-3.34500000E+02
 21
3.70500000E+02
  0
LINE
  8
0
 62
7
 10
3.44500000E+02
 20
3.70500000E+02
 11
5.74500000E+02
 21
3.70500000E+02
  0
LINE
  8
0
 62
7
 10
3.44500000E+02
 20
-3.70500000E+02
 11
5.74500000E+02
 21
-3.70500000E+02
  0
LINE
  8
0
 62
7
 10
3.44500000E+02
 20
-3.70500000E+02
 11
3.44500000E+02
 21
-4.00500000E+02
  0
LINE
  8
0
 62
7
 10
3.44500000E+02
 20
4.00500000E+02
 11
3.44500000E+02
 21
3.70500000E+02
  0
LINE
  8
0
 62
7
 10
-3.34500000E+02
 20
4.00500000E+02
 11
-3.34500000E+02
 21
3.70500000E+02
  0
TEXT
  8
0
 62
7
 10
-5.37179687E+02
 20
3.34250000E+02
 40
1.25000000E+01
  1
MODEL:ORW40*ST(300)
 41
1.00000015E+00
  7
MONOTXT
  0
TEXT
  8
0
 62
7
 10
4.11285149E+02
 20
3.79250000E+02
 40
1.25000000E+01
  1
Ver. 1.0
 41
1.08108125E+00
  7
MONOTXT
  0
TEXT
  8
0
 62
7
 10
3.50070624E+02
 20
-3.94500000E+02
 40
1.80000000E+01
  1
KOGANEI CORP.
 41
1.04838710E+00
  7
MONOTXT
  0
TEXT
  8
0
 62
7
 10
-5.47714858E+02
 20
3.79250000E+02
 40
1.25000000E+01
  1
RODLESS CYLINDER
 41
1.03896120E+00
  7
MONOTXT
  0
ENDSEC
  0
EOF
