  0
SECTION
  2
HEADER
  9
$ACADVER
  1
AC1012
  9
$DWGCODEPAGE
  3
dos932
  9
$INSBASE
 10
0.0
 20
0.0
 30
0.0
  9
$EXTMIN
 10
-281.25
 20
-195.0
 30
0.0
  9
$EXTMAX
 10
285.6319057062413
 20
195.5
 30
0.0
  9
$LIMMIN
 10
-281.25
 20
-195.0
  9
$LIMMAX
 10
285.6319057062413
 20
195.5
  9
$ORTHOMODE
 70
               0
  9
$REGENMODE
 70
               1
  9
$FILLMODE
 70
               1
  9
$QTEXTMODE
 70
               0
  9
$MIRRTEXT
 70
               1
  9
$DRAGMODE
 70
               2
  9
$LTSCALE
 40
1.0
  9
$OSMODE
 70
               0
  9
$ATTMODE
 70
               1
  9
$TEXTSIZE
 40
3.2000000476837158
  9
$TRACEWID
 40
0.05
  9
$TEXTSTYLE
  7
MX_NOTE_STANDARD
  9
$CLAYER
  8
0
  9
$CELTYPE
  6
CONTINUOUS
  9
$CECOLOR
 62
             256
  9
$CELTSCALE
 40
1.0
  9
$DELOBJ
 70
               1
  9
$DISPSILH
 70
               0
  9
$DIMSCALE
 40
1.0
  9
$DIMASZ
 40
2.5
  9
$DIMEXO
 40
1.5
  9
$DIMDLI
 40
3.75
  9
$DIMRND
 40
0.0
  9
$DIMDLE
 40
0.0
  9
$DIMEXE
 40
1.5
  9
$DIMTP
 40
0.0
  9
$DIMTM
 40
0.0
  9
$DIMTXT
 40
3.2000000476837158
  9
$DIMCEN
 40
2.5
  9
$DIMTSZ
 40
0.0
  9
$DIMTOL
 70
               0
  9
$DIMLIM
 70
               0
  9
$DIMTIH
 70
               0
  9
$DIMTOH
 70
               0
  9
$DIMSE1
 70
               0
  9
$DIMSE2
 70
               0
  9
$DIMTAD
 70
               1
  9
$DIMZIN
 70
               8
  9
$DIMBLK
  1

  9
$DIMASO
 70
               1
  9
$DIMSHO
 70
               1
  9
$DIMPOST
  1

  9
$DIMAPOST
  1

  9
$DIMALT
 70
               0
  9
$DIMALTD
 70
               4
  9
$DIMALTF
 40
0.03937007874016
  9
$DIMLFAC
 40
1.0
  9
$DIMTOFL
 70
               1
  9
$DIMTVP
 40
0.0
  9
$DIMTIX
 70
               0
  9
$DIMSOXD
 70
               0
  9
$DIMSAH
 70
               0
  9
$DIMBLK1
  1

  9
$DIMBLK2
  1

  9
$DIMSTYLE
  2
MXDIMSTYLE
  9
$DIMCLRD
 70
               0
  9
$DIMCLRE
 70
               0
  9
$DIMCLRT
 70
               0
  9
$DIMTFAC
 40
1.0
  9
$DIMGAP
 40
1.0
  9
$DIMJUST
 70
               0
  9
$DIMSD1
 70
               0
  9
$DIMSD2
 70
               0
  9
$DIMTOLJ
 70
               1
  9
$DIMTZIN
 70
               0
  9
$DIMALTZ
 70
               0
  9
$DIMALTTZ
 70
               0
  9
$DIMFIT
 70
               3
  9
$DIMUPT
 70
               1
  9
$DIMUNIT
 70
               2
  9
$DIMDEC
 70
               4
  9
$DIMTDEC
 70
               4
  9
$DIMALTU
 70
               2
  9
$DIMALTTD
 70
               4
  9
$DIMTXSTY
  7
MX_NOTE_STANDARD
  9
$DIMAUNIT
 70
               0
  9
$LUNITS
 70
               2
  9
$LUPREC
 70
               4
  9
$SKETCHINC
 40
0.1
  9
$FILLETRAD
 40
0.0
  9
$AUNITS
 70
               0
  9
$AUPREC
 70
               0
  9
$MENU
  1
acad
  9
$ELEVATION
 40
0.0
  9
$PELEVATION
 40
0.0
  9
$THICKNESS
 40
0.0
  9
$LIMCHECK
 70
               0
  9
$BLIPMODE
 70
               1
  9
$CHAMFERA
 40
0.0
  9
$CHAMFERB
 40
0.0
  9
$CHAMFERC
 40
0.0
  9
$CHAMFERD
 40
0.0
  9
$SKPOLY
 70
               0
  9
$TDCREATE
 40
2453378.356782408
  9
$TDUPDATE
 40
2453378.356782408
  9
$TDINDWG
 40
0.0000000000
  9
$TDUSRTIMER
 40
0.0000000000
  9
$USRTIMER
 70
               1
  9
$ANGBASE
 50
0.0
  9
$ANGDIR
 70
               0
  9
$PDMODE
 70
               0
  9
$PDSIZE
 40
0.0
  9
$PLINEWID
 40
0.0
  9
$COORDS
 70
               1
  9
$SPLFRAME
 70
               0
  9
$SPLINETYPE
 70
               6
  9
$SPLINESEGS
 70
               8
  9
$ATTDIA
 70
               0
  9
$ATTREQ
 70
               1
  9
$HANDLING
 70
               1
  9
$HANDSEED
  5
533
  9
$SURFTAB1
 70
               6
  9
$SURFTAB2
 70
               6
  9
$SURFTYPE
 70
               6
  9
$SURFU
 70
               6
  9
$SURFV
 70
               6
  9
$UCSNAME
  2

  9
$UCSORG
 10
0.0
 20
0.0
 30
0.0
  9
$UCSXDIR
 10
1.0
 20
0.0
 30
0.0
  9
$UCSYDIR
 10
0.0
 20
1.0
 30
0.0
  9
$PUCSNAME
  2

  9
$PUCSORG
 10
0.0
 20
0.0
 30
0.0
  9
$PUCSXDIR
 10
1.0
 20
0.0
 30
0.0
  9
$PUCSYDIR
 10
0.0
 20
1.0
 30
0.0
  9
$USERI1
 70
               0
  9
$USERI2
 70
               0
  9
$USERI3
 70
               0
  9
$USERI4
 70
               0
  9
$USERI5
 70
               0
  9
$USERR1
 40
0.0
  9
$USERR2
 40
0.0
  9
$USERR3
 40
0.0
  9
$USERR4
 40
0.0
  9
$USERR5
 40
0.0
  9
$WORLDVIEW
 70
               1
  9
$SHADEDGE
 70
               3
  9
$SHADEDIF
 70
              70
  9
$TILEMODE
 70
               1
  9
$MAXACTVP
 70
              16
  9
$PINSBASE
 10
0.0
 20
0.0
 30
0.0
  9
$PLIMCHECK
 70
               0
  9
$PEXTMIN
 10
1.0000000000000000E+20
 20
1.0000000000000000E+20
 30
1.0000000000000000E+20
  9
$PEXTMAX
 10
-1.0000000000000000E+20
 20
-1.0000000000000000E+20
 30
-1.0000000000000000E+20
  9
$PLIMMIN
 10
0.0
 20
0.0
  9
$PLIMMAX
 10
12.0
 20
9.0
  9
$UNITMODE
 70
               0
  9
$VISRETAIN
 70
               0
  9
$PLINEGEN
 70
               1
  9
$PSLTSCALE
 70
               0
  9
$TREEDEPTH
 70
            3020
  9
$PICKSTYLE
 70
               1
  9
$CMLSTYLE
  2
Standard
  9
$CMLJUST
 70
               0
  9
$CMLSCALE
 40
1.0
  9
$SAVEIMAGES
 70
               0
  0
ENDSEC
  0
SECTION
  2
CLASSES
  0
CLASS
  1
LWPOLYLINE
  2
AcDbPolyline
  3
"AutoCAD"
 90
        0
280
               0
281
               1
  0
CLASS
  1
IMAGE
  2
AcDbRasterImage
  3
ISM
 90
      127
280
               0
281
               1
  0
CLASS
  1
OLE2FRAME
  2
AcDbOle2Frame
  3
""
 90
        0
280
               0
281
               1
  0
CLASS
  1
HATCH
  2
AcDbHatch
  3
"ACAD_SEDONA"
 90
        0
280
               0
281
               1
  0
CLASS
  1
DICTIONARYVAR
  2
AcDbDictionaryVar
  3
"AutoCAD"
 90
        0
280
               0
281
               0
  0
CLASS
  1
RASTERVARIABLES
  2
AcDbRasterVariables
  3
ISM
 90
        0
280
               0
281
               0
  0
CLASS
  1
IMAGEDEF
  2
AcDbRasterImageDef
  3
ISM
 90
        0
280
               0
281
               0
  0
CLASS
  1
IMAGEDEF_REACTOR
  2
AcDbRasterImageDefReactor
  3
ISM
 90
        1
280
               0
281
               0
  0
CLASS
  1
IDBUFFER
  2
AcDbIdBuffer
  3
"Acad"
 90
        0
280
               0
281
               0
  0
CLASS
  1
SPATIAL_FILTER
  2
AcDbSpatialFilter
  3
"Acad"
 90
        0
280
               0
281
               0
  0
CLASS
  1
XRECORD
  2
AcDbXrecord
  3
"<Built In>"
 90
        0
280
               0
281
               0
  0
CLASS
  1
SORTENTSTABLE
  2
AcDbSortentsTable
  3
"AutoCAD"
 90
        0
280
               0
281
               0
  0
CLASS
  1
LAYER_INDEX
  2
AcDbLayerIndex
  3
"Acad"
 90
        0
280
               0
281
               0
  0
CLASS
  1
SPATIAL_INDEX
  2
AcDbSpatialIndex
  3
"Acad"
 90
        0
280
               0
281
               0
  0
CLASS
  1
OBJECT_PTR
  2
CAseDLPNTableRecord
  3
"ASE-LPNTableRecord"
 90
        1
280
               0
281
               0
  0
CLASS
  1
LAYOUT
  2
AcDbLayout
  3
"AutoCAD 2000"
 90
        1
280
               0
281
               0
  0
CLASS
  1
PLOTSETTINGS
  2
AcDbPlotSettings
  3
"AutoCAD 2000"
 90
        1
280
               0
281
               0
  0
CLASS
  1
ACDBDICTIONARYWDFLT
  2
AcDbDictionaryWithDefault
  3
"AutoCAD 2000"
 90
        1
280
               0
281
               0
  0
CLASS
  1
ACDBPLACEHOLDER
  2
AcDbPlaceHolder
  3
"AutoCAD 2000"
 90
        1
280
               0
281
               0
  0
ENDSEC
  0
SECTION
  2
TABLES
  0
TABLE
  2
VPORT
  5
7
100
AcDbSymbolTable
 70
               1
  0
VPORT
  5
15
100
AcDbSymbolTableRecord
100
AcDbViewportTableRecord
  2
*ACTIVE
 70
               0
 10
0.0
 20
0.0
 11
1.0
 21
1.0
 12
2.1909528531206206
 22
0.25
 13
0.0
 23
0.0
 14
1.0
 24
1.0
 15
0.0
 25
0.0
 16
0.0
 26
0.0
 36
1.0
 17
0.0
 27
0.0
 37
0.0
 40
394.40500000000003
 41
1.7320508075688772
 42
50.0
 43
0.0
 44
0.0
 50
0.0
 51
0.0
 71
               0
 72
             100
 73
               1
 74
               1
 75
               0
 76
               0
 77
               0
 78
               0
  0
ENDTAB
  0
TABLE
  2
LTYPE
  5
4
100
AcDbSymbolTable
 70
               6
  0
LTYPE
  5
11
100
AcDbSymbolTableRecord
100
AcDbLinetypeTableRecord
  2
BYBLOCK
 70
              64
  3

 72
              65
 73
               0
 40
0.0
  0
LTYPE
  5
12
100
AcDbSymbolTableRecord
100
AcDbLinetypeTableRecord
  2
BYLAYER
 70
              64
  3

 72
              65
 73
               0
 40
0.0
  0
LTYPE
  5
13
100
AcDbSymbolTableRecord
100
AcDbLinetypeTableRecord
  2
CONTINUOUS
 70
              64
  3
Solid line
 72
              65
 73
               0
 40
0.0
  0
LTYPE
  5
24
100
AcDbSymbolTableRecord
100
AcDbLinetypeTableRecord
  2
CENTER
 70
              64
  3
Center ____ _ ____ _ ____ _ ____ _ ____ _ ____
 72
              65
 73
               4
 40
26.0
 49
20.0
 74
               0
 49
-2.0
 74
               0
 49
2.0
 74
               0
 49
-2.0
 74
               0
  0
LTYPE
  5
2B
100
AcDbSymbolTableRecord
100
AcDbLinetypeTableRecord
  2
DASHED
 70
              64
  3
Dashed __ __ __ __ __ __ __ __ __ __ __ __ __ _
 72
              65
 73
               2
 40
4.0
 49
2.0
 74
               0
 49
-2.0
 74
               0
  0
LTYPE
  5
2A7
100
AcDbSymbolTableRecord
100
AcDbLinetypeTableRecord
  2
PHANTOM
 70
              64
  3
Phantom ______  __  __  ______  __  __  ______
 72
              65
 73
               6
 40
30.0
 49
20.0
 74
               0
 49
-2.0
 74
               0
 49
2.0
 74
               0
 49
-2.0
 74
               0
 49
2.0
 74
               0
 49
-2.0
 74
               0
  0
ENDTAB
  0
TABLE
  2
LAYER
  5
2
100
AcDbSymbolTable
 70
               2
  0
LAYER
  5
14
100
AcDbSymbolTableRecord
100
AcDbLayerTableRecord
  2
0
 70
               0
 62
               7
  6
CONTINUOUS
  0
LAYER
  5
1D
100
AcDbSymbolTableRecord
100
AcDbLayerTableRecord
  2
DEFPOINTS
 70
               0
 62
               7
  6
CONTINUOUS
  0
ENDTAB
  0
TABLE
  2
STYLE
  5
3
100
AcDbSymbolTable
 70
               1
  0
STYLE
  5
17
100
AcDbSymbolTableRecord
100
AcDbTextStyleTableRecord
  2
MX_NOTE_STANDARD
 70
               0
 40
0.0
 41
1.0
 50
0.0
 71
               0
 42
3.2000000476837158
  3
txt.shx
  4
extfont.shx
  0
ENDTAB
  0
TABLE
  2
VIEW
  5
5
100
AcDbSymbolTable
 70
               0
  0
ENDTAB
  0
TABLE
  2
UCS
  5
6
100
AcDbSymbolTable
 70
               0
  0
ENDTAB
  0
TABLE
  2
APPID
  5
8
100
AcDbSymbolTable
 70
               1
  0
APPID
  5
16
100
AcDbSymbolTableRecord
100
AcDbRegAppTableRecord
  2
ACAD
 70
               0
  0
ENDTAB
  0
TABLE
  2
DIMSTYLE
  5
9
100
AcDbSymbolTable
 70
               1
  0
DIMSTYLE
105
18
100
AcDbSymbolTableRecord
100
AcDbDimStyleTableRecord
  2
MXDIMSTYLE
 70
               0
  3

  4

  5

  6

  7

 40
1.0
 41
2.5
 42
1.5
 43
3.75
 44
1.5
 45
0.0
 46
0.0
 47
0.0
 48
0.0
 71
               0
 72
               0
 73
               0
 74
               0
 75
               0
 76
               0
 77
               1
 78
               8
140
3.2000000476837158
141
2.5
142
0.0
143
0.03937007874016
144
1.0
145
0.0
146
1.0
147
1.0
170
               0
171
               4
172
               1
173
               0
174
               0
175
               0
176
               0
177
               0
178
               0
270
               2
271
               4
272
               4
273
               2
274
               4
275
               0
280
               0
281
               0
282
               0
283
               1
284
               0
285
               0
286
               0
287
               3
288
               1
340
17
  0
ENDTAB
  0
TABLE
  2
BLOCK_RECORD
  5
1
100
AcDbSymbolTable
 70
               5
  0
BLOCK_RECORD
  5
A
100
AcDbSymbolTableRecord
100
AcDbBlockTableRecord
  2
*MODEL_SPACE
  0
BLOCK_RECORD
  5
B
100
AcDbSymbolTableRecord
100
AcDbBlockTableRecord
  2
*PAPER_SPACE
  0
BLOCK_RECORD
  5
1E
100
AcDbSymbolTableRecord
100
AcDbBlockTableRecord
  2
PA-H-1
  0
BLOCK_RECORD
  5
1F
100
AcDbSymbolTableRecord
100
AcDbBlockTableRecord
  2
PA-H-2
  0
BLOCK_RECORD
  5
20
100
AcDbSymbolTableRecord
100
AcDbBlockTableRecord
  2
PA-H-3
  0
BLOCK_RECORD
  5
21
100
AcDbSymbolTableRecord
100
AcDbBlockTableRecord
  2
PA-H-4
  0
BLOCK_RECORD
  5
510
100
AcDbSymbolTableRecord
100
AcDbBlockTableRecord
  2
_OPEN30
  0
ENDTAB
  0
ENDSEC
  0
SECTION
  2
BLOCKS
  0
BLOCK
  5
D
100
AcDbEntity
  8
0
100
AcDbBlockBegin
  2
*MODEL_SPACE
 70
               0
 10
0.0
 20
0.0
 30
0.0
  3
*MODEL_SPACE
  1

  0
ENDBLK
  5
E
100
AcDbEntity
  8
0
100
AcDbBlockEnd
  0
BLOCK
  5
F
100
AcDbEntity
 67
               1
  8
0
100
AcDbBlockBegin
  2
*PAPER_SPACE
 70
               0
 10
0.0
 20
0.0
 30
0.0
  3
*PAPER_SPACE
  1

  0
ENDBLK
  5
10
100
AcDbEntity
 67
               1
  8
0
100
AcDbBlockEnd
  0
BLOCK
  5
22
100
AcDbEntity
  8
0
100
AcDbBlockBegin
  2
PA-H-1
 70
               0
 10
0.0
 20
0.0
 30
0.0
  3
PA-H-1
  1

  0
LINE
  5
23
100
AcDbEntity
  8
0
  6
CONTINUOUS
 62
               7
100
AcDbLine
 10
54.000000030429305
 20
-57.999999982866086
 30
0.0
 11
73.500000030429248
 21
-57.999999982866086
 31
0.0
  0
LINE
  5
25
100
AcDbEntity
  8
0
  6
CENTER
 62
             200
100
AcDbLine
 10
18.000000023841835
 20
38.000000000002615
 30
0.0
 11
18.000000023842233
 21
79.999318110282559
 31
0.0
  0
LINE
  5
26
100
AcDbEntity
  8
0
  6
CENTER
 62
             200
100
AcDbLine
 10
42.000000030430641
 20
38.000000000002615
 30
0.0
 11
42.000000030431011
 21
79.999318110282672
 31
0.0
  0
LINE
  5
27
100
AcDbEntity
  8
0
  6
CONTINUOUS
 62
               7
100
AcDbLine
 10
6.1000000238405505
 20
38.000000000002615
 30
0.0
 11
6.1000000238405505
 21
17.732050781998055
 31
0.0
  0
LINE
  5
28
100
AcDbEntity
  8
0
  6
CONTINUOUS
 62
               7
100
AcDbLine
 10
29.900000023841812
 20
38.000000000002615
 30
0.0
 11
29.900000023841415
 21
16.343074902771093
 31
0.0
  0
LINE
  5
29
100
AcDbEntity
  8
0
  6
CONTINUOUS
 62
               7
100
AcDbLine
 10
53.900000030430903
 20
38.000000000002615
 30
0.0
 11
53.900000030430533
 21
16.34307490277115
 31
0.0
  0
LINE
  5
2A
100
AcDbEntity
  8
0
  6
CONTINUOUS
 62
               7
100
AcDbLine
 10
30.100000030429555
 20
38.000000000002615
 30
0.0
 11
30.100000030429555
 21
17.73205075720773
 31
0.0
  0
LINE
  5
2C
100
AcDbEntity
  8
0
  6
DASHED
 62
               2
100
AcDbLine
 10
30.100000030429555
 20
38.000000000002615
 30
0.0
 11
53.900000030430903
 21
38.000000000002615
 31
0.0
  0
LINE
  5
2D
100
AcDbEntity
  8
0
  6
DASHED
 62
               2
100
AcDbLine
 10
6.1000000238405505
 20
38.000000000002615
 30
0.0
 11
29.900000023841812
 21
38.000000000002615
 31
0.0
  0
LINE
  5
2E
100
AcDbEntity
  8
0
  6
CENTER
 62
               2
100
AcDbLine
 10
18.000000023840926
 20
-57.999999982866086
 30
0.0
 11
18.000000023841835
 21
38.000000000002615
 31
0.0
  0
LINE
  5
2F
100
AcDbEntity
  8
0
  6
CONTINUOUS
 62
               7
100
AcDbLine
 10
30.100000030429328
 20
-57.999999982866086
 30
0.0
 11
30.100000030429328
 21
-81.499999999999773
 31
0.0
  0
LINE
  5
30
100
AcDbEntity
  8
0
  6
CENTER
 62
             200
100
AcDbLine
 10
18.00000002384067
 20
-82.99999998286512
 30
0.0
 11
18.000000023840926
 21
-57.999999982866086
 31
0.0
  0
LINE
  5
31
100
AcDbEntity
  8
0
  6
CONTINUOUS
 62
               7
100
AcDbLine
 10
54.000000030429305
 20
-82.99999998286512
 30
0.0
 11
54.000000030429305
 21
-57.999999982866086
 31
0.0
  0
LINE
  5
32
100
AcDbEntity
  8
0
  6
CONTINUOUS
 62
               4
100
AcDbLine
 10
6.0000000238403857
 20
-82.99999998286512
 30
0.0
 11
6.0000000238403857
 21
-57.999999982866086
 31
0.0
  0
LINE
  5
33
100
AcDbEntity
  8
0
  6
CONTINUOUS
 62
               7
100
AcDbLine
 10
30.000000023840386
 20
-82.99999998286512
 30
0.0
 11
30.000000023840386
 21
-57.999999982866086
 31
0.0
  0
LINE
  5
34
100
AcDbEntity
  8
0
  6
CENTER
 62
               2
100
AcDbLine
 10
42.000000030429561
 20
-82.99999998286512
 30
0.0
 11
42.000000030430641
 21
38.000000000002615
 31
0.0
  0
LINE
  5
35
100
AcDbEntity
  8
0
  6
CENTER
 62
               2
100
AcDbLine
 10
8.700000023840289
 20
-37.019615054130298
 30
0.0
 11
8.700000023840289
 21
-48.980384707450611
 31
0.0
  0
LINE
  5
36
100
AcDbEntity
  8
0
  6
CENTER
 62
               2
100
AcDbLine
 10
14.680384850500445
 20
-42.999999880790455
 30
0.0
 11
2.7196151971801328
 21
-42.999999880790455
 31
0.0
  0
LINE
  5
37
100
AcDbEntity
  8
0
  6
CENTER
 62
               2
100
AcDbLine
 10
32.700000030429578
 20
-37.01961505413027
 30
0.0
 11
32.700000030429578
 21
-48.980384707450582
 31
0.0
  0
LINE
  5
38
100
AcDbEntity
  8
0
  6
CENTER
 62
               2
100
AcDbLine
 10
38.680384857089734
 20
-42.999999880790426
 30
0.0
 11
26.719615203769422
 21
-42.999999880790426
 31
0.0
  0
LINE
  5
39
100
AcDbEntity
  8
0
  6
CENTER
 62
               2
100
AcDbLine
 10
51.300000030430056
 20
19.980384945869218
 30
0.0
 11
51.300000030430056
 21
8.0196152925489059
 31
0.0
  0
LINE
  5
3A
100
AcDbEntity
  8
0
  6
CENTER
 62
               2
100
AcDbLine
 10
57.280384857090212
 20
14.000000119209062
 30
0.0
 11
45.319615203769899
 21
14.000000119209062
 31
0.0
  0
LINE
  5
3B
100
AcDbEntity
  8
0
  6
CENTER
 62
               2
100
AcDbLine
 10
27.300000023840852
 20
19.980384945869133
 30
0.0
 11
27.300000023840852
 21
8.0196152925488207
 31
0.0
  0
LINE
  5
3C
100
AcDbEntity
  8
0
  6
CENTER
 62
               2
100
AcDbLine
 10
33.280384850501008
 20
14.000000119208977
 30
0.0
 11
21.319615197180696
 21
14.000000119208977
 31
0.0
  0
LINE
  5
3D
100
AcDbEntity
  8
0
  6
CENTER
 62
               2
100
AcDbLine
 10
-0.0000000000002274
 20
-45.799999999999997
 30
0.0
 11
-0.0000000000002274
 21
-58.200000000000003
 31
0.0
  0
LINE
  5
3E
100
AcDbEntity
  8
0
  6
CENTER
 62
               2
100
AcDbLine
 10
6.1999999999997613
 20
-52.0
 30
0.0
 11
-6.200000000000216
 21
-52.0
 31
0.0
  0
LINE
  5
3F
100
AcDbEntity
  8
0
  6
CENTER
 62
               2
100
AcDbLine
 10
60.000000030429248
 20
-45.800000000000281
 30
0.0
 11
60.000000030429248
 21
-58.200000000000287
 31
0.0
  0
LINE
  5
40
100
AcDbEntity
  8
0
  6
CENTER
 62
               2
100
AcDbLine
 10
66.200000030429237
 20
-52.000000000000284
 30
0.0
 11
53.80000003042926
 21
-52.000000000000284
 31
0.0
  0
LINE
  5
41
100
AcDbEntity
  8
0
  6
CENTER
 62
               2
100
AcDbLine
 10
60.000000030429248
 20
6.1999999999997186
 30
0.0
 11
60.000000030429248
 21
-6.2000000000002871
 31
0.0
  0
LINE
  5
42
100
AcDbEntity
  8
0
  6
CENTER
 62
               2
100
AcDbLine
 10
66.200000030429237
 20
-0.0000000000002842
 30
0.0
 11
53.80000003042926
 21
-0.0000000000002842
 31
0.0
  0
LINE
  5
43
100
AcDbEntity
  8
0
  6
CENTER
 62
               2
100
AcDbLine
 10
0.0
 20
6.2000000000000028
 30
0.0
 11
0.0
 21
-6.2000000000000028
 31
0.0
  0
LINE
  5
44
100
AcDbEntity
  8
0
  6
CENTER
 62
               2
100
AcDbLine
 10
6.1999999999999886
 20
0.0
 30
0.0
 11
-6.1999999999999886
 21
0.0
 31
0.0
  0
LINE
  5
45
100
AcDbEntity
  8
0
  6
CENTER
 62
             200
100
AcDbLine
 10
18.000000023840329
 20
-119.3739228749254
 30
0.0
 11
18.00000002384067
 21
-82.99999998286512
 31
0.0
  0
LINE
  5
46
100
AcDbEntity
  8
0
  6
CONTINUOUS
 62
               7
100
AcDbLine
 10
53.900000030430817
 20
36.999999982865461
 30
0.0
 11
73.500000030429248
 21
36.999999982865461
 31
0.0
  0
LINE
  5
47
100
AcDbEntity
  8
0
  6
CONTINUOUS
 62
               7
100
AcDbLine
 10
-13.500000000000142
 20
36.999999982865461
 30
0.0
 11
6.10000002384146
 21
36.999999982865461
 31
0.0
  0
CIRCLE
  5
48
100
AcDbEntity
  8
0
  6
CONTINUOUS
 62
               7
100
AcDbCircle
 10
60.000000030429248
 20
-0.0000000000002842
 30
0.0
 40
3.2000000000000002
  0
CIRCLE
  5
49
100
AcDbEntity
  8
0
  6
CONTINUOUS
 62
               7
100
AcDbCircle
 10
60.000000030429248
 20
-52.000000000000284
 30
0.0
 40
3.2000000000000002
  0
CIRCLE
  5
4A
100
AcDbEntity
  8
0
  6
CONTINUOUS
 62
               7
100
AcDbCircle
 10
0.0
 20
0.0
 30
0.0
 40
3.2000000000000002
  0
CIRCLE
  5
4B
100
AcDbEntity
  8
0
  6
CONTINUOUS
 62
               7
100
AcDbCircle
 10
-0.0000000000002274
 20
-52.0
 30
0.0
 40
3.2000000000000002
  0
LINE
  5
4C
100
AcDbEntity
  8
0
  6
CONTINUOUS
 62
               7
100
AcDbLine
 10
6.1000000013845579
 20
-49.000000000000171
 30
0.0
 11
29.900000013305601
 21
-49.000000000000171
 31
0.0
  0
LINE
  5
4D
100
AcDbEntity
  8
0
  6
CONTINUOUS
 62
               4
100
AcDbLine
 10
49.298657989413584
 20
-99.299999982865074
 30
0.0
 11
48.698657989413618
 21
-99.299999982865074
 31
0.0
  0
LINE
  5
4E
100
AcDbEntity
  8
0
  6
CONTINUOUS
 62
               4
100
AcDbLine
 10
49.298657989413584
 20
-99.299999982865074
 30
0.0
 11
49.298657989413584
 21
-98.323999982865075
 31
0.0
  0
LINE
  5
4F
100
AcDbEntity
  8
0
  6
CONTINUOUS
 62
               4
100
AcDbLine
 10
48.698657989413618
 20
-99.299999982865074
 30
0.0
 11
48.698657989413618
 21
-98.323999982865075
 31
0.0
  0
LINE
  5
50
100
AcDbEntity
  8
0
  6
CONTINUOUS
 62
               4
100
AcDbLine
 10
50.976657989413582
 20
-99.99999998286512
 30
0.0
 11
47.022657989413631
 21
-99.99999998286512
 31
0.0
  0
LINE
  5
51
100
AcDbEntity
  8
0
  6
CONTINUOUS
 62
               4
100
AcDbLine
 10
50.976657989413582
 20
-100.59999998286514
 30
0.0
 11
47.022657989413631
 21
-100.59999998286514
 31
0.0
  0
CIRCLE
  5
52
100
AcDbEntity
  8
0
  6
CONTINUOUS
 62
               4
100
AcDbCircle
 10
49.000000030429248
 20
-100.29999998286507
 30
0.0
 40
2.0
  0
LINE
  5
53
100
AcDbEntity
  8
0
  6
CENTER
 62
             200
100
AcDbLine
 10
46.000000030429248
 20
-100.29999998286507
 30
0.0
 11
52.000000030429248
 21
-100.29999998286507
 31
0.0
  0
LINE
  5
54
100
AcDbEntity
  8
0
  6
CONTINUOUS
 62
               4
100
AcDbLine
 10
51.400000030428998
 20
-87.99999998286512
 30
0.0
 11
51.900000030428998
 21
-87.99999998286512
 31
0.0
  0
LINE
  5
55
100
AcDbEntity
  8
0
  6
CONTINUOUS
 62
               4
100
AcDbLine
 10
45.600000030428987
 20
-87.99999998286512
 30
0.0
 11
46.100000030428987
 21
-87.99999998286512
 31
0.0
  0
LINE
  5
56
100
AcDbEntity
  8
0
  6
CONTINUOUS
 62
               4
100
AcDbLine
 10
46.100000030428987
 20
-87.99999998286512
 30
0.0
 11
46.100000030428987
 21
-82.99999998286512
 31
0.0
  0
LINE
  5
57
100
AcDbEntity
  8
0
  6
CONTINUOUS
 62
               4
100
AcDbLine
 10
51.400000030428998
 20
-87.99999998286512
 30
0.0
 11
51.400000030428998
 21
-82.99999998286512
 31
0.0
  0
LINE
  5
58
100
AcDbEntity
  8
0
  6
CONTINUOUS
 62
               4
100
AcDbLine
 10
51.900000030428998
 20
-87.99999998286512
 30
0.0
 11
51.900000030428998
 21
-82.99999998286512
 31
0.0
  0
ARC
  5
59
100
AcDbEntity
  8
0
  6
CONTINUOUS
 62
               4
100
AcDbCircle
 10
52.40000004566258
 20
-97.099999982865143
 30
0.0
 40
0.5
100
AcDbArc
 50
0.0
 51
89.999999999999815
  0
ARC
  5
5A
100
AcDbEntity
  8
0
  6
CONTINUOUS
 62
               4
100
AcDbCircle
 10
52.40000004566258
 20
-103.49999998286512
 30
0.0
 40
0.5
100
AcDbArc
 50
270.00000000000023
 51
0.0
  0
ARC
  5
5B
100
AcDbEntity
  8
0
  6
CONTINUOUS
 62
               4
100
AcDbCircle
 10
45.600000015195917
 20
-103.49999998286512
 30
0.0
 40
0.5
100
AcDbArc
 50
179.99999999999963
 51
269.99999999999937
  0
ARC
  5
5C
100
AcDbEntity
  8
0
  6
CONTINUOUS
 62
               4
100
AcDbCircle
 10
45.600000015195917
 20
-97.099999982865143
 30
0.0
 40
0.5
100
AcDbArc
 50
89.999999999999815
 51
179.99999999999963
  0
LINE
  5
5D
100
AcDbEntity
  8
0
  6
CONTINUOUS
 62
               4
100
AcDbLine
 10
45.600000015195917
 20
-96.599999982865143
 30
0.0
 11
52.40000004566258
 21
-96.599999982865143
 31
0.0
  0
LINE
  5
5E
100
AcDbEntity
  8
0
  6
CONTINUOUS
 62
               4
100
AcDbLine
 10
45.100000015195917
 20
-103.49999998286512
 30
0.0
 11
45.100000015195917
 21
-97.099999982865143
 31
0.0
  0
LINE
  5
5F
100
AcDbEntity
  8
0
  6
CONTINUOUS
 62
               4
100
AcDbLine
 10
52.90000004566258
 20
-103.49999998286512
 30
0.0
 11
52.90000004566258
 21
-97.099999982865143
 31
0.0
  0
LINE
  5
60
100
AcDbEntity
  8
0
  6
CONTINUOUS
 62
               4
100
AcDbLine
 10
45.600000015195917
 20
-103.99999998286512
 30
0.0
 11
52.40000004566258
 21
-103.99999998286512
 31
0.0
  0
CIRCLE
  5
61
100
AcDbEntity
  8
0
  6
CONTINUOUS
 62
               4
100
AcDbCircle
 10
49.000000030429248
 20
-100.29999998286507
 30
0.0
 40
2.1000000000000001
  0
LINE
  5
62
100
AcDbEntity
  8
0
  6
CONTINUOUS
 62
               7
100
AcDbLine
 10
54.000000030429305
 20
-82.99999998286512
 30
0.0
 11
30.000000030429248
 21
-82.99999998286512
 31
0.0
  0
LINE
  5
63
100
AcDbEntity
  8
0
  6
CONTINUOUS
 62
               4
100
AcDbLine
 10
54.000000030429305
 20
-104.99999998286512
 30
0.0
 11
30.000000030429248
 21
-104.99999998286512
 31
0.0
  0
LINE
  5
64
100
AcDbEntity
  8
0
  6
CONTINUOUS
 62
               4
100
AcDbLine
 10
44.400000030429226
 20
-109.99999998286512
 30
0.0
 11
44.400000030429226
 21
-104.99999998286609
 31
0.0
  0
LINE
  5
65
100
AcDbEntity
  8
0
  6
CONTINUOUS
 62
               4
100
AcDbLine
 10
48.400000030429226
 20
-109.99999998286512
 30
0.0
 11
48.400000030429226
 21
-104.99999998286609
 31
0.0
  0
LINE
  5
66
100
AcDbEntity
  8
0
  6
CONTINUOUS
 62
               4
100
AcDbLine
 10
44.250000030429248
 20
-109.99999998286512
 30
0.0
 11
44.250000030429248
 21
-104.99999998286609
 31
0.0
  0
LINE
  5
67
100
AcDbEntity
  8
0
  6
CONTINUOUS
 62
               4
100
AcDbLine
 10
48.55000003042926
 20
-109.99999998286512
 30
0.0
 11
48.55000003042926
 21
-104.99999998286609
 31
0.0
  0
LINE
  5
68
100
AcDbEntity
  8
0
  6
CONTINUOUS
 62
               4
100
AcDbLine
 10
30.900000045662352
 20
-115.9999999615128
 30
0.0
 11
30.900000045662352
 21
-109.99999998286586
 31
0.0
  0
LINE
  5
69
100
AcDbEntity
  8
0
  6
CONTINUOUS
 62
               4
100
AcDbLine
 10
52.900000045662409
 20
-115.9999999615128
 30
0.0
 11
52.900000045662409
 21
-109.99999998286609
 31
0.0
  0
ARC
  5
6A
100
AcDbEntity
  8
0
  6
CONTINUOUS
 62
               4
100
AcDbCircle
 10
51.900000045662352
 20
-115.99999998286603
 30
0.0
 40
1.0
100
AcDbArc
 50
270.00000000000023
 51
0.0
  0
ARC
  5
6B
100
AcDbEntity
  8
0
  6
CONTINUOUS
 62
               4
100
AcDbCircle
 10
31.900000045662352
 20
-115.99999998286603
 30
0.0
 40
1.0
100
AcDbArc
 50
179.99999999999963
 51
269.99999999999937
  0
LINE
  5
6C
100
AcDbEntity
  8
0
  6
CONTINUOUS
 62
               4
100
AcDbLine
 10
31.900000045662352
 20
-116.99999998286603
 30
0.0
 11
51.900000045662352
 21
-116.99999998286603
 31
0.0
  0
LINE
  5
6D
100
AcDbEntity
  8
0
  6
CONTINUOUS
 62
               4
100
AcDbLine
 10
54.000000030429305
 20
-109.99999998286512
 30
0.0
 11
30.000000030429248
 21
-109.99999998286512
 31
0.0
  0
LINE
  5
6E
100
AcDbEntity
  8
0
  6
CONTINUOUS
 62
               4
100
AcDbLine
 10
34.178945298064548
 20
-117.0000000223416
 30
0.0
 11
34.178945298064548
 21
-110.00000002234162
 31
0.0
  0
LINE
  5
6F
100
AcDbEntity
  8
0
  6
CONTINUOUS
 62
               4
100
AcDbLine
 10
37.977210293324731
 20
-117.0000000223416
 30
0.0
 11
37.977210293324731
 21
-110.00000002234162
 31
0.0
  0
LINE
  5
70
100
AcDbEntity
  8
0
  6
CONTINUOUS
 62
               4
100
AcDbLine
 10
45.600000030428987
 20
-87.99999998286512
 30
0.0
 11
45.600000030428987
 21
-82.99999998286512
 31
0.0
  0
LINE
  5
71
100
AcDbEntity
  8
0
  6
CONTINUOUS
 62
               4
100
AcDbLine
 10
54.000000030429305
 20
-109.99999998286512
 30
0.0
 11
54.000000030429305
 21
-82.99999998286512
 31
0.0
  0
LINE
  5
72
100
AcDbEntity
  8
0
  6
CONTINUOUS
 62
               4
100
AcDbLine
 10
7.9000000390734044
 20
-116.99999998286603
 30
0.0
 11
27.900000039073404
 21
-116.99999998286603
 31
0.0
  0
LINE
  5
73
100
AcDbEntity
  8
0
  6
CONTINUOUS
 62
               7
100
AcDbLine
 10
-13.500000000000142
 20
-57.999999982866086
 30
0.0
 11
30.000000023840386
 21
-57.999999982866086
 31
0.0
  0
LINE
  5
74
100
AcDbEntity
  8
0
  6
CONTINUOUS
 62
               7
100
AcDbLine
 10
73.500000030429248
 20
-57.999999982866086
 30
0.0
 11
73.500000030429248
 21
36.999999982865461
 31
0.0
  0
LINE
  5
75
100
AcDbEntity
  8
0
  6
CONTINUOUS
 62
               7
100
AcDbLine
 10
-13.500000000000142
 20
36.999999982865461
 30
0.0
 11
-13.500000000000142
 21
-57.999999982866086
 31
0.0
  0
LINE
  5
76
100
AcDbEntity
  8
0
  6
CENTER
 62
             200
100
AcDbLine
 10
49.000000030429248
 20
-103.29999998286507
 30
0.0
 11
49.000000030429248
 21
-97.299999982865074
 31
0.0
  0
LINE
  5
77
100
AcDbEntity
  8
0
  6
CONTINUOUS
 62
               7
100
AcDbLine
 10
8.7000000238402606
 20
-46.999999999999858
 30
0.0
 11
6.100000023840181
 21
-46.999999999999858
 31
0.0
  0
LINE
  5
78
100
AcDbEntity
  8
0
  6
CONTINUOUS
 62
               7
100
AcDbLine
 10
8.7000000238403175
 20
-38.999999999999858
 30
0.0
 11
6.1000000238402095
 21
-38.999999999999858
 31
0.0
  0
LINE
  5
79
100
AcDbEntity
  8
0
  6
CONTINUOUS
 62
               7
100
AcDbLine
 10
27.300000023840937
 20
9.9999999999995737
 30
0.0
 11
29.900000023841301
 21
9.9999999999995737
 31
0.0
  0
LINE
  5
7A
100
AcDbEntity
  8
0
  6
CONTINUOUS
 62
               7
100
AcDbLine
 10
27.300000023840937
 20
17.999999999999574
 30
0.0
 11
29.900000023841443
 21
17.999999999999574
 31
0.0
  0
LINE
  5
7B
100
AcDbEntity
  8
0
  6
CONTINUOUS
 62
               7
100
AcDbLine
 10
28.900000071525369
 20
-45.000000059604758
 30
0.0
 11
29.900000011920667
 21
-46.732050776481785
 31
0.0
  0
LINE
  5
7C
100
AcDbEntity
  8
0
  6
CONTINUOUS
 62
               7
100
AcDbLine
 10
28.900000071525426
 20
-40.999999940395526
 30
0.0
 11
29.900000011920781
 21
-39.267949223518542
 31
0.0
  0
LINE
  5
7D
100
AcDbEntity
  8
0
  6
CONTINUOUS
 62
               7
100
AcDbLine
 10
6.0999999999998522
 20
10.267949163913556
 30
0.0
 11
7.1000000238405221
 21
12.000000012775672
 31
0.0
  0
LINE
  5
7E
100
AcDbEntity
  8
0
  6
CONTINUOUS
 62
               7
100
AcDbLine
 10
7.100000059604497
 20
15.999999940395185
 30
0.0
 11
6.100000059604497
 21
17.732050716876813
 31
0.0
  0
LINE
  5
7F
100
AcDbEntity
  8
0
  6
CONTINUOUS
 62
               7
100
AcDbLine
 10
6.100000023840181
 20
-45.343074902771626
 30
0.0
 11
6.1000000238401242
 21
-56.500000000000057
 31
0.0
  0
LINE
  5
80
100
AcDbEntity
  8
0
  6
CONTINUOUS
 62
               4
100
AcDbLine
 10
27.300000023841815
 20
53.799999999999216
 30
0.0
 11
8.7000000238418238
 21
53.799999999999216
 31
0.0
  0
LINE
  5
81
100
AcDbEntity
  8
0
  6
CONTINUOUS
 62
               4
100
AcDbLine
 10
25.900000023841869
 20
55.89999999999867
 30
0.0
 11
27.300000023841847
 21
55.89999999999867
 31
0.0
  0
LINE
  5
82
100
AcDbEntity
  8
0
  6
CONTINUOUS
 62
               4
100
AcDbLine
 10
25.900000023841869
 20
53.799999999999216
 30
0.0
 11
25.900000023841869
 21
55.89999999999867
 31
0.0
  0
ARC
  5
83
100
AcDbEntity
  8
0
  6
CONTINUOUS
 62
               4
100
AcDbCircle
 10
26.800000023841733
 20
46.499999999998806
 30
0.0
 40
0.5
100
AcDbArc
 50
269.9999999999979
 51
359.99999999999767
  0
LINE
  5
84
100
AcDbEntity
  8
0
  6
CONTINUOUS
 62
               4
100
AcDbLine
 10
26.800000023841733
 20
45.999999999999034
 30
0.0
 11
9.2000000238417101
 21
45.999999999999034
 31
0.0
  0
ARC
  5
85
100
AcDbEntity
  8
0
  6
CONTINUOUS
 62
               4
100
AcDbCircle
 10
9.2000000238417101
 20
46.499999999999034
 30
0.0
 40
0.5
100
AcDbArc
 50
179.99999999999963
 51
269.99999999999937
  0
LINE
  5
86
100
AcDbEntity
  8
0
  6
CONTINUOUS
 62
               4
100
AcDbLine
 10
10.100000023841915
 20
55.899999999999125
 30
0.0
 11
8.7000000238418806
 21
55.899999999999125
 31
0.0
  0
LINE
  5
87
100
AcDbEntity
  8
0
  6
CONTINUOUS
 62
               4
100
AcDbLine
 10
10.100000023841801
 20
53.799999999999216
 30
0.0
 11
10.100000023841915
 21
55.899999999999125
 31
0.0
  0
LINE
  5
88
100
AcDbEntity
  8
0
  6
CONTINUOUS
 62
               4
100
AcDbLine
 10
21.517157310706295
 20
47.499999999999034
 30
0.0
 11
14.482842736977148
 21
47.499999999999034
 31
0.0
  0
LINE
  5
89
100
AcDbEntity
  8
0
  6
CONTINUOUS
 62
               4
100
AcDbLine
 10
17.85857866760449
 20
51.35857864310077
 30
0.0
 11
14.34142138073986
 21
47.841421356236253
 31
0.0
  0
LINE
  5
8A
100
AcDbEntity
  8
0
  6
CONTINUOUS
 62
               4
100
AcDbLine
 10
18.141421380079066
 20
51.35857864310077
 30
0.0
 11
21.658578666943583
 21
47.841421356236253
 31
0.0
  0
ARC
  5
8B
100
AcDbEntity
  8
0
  6
CONTINUOUS
 62
               4
100
AcDbCircle
 10
18.000000023841778
 20
51.217157286863483
 30
0.0
 40
0.2
100
AcDbArc
 50
44.99999999999919
 51
134.99999999999898
  0
ARC
  5
8C
100
AcDbEntity
  8
0
  6
CONTINUOUS
 62
               4
100
AcDbCircle
 10
14.482842736977148
 20
47.699999999998965
 30
0.0
 40
0.2
100
AcDbArc
 50
134.99999999999793
 51
269.99999999999937
  0
ARC
  5
8D
100
AcDbEntity
  8
0
  6
CONTINUOUS
 62
               4
100
AcDbCircle
 10
21.517157310706295
 20
47.699999999998965
 30
0.0
 40
0.2
100
AcDbArc
 50
269.99999999999937
 51
45.000000000000966
  0
LINE
  5
8E
100
AcDbEntity
  8
0
  6
CONTINUOUS
 62
               4
100
AcDbLine
 10
28.700000023215182
 20
72.900000000001171
 30
0.0
 11
29.900000017254627
 21
72.900000000001171
 31
0.0
  0
LINE
  5
8F
100
AcDbEntity
  8
0
  6
CONTINUOUS
 62
               4
100
AcDbLine
 10
28.700000023215182
 20
76.100000000001216
 30
0.0
 11
29.90000001725474
 21
76.100000000001216
 31
0.0
  0
ARC
  5
90
100
AcDbEntity
  8
0
  6
CONTINUOUS
 62
               4
100
AcDbCircle
 10
28.900000023842097
 20
76.99999999999892
 30
0.0
 40
1.0
100
AcDbArc
 50
359.99999999999847
 51
89.999999999998266
  0
LINE
  5
91
100
AcDbEntity
  8
0
  6
CONTINUOUS
 62
               4
100
AcDbLine
 10
7.100000023842199
 20
77.999999999999261
 30
0.0
 11
28.90000002384221
 21
77.99999999999892
 31
0.0
  0
LINE
  5
92
100
AcDbEntity
  8
0
  6
CONTINUOUS
 62
               4
100
AcDbLine
 10
28.700000023842051
 20
72.900000000001171
 30
0.0
 11
28.700000023842165
 21
76.100000000001216
 31
0.0
  0
ARC
  5
93
100
AcDbEntity
  8
0
  6
CONTINUOUS
 62
               4
100
AcDbCircle
 10
7.100000023842199
 20
76.999999999999147
 30
0.0
 40
1.0
100
AcDbArc
 50
89.999999999999815
 51
179.99999999999963
  0
LINE
  5
94
100
AcDbEntity
  8
0
  6
CONTINUOUS
 62
               4
100
AcDbLine
 10
7.3000000244691137
 20
76.100000000001444
 30
0.0
 11
6.1000000304295554
 21
76.100000000001444
 31
0.0
  0
LINE
  5
95
100
AcDbEntity
  8
0
  6
CONTINUOUS
 62
               4
100
AcDbLine
 10
26.000000023842119
 20
71.49999999999892
 30
0.0
 11
26.000000023842006
 21
64.49999999999892
 31
0.0
  0
LINE
  5
96
100
AcDbEntity
  8
0
  6
CONTINUOUS
 62
               4
100
AcDbLine
 10
20.000000023842119
 20
71.499999999999034
 30
0.0
 11
20.000000023842006
 21
64.499999999999034
 31
0.0
  0
LINE
  5
97
100
AcDbEntity
  8
0
  6
CONTINUOUS
 62
               4
100
AcDbLine
 10
7.3000000238421308
 20
72.900000000001512
 30
0.0
 11
7.3000000238421308
 21
76.100000000001444
 31
0.0
  0
LINE
  5
98
100
AcDbEntity
  8
0
  6
CONTINUOUS
 62
               4
100
AcDbLine
 10
7.3000000244691137
 20
72.900000000001512
 30
0.0
 11
6.1000000304295554
 21
72.900000000001512
 31
0.0
  0
LINE
  5
99
100
AcDbEntity
  8
0
  6
CONTINUOUS
 62
               7
100
AcDbLine
 10
6.1000000238414032
 20
31.999999999999034
 30
0.0
 11
29.900000023841642
 21
31.999999999998579
 31
0.0
  0
LINE
  5
9A
100
AcDbEntity
  8
0
  6
CONTINUOUS
 62
               7
100
AcDbLine
 10
7.4000000238411303
 20
24.499999999798149
 30
0.0
 11
7.4000000238415851
 21
31.999999999999034
 31
0.0
  0
LINE
  5
9B
100
AcDbEntity
  8
0
  6
CONTINUOUS
 62
               7
100
AcDbLine
 10
7.400000012548162
 20
25.999999999999261
 30
0.0
 11
6.6000000304295554
 21
25.999999999999261
 31
0.0
  0
ARC
  5
9C
100
AcDbEntity
  8
0
  6
CONTINUOUS
 62
               7
100
AcDbCircle
 10
6.6000000238412895
 20
26.499999999999261
 30
0.0
 40
0.5
100
AcDbArc
 50
179.99999999999963
 51
269.99999999999937
  0
LINE
  5
9D
100
AcDbEntity
  8
0
  6
CONTINUOUS
 62
               7
100
AcDbLine
 10
28.600000023841687
 20
24.499999999798149
 30
0.0
 11
28.600000023841574
 21
31.999999999998693
 31
0.0
  0
ARC
  5
9E
100
AcDbEntity
  8
0
  6
CONTINUOUS
 62
               7
100
AcDbCircle
 10
29.400000023841642
 20
26.499999999999034
 30
0.0
 40
0.5
100
AcDbArc
 50
269.9999999999979
 51
359.99999999999767
  0
LINE
  5
9F
100
AcDbEntity
  8
0
  6
CONTINUOUS
 62
               7
100
AcDbLine
 10
28.600000035134769
 20
25.999999999999034
 30
0.0
 11
29.400000017253376
 21
25.999999999999034
 31
0.0
  0
LINE
  5
A0
100
AcDbEntity
  8
0
  6
CONTINUOUS
 62
               4
100
AcDbLine
 10
24.600000023841801
 20
53.900000000000261
 30
0.0
 11
11.400000023841869
 21
53.900000000000261
 31
0.0
  0
LINE
  5
A1
100
AcDbEntity
  8
0
  6
CONTINUOUS
 62
               4
100
AcDbLine
 10
26.800000023841733
 20
45.900000000000261
 30
0.0
 11
22.000000023841778
 21
45.900000000000261
 31
0.0
  0
ARC
  5
A2
100
AcDbEntity
  8
0
  6
CONTINUOUS
 62
               4
100
AcDbCircle
 10
26.800000023841733
 20
46.400000000000261
 30
0.0
 40
0.5
100
AcDbArc
 50
269.99999999999937
 51
0.0
  0
LINE
  5
A3
100
AcDbEntity
  8
0
  6
CONTINUOUS
 62
               4
100
AcDbLine
 10
8.7000000238417101
 20
46.400000000000603
 30
0.0
 11
8.7000000238418806
 21
56.700207536079404
 31
0.0
  0
ARC
  5
A4
100
AcDbEntity
  8
0
  6
CONTINUOUS
 62
               4
100
AcDbCircle
 10
9.2000000238417101
 20
46.400000000000261
 30
0.0
 40
0.5
100
AcDbArc
 50
179.99999999999963
 51
269.99999999999937
  0
LINE
  5
A5
100
AcDbEntity
  8
0
  6
CONTINUOUS
 62
               4
100
AcDbLine
 10
10.900000023841869
 20
54.400000000000261
 30
0.0
 11
10.900000023841869
 21
55.999999994248185
 31
0.0
  0
ARC
  5
A6
100
AcDbEntity
  8
0
  6
CONTINUOUS
 62
               4
100
AcDbCircle
 10
11.400000023841869
 20
54.400000000000261
 30
0.0
 40
0.5
100
AcDbArc
 50
179.99999999999963
 51
269.99999999999937
  0
ARC
  5
A7
100
AcDbEntity
  8
0
  6
CONTINUOUS
 62
               4
100
AcDbCircle
 10
24.600000023841801
 20
54.400000000000261
 30
0.0
 40
0.5
100
AcDbArc
 50
269.99999999999937
 51
0.0
  0
LINE
  5
A8
100
AcDbEntity
  8
0
  6
CONTINUOUS
 62
               4
100
AcDbLine
 10
21.500000023841778
 20
44.70000000000033
 30
0.0
 11
14.500000023841778
 21
44.70000000000033
 31
0.0
  0
LINE
  5
A9
100
AcDbEntity
  8
0
  6
CONTINUOUS
 62
               4
100
AcDbLine
 10
22.000000023841778
 20
45.20000000000033
 30
0.0
 11
22.000000023841778
 21
45.900000000000261
 31
0.0
  0
ARC
  5
AA
100
AcDbEntity
  8
0
  6
CONTINUOUS
 62
               4
100
AcDbCircle
 10
21.500000023841778
 20
45.20000000000033
 30
0.0
 40
0.5
100
AcDbArc
 50
269.99999999999937
 51
0.0
  0
LINE
  5
AB
100
AcDbEntity
  8
0
  6
CONTINUOUS
 62
               4
100
AcDbLine
 10
14.000000023841778
 20
45.200000000000443
 30
0.0
 11
14.000000023841778
 21
45.900000000000375
 31
0.0
  0
ARC
  5
AC
100
AcDbEntity
  8
0
  6
CONTINUOUS
 62
               4
100
AcDbCircle
 10
14.500000023841778
 20
45.200000000000443
 30
0.0
 40
0.5
100
AcDbArc
 50
179.99999999999807
 51
269.9999999999979
  0
LINE
  5
AD
100
AcDbEntity
  8
0
  6
CONTINUOUS
 62
               4
100
AcDbLine
 10
27.300000023841733
 20
46.400000000000261
 30
0.0
 11
27.300000023841847
 21
56.700207536079063
 31
0.0
  0
LINE
  5
AE
100
AcDbEntity
  8
0
  6
CONTINUOUS
 62
               4
100
AcDbLine
 10
10.900000023841869
 20
55.999999994248185
 30
0.0
 11
8.7000000238418806
 21
55.999999994248185
 31
0.0
  0
LINE
  5
AF
100
AcDbEntity
  8
0
  6
CONTINUOUS
 62
               4
100
AcDbLine
 10
10.100000023841915
 20
56.700207536079404
 30
0.0
 11
8.7000000363900085
 21
56.700207536079404
 31
0.0
  0
LINE
  5
B0
100
AcDbEntity
  8
0
  6
CONTINUOUS
 62
               4
100
AcDbLine
 10
25.100000023841801
 20
55.999999994247958
 30
0.0
 11
27.300000023841847
 21
55.999999994247844
 31
0.0
  0
LINE
  5
B1
100
AcDbEntity
  8
0
  6
CONTINUOUS
 62
               4
100
AcDbLine
 10
10.100000023841915
 20
56.29999999424814
 30
0.0
 11
10.100000023841915
 21
56.700207536079404
 31
0.0
  0
LINE
  5
B2
100
AcDbEntity
  8
0
  6
CONTINUOUS
 62
               4
100
AcDbLine
 10
25.100000023841801
 20
54.400000000000034
 30
0.0
 11
25.100000023841801
 21
55.999999994247958
 31
0.0
  0
ARC
  5
B3
100
AcDbEntity
  8
0
  6
CONTINUOUS
 62
               4
100
AcDbCircle
 10
10.400000023841869
 20
56.29999999424814
 30
0.0
 40
0.3
100
AcDbArc
 50
179.99999999999963
 51
269.99999999999937
  0
LINE
  5
B4
100
AcDbEntity
  8
0
  6
CONTINUOUS
 62
               4
100
AcDbLine
 10
25.900000023841869
 20
56.700207536079176
 30
0.0
 11
27.300000011293662
 21
56.700207536079063
 31
0.0
  0
ARC
  5
B5
100
AcDbEntity
  8
0
  6
CONTINUOUS
 62
               4
100
AcDbCircle
 10
25.600000023841801
 20
56.299999994247912
 30
0.0
 40
0.3
100
AcDbArc
 50
269.9999999999979
 51
359.99999999999767
  0
LINE
  5
B6
100
AcDbEntity
  8
0
  6
CONTINUOUS
 62
               4
100
AcDbLine
 10
25.900000023841869
 20
56.299999994247912
 30
0.0
 11
25.900000023841869
 21
56.700207536079176
 31
0.0
  0
LINE
  5
B7
100
AcDbEntity
  8
0
  6
CONTINUOUS
 62
               4
100
AcDbLine
 10
20.000000023842119
 20
71.499999999999034
 30
0.0
 11
26.000000023842119
 21
71.49999999999892
 31
0.0
  0
LINE
  5
B8
100
AcDbEntity
  8
0
  6
CONTINUOUS
 62
               4
100
AcDbLine
 10
20.000000023842006
 20
64.499999999999034
 30
0.0
 11
26.000000023842006
 21
64.49999999999892
 31
0.0
  0
LINE
  5
B9
100
AcDbEntity
  8
0
  6
CONTINUOUS
 62
               4
100
AcDbLine
 10
16.000000023842006
 20
71.499999999999147
 30
0.0
 11
10.000000023842006
 21
71.499999999999147
 31
0.0
  0
LINE
  5
BA
100
AcDbEntity
  8
0
  6
CONTINUOUS
 62
               4
100
AcDbLine
 10
16.000000023841892
 20
64.499999999999147
 30
0.0
 11
10.000000023841892
 21
64.499999999999147
 31
0.0
  0
LINE
  5
BB
100
AcDbEntity
  8
0
  6
CONTINUOUS
 62
               4
100
AcDbLine
 10
16.000000023842006
 20
71.499999999999147
 30
0.0
 11
16.000000023841892
 21
64.499999999999147
 31
0.0
  0
LINE
  5
BC
100
AcDbEntity
  8
0
  6
CONTINUOUS
 62
               4
100
AcDbLine
 10
10.000000023842006
 20
71.499999999999147
 30
0.0
 11
10.000000023841892
 21
64.499999999999147
 31
0.0
  0
LINE
  5
BD
100
AcDbEntity
  8
0
  6
CONTINUOUS
 62
               4
100
AcDbLine
 10
20.100000023842142
 20
71.399999999999011
 30
0.0
 11
25.900000023842097
 21
71.399999999998897
 31
0.0
  0
LINE
  5
BE
100
AcDbEntity
  8
0
  6
CONTINUOUS
 62
               4
100
AcDbLine
 10
25.900000023842097
 20
71.399999999998897
 30
0.0
 11
25.900000023842097
 21
64.599999999998943
 31
0.0
  0
LINE
  5
BF
100
AcDbEntity
  8
0
  6
CONTINUOUS
 62
               4
100
AcDbLine
 10
20.100000023842142
 20
71.399999999999011
 30
0.0
 11
20.100000023842028
 21
64.599999999999056
 31
0.0
  0
LINE
  5
C0
100
AcDbEntity
  8
0
  6
CONTINUOUS
 62
               4
100
AcDbLine
 10
20.100000023842028
 20
64.599999999999056
 30
0.0
 11
25.900000023842097
 21
64.599999999998943
 31
0.0
  0
LINE
  5
C1
100
AcDbEntity
  8
0
  6
CONTINUOUS
 62
               4
100
AcDbLine
 10
15.900000023841983
 20
71.399999999999125
 30
0.0
 11
10.100000023842028
 21
71.399999999999125
 31
0.0
  0
LINE
  5
C2
100
AcDbEntity
  8
0
  6
CONTINUOUS
 62
               4
100
AcDbLine
 10
10.100000023842028
 20
71.399999999999125
 30
0.0
 11
10.100000023841915
 21
64.59999999999917
 31
0.0
  0
LINE
  5
C3
100
AcDbEntity
  8
0
  6
CONTINUOUS
 62
               4
100
AcDbLine
 10
15.900000023841983
 20
71.399999999999125
 30
0.0
 11
15.900000023841869
 21
64.59999999999917
 31
0.0
  0
LINE
  5
C4
100
AcDbEntity
  8
0
  6
CONTINUOUS
 62
               4
100
AcDbLine
 10
15.900000023841869
 20
64.59999999999917
 30
0.0
 11
10.100000023841915
 21
64.59999999999917
 31
0.0
  0
LINE
  5
C5
100
AcDbEntity
  8
0
  6
CONTINUOUS
 62
               4
100
AcDbLine
 10
14.000000023841778
 20
45.900000000000261
 30
0.0
 11
9.2000000238417101
 21
45.900000000000261
 31
0.0
  0
LINE
  5
C6
100
AcDbEntity
  8
0
  6
CONTINUOUS
 62
               7
100
AcDbLine
 10
6.1000000013846147
 20
22.999999999999602
 30
0.0
 11
29.900000013305601
 21
22.999999999999602
 31
0.0
  0
LINE
  5
C7
100
AcDbEntity
  8
0
  6
CONTINUOUS
 62
               7
100
AcDbLine
 10
28.600000001384672
 20
24.499999999798149
 30
0.0
 11
29.900000023841528
 21
24.499999999798149
 31
0.0
  0
LINE
  5
C8
100
AcDbEntity
  8
0
  6
CONTINUOUS
 62
               7
100
AcDbLine
 10
6.1000000013846147
 20
24.499999999798149
 30
0.0
 11
7.4000000133055437
 21
24.499999999798149
 31
0.0
  0
LINE
  5
C9
100
AcDbEntity
  8
0
  6
CONTINUOUS
 62
               7
100
AcDbLine
 10
6.1000000013846147
 20
-52.000000000000171
 30
0.0
 11
29.900000013305544
 21
-52.000000000000171
 31
0.0
  0
ARC
  5
CA
100
AcDbEntity
  8
0
  6
CONTINUOUS
 62
               7
100
AcDbCircle
 10
29.40000002384096
 20
-56.500000000000057
 30
0.0
 40
0.5
100
AcDbArc
 50
269.99999999999937
 51
0.0
  0
ARC
  5
CB
100
AcDbEntity
  8
0
  6
CONTINUOUS
 62
               7
100
AcDbCircle
 10
6.600000023839641
 20
-56.500000000000057
 30
0.0
 40
0.5
100
AcDbArc
 50
179.99999999999963
 51
269.99999999999937
  0
LINE
  5
CC
100
AcDbEntity
  8
0
  6
CONTINUOUS
 62
               7
100
AcDbLine
 10
7.1000000238405221
 20
11.999999999999574
 30
0.0
 11
7.1000000238405505
 21
15.999999999999574
 31
0.0
  0
LINE
  5
CD
100
AcDbEntity
  8
0
  6
CONTINUOUS
 62
               4
100
AcDbLine
 10
6.1000000238405221
 20
76.999999999999147
 30
0.0
 11
6.1000000238405505
 21
38.000000000002615
 31
0.0
  0
LINE
  5
CE
100
AcDbEntity
  8
0
  6
CONTINUOUS
 62
               7
100
AcDbLine
 10
6.1000000238404937
 20
10.26794921800149
 30
0.0
 11
6.1000000238402095
 21
-40.656925097227827
 31
0.0
  0
LINE
  5
CF
100
AcDbEntity
  8
0
  6
CONTINUOUS
 62
               4
100
AcDbLine
 10
29.900000023842523
 20
76.999999999998806
 30
0.0
 11
29.900000023841812
 21
38.000000000002615
 31
0.0
  0
LINE
  5
D0
100
AcDbEntity
  8
0
  6
CONTINUOUS
 62
               7
100
AcDbLine
 10
28.900000023841159
 20
-45.000000000000526
 30
0.0
 11
28.900000023841159
 21
-41.00000000000054
 31
0.0
  0
LINE
  5
D1
100
AcDbEntity
  8
0
  6
CONTINUOUS
 62
               7
100
AcDbLine
 10
29.900000023840732
 20
-46.732050797127997
 30
0.0
 11
29.900000023840704
 21
-56.500000000000114
 31
0.0
  0
ARC
  5
D2
100
AcDbEntity
  8
0
  6
CONTINUOUS
 62
               7
100
AcDbCircle
 10
8.7000000238403459
 20
-42.999999999999858
 30
0.0
 40
4.0
100
AcDbArc
 50
269.99999999999903
 51
90.0
  0
ARC
  5
D3
100
AcDbEntity
  8
0
  6
CONTINUOUS
 62
               7
100
AcDbCircle
 10
27.300000023840937
 20
13.999999999999574
 30
0.0
 40
4.0
100
AcDbArc
 50
89.999999999999815
 51
269.99999999999937
  0
ARC
  5
D4
100
AcDbEntity
  8
0
  6
CONTINUOUS
 62
               7
100
AcDbCircle
 10
6.6000000238407779
 20
-53.499999999999829
 30
0.0
 40
0.5
100
AcDbArc
 50
179.99999999999801
 51
269.99999999999784
  0
ARC
  5
D5
100
AcDbEntity
  8
0
  6
CONTINUOUS
 62
               7
100
AcDbCircle
 10
12.600000023840664
 20
-56.5
 30
0.0
 40
0.5
100
AcDbArc
 50
179.99999999999798
 51
269.99999999999778
  0
ARC
  5
D6
100
AcDbEntity
  8
0
  6
CONTINUOUS
 62
               7
100
AcDbCircle
 10
11.600000023840721
 20
-54.499999999999943
 30
0.0
 40
0.5
100
AcDbArc
 50
359.99999999999761
 51
89.999999999998224
  0
LINE
  5
D7
100
AcDbEntity
  8
0
  6
CONTINUOUS
 62
               7
100
AcDbLine
 10
11.600000023840778
 20
-53.999999999999943
 30
0.0
 11
6.6000000238407779
 21
-53.999999999999829
 31
0.0
  0
LINE
  5
D8
100
AcDbEntity
  8
0
  6
CONTINUOUS
 62
               7
100
AcDbLine
 10
12.100000023840721
 20
-54.500000011875159
 30
0.0
 11
12.100000023840664
 21
-56.5
 31
0.0
  0
LINE
  5
D9
100
AcDbEntity
  8
0
  6
CONTINUOUS
 62
               7
100
AcDbLine
 10
6.6000000238399821
 20
-57.000000000000171
 30
0.0
 11
29.400000023839993
 21
-57.000000000000171
 31
0.0
  0
LINE
  5
DA
100
AcDbEntity
  8
0
  6
CONTINUOUS
 62
               7
100
AcDbLine
 10
28.80000002384088
 20
14.866025686263669
 30
0.0
 11
28.800000023840823
 21
13.133974313735592
 31
0.0
  0
LINE
  5
DB
100
AcDbEntity
  8
0
  6
CONTINUOUS
 62
               7
100
AcDbLine
 10
25.80000002384088
 20
14.86602538824053
 30
0.0
 11
25.800000023840823
 21
13.133974611758902
 31
0.0
  0
LINE
  5
DC
100
AcDbEntity
  8
0
  6
CONTINUOUS
 62
               7
100
AcDbLine
 10
28.800000423702954
 20
14.866025261045678
 30
0.0
 11
27.300000271071127
 21
15.732050605652859
 31
0.0
  0
LINE
  5
DD
100
AcDbEntity
  8
0
  6
CONTINUOUS
 62
               7
100
AcDbLine
 10
27.30000066640082
 20
12.267949981834164
 30
0.0
 11
25.800000513768964
 21
13.133975326441316
 31
0.0
  0
LINE
  5
DE
100
AcDbEntity
  8
0
  6
CONTINUOUS
 62
               7
100
AcDbLine
 10
27.300000666400905
 20
15.732050018165211
 30
0.0
 11
25.800000513769021
 21
14.866024673558115
 31
0.0
  0
LINE
  5
DF
100
AcDbEntity
  8
0
  6
CONTINUOUS
 62
               7
100
AcDbLine
 10
28.800000423702897
 20
13.133974738953583
 30
0.0
 11
27.300000271071042
 21
12.267949394346516
 31
0.0
  0
CIRCLE
  5
E0
100
AcDbEntity
  8
0
  6
CONTINUOUS
 62
               7
100
AcDbCircle
 10
27.300000023840852
 20
13.999999999999687
 30
0.0
 40
3.5
  0
CIRCLE
  5
E1
100
AcDbEntity
  8
0
  6
CONTINUOUS
 62
               7
100
AcDbCircle
 10
27.300000023840852
 20
14.000000119208977
 30
0.0
 40
2.9803848266601563
  0
LINE
  5
E2
100
AcDbEntity
  8
0
  6
CONTINUOUS
 62
               7
100
AcDbLine
 10
29.900000023841301
 20
11.656925097228225
 30
0.0
 11
29.900000023840391
 21
-39.267949165396786
 31
0.0
  0
LINE
  5
E3
100
AcDbEntity
  8
0
  6
CONTINUOUS
 62
               7
100
AcDbLine
 10
10.200000423702363
 20
-42.133974738953739
 30
0.0
 11
8.700000271070536
 21
-41.267949394346573
 31
0.0
  0
LINE
  5
E4
100
AcDbEntity
  8
0
  6
CONTINUOUS
 62
               7
100
AcDbLine
 10
8.7000006664002285
 20
-44.732050018165268
 30
0.0
 11
7.2000005137684013
 21
-43.866024673558101
 31
0.0
  0
LINE
  5
E5
100
AcDbEntity
  8
0
  6
CONTINUOUS
 62
               7
100
AcDbLine
 10
10.200000423702335
 20
-43.866025261045834
 30
0.0
 11
8.7000002710704507
 21
-44.732050605652915
 31
0.0
  0
CIRCLE
  5
E6
100
AcDbEntity
  8
0
  6
CONTINUOUS
 62
               7
100
AcDbCircle
 10
8.700000023840289
 20
-42.999999999999744
 30
0.0
 40
3.5
  0
CIRCLE
  5
E7
100
AcDbEntity
  8
0
  6
CONTINUOUS
 62
               7
100
AcDbCircle
 10
8.700000023840289
 20
-42.999999880790455
 30
0.0
 40
2.9803848266601563
  0
LINE
  5
E8
100
AcDbEntity
  8
0
  6
CONTINUOUS
 62
               7
100
AcDbLine
 10
8.7000006664003138
 20
-41.267949981834221
 30
0.0
 11
7.2000005137684298
 21
-42.133975326441302
 31
0.0
  0
LINE
  5
E9
100
AcDbEntity
  8
0
  6
CONTINUOUS
 62
               7
100
AcDbLine
 10
7.200000023840289
 20
-42.133974611758887
 30
0.0
 11
7.2000000238402606
 21
-43.866025388240516
 31
0.0
  0
LINE
  5
EA
100
AcDbEntity
  8
0
  6
CONTINUOUS
 62
               7
100
AcDbLine
 10
10.200000023840289
 20
-42.133974313735749
 30
0.0
 11
10.200000023840261
 21
-43.866025686263825
 31
0.0
  0
LINE
  5
EB
100
AcDbEntity
  8
0
  6
CONTINUOUS
 62
               7
100
AcDbLine
 10
32.699998231612511
 20
-46.999999999999432
 30
0.0
 11
30.100000030429328
 21
-46.999999999999432
 31
0.0
  0
LINE
  5
EC
100
AcDbEntity
  8
0
  6
CONTINUOUS
 62
               7
100
AcDbLine
 10
32.700000030429578
 20
-38.999999999999829
 30
0.0
 11
30.099999986577359
 21
-38.999999999999829
 31
0.0
  0
LINE
  5
ED
100
AcDbEntity
  8
0
  6
CONTINUOUS
 62
               7
100
AcDbLine
 10
51.300000030429942
 20
9.9999999999996589
 30
0.0
 11
53.900000030430391
 21
9.9999999999996589
 31
0.0
  0
LINE
  5
EE
100
AcDbEntity
  8
0
  6
CONTINUOUS
 62
               7
100
AcDbLine
 10
51.300000030430056
 20
17.999999999999659
 30
0.0
 11
53.900000030430562
 21
17.999999999999659
 31
0.0
  0
LINE
  5
EF
100
AcDbEntity
  8
0
  6
CONTINUOUS
 62
               7
100
AcDbLine
 10
53.899999968695965
 20
-46.732050794858708
 30
0.0
 11
52.90000002830061
 21
-45.000000077981724
 31
0.0
  0
LINE
  5
F0
100
AcDbEntity
  8
0
  6
CONTINUOUS
 62
               7
100
AcDbLine
 10
52.900000058102933
 20
-41.000000018377079
 30
0.0
 11
53.90000002830061
 21
-39.267949301500096
 31
0.0
  0
LINE
  5
F1
100
AcDbEntity
  8
0
  6
CONTINUOUS
 62
               7
100
AcDbLine
 10
30.099999986577359
 20
10.267949145536647
 30
0.0
 11
31.100000030429669
 21
12.000000029060004
 31
0.0
  0
LINE
  5
F2
100
AcDbEntity
  8
0
  6
CONTINUOUS
 62
               7
100
AcDbLine
 10
31.100000075984326
 20
15.999999862413631
 30
0.0
 11
30.100000075984326
 21
17.732050698499904
 31
0.0
  0
ARC
  5
F3
100
AcDbEntity
  8
0
  6
CONTINUOUS
 62
               7
100
AcDbCircle
 10
53.4000000304286
 20
-81.500000000000057
 30
0.0
 40
0.5
100
AcDbArc
 50
270.00000000000023
 51
0.0
  0
ARC
  5
F4
100
AcDbEntity
  8
0
  6
CONTINUOUS
 62
               7
100
AcDbCircle
 10
30.600000030428191
 20
-81.500000000000057
 30
0.0
 40
0.5
100
AcDbArc
 50
179.99999999999963
 51
269.99999999999937
  0
ARC
  5
F5
100
AcDbEntity
  8
0
  6
CONTINUOUS
 62
               7
100
AcDbCircle
 10
51.300000030430056
 20
13.999999999999659
 30
0.0
 40
4.0
100
AcDbArc
 50
89.999999999999702
 51
269.9999999999979
  0
LINE
  5
F6
100
AcDbEntity
  8
0
  6
CONTINUOUS
 62
               7
100
AcDbLine
 10
31.100000030429669
 20
11.999999999999602
 30
0.0
 11
31.100000030429555
 21
15.999999999999602
 31
0.0
  0
LINE
  5
F7
100
AcDbEntity
  8
0
  6
CONTINUOUS
 62
               7
100
AcDbLine
 10
52.900000030430419
 20
-45.000000000000455
 30
0.0
 11
52.900000030430419
 21
-41.000000000000455
 31
0.0
  0
LINE
  5
F8
100
AcDbEntity
  8
0
  6
CONTINUOUS
 62
               4
100
AcDbLine
 10
53.900000030431556
 20
76.999999999998977
 30
0.0
 11
53.900000030430903
 21
38.000000000002615
 31
0.0
  0
LINE
  5
F9
100
AcDbEntity
  8
0
  6
CONTINUOUS
 62
               7
100
AcDbLine
 10
53.900000030429965
 20
-46.732050878062012
 30
0.0
 11
53.900000030429737
 21
-81.500000000000341
 31
0.0
  0
ARC
  5
FA
100
AcDbEntity
  8
0
  6
CONTINUOUS
 62
               7
100
AcDbCircle
 10
32.700000030429578
 20
-42.999999999999829
 30
0.0
 40
4.0
100
AcDbArc
 50
269.99997938707503
 51
90.000025766155488
  0
LINE
  5
FB
100
AcDbEntity
  8
0
  6
CONTINUOUS
 62
               7
100
AcDbLine
 10
30.100000030428419
 20
-68.499999999997101
 30
0.0
 11
53.900000013935596
 21
-68.499999999997101
 31
0.0
  0
LINE
  5
FC
100
AcDbEntity
  8
0
  6
CONTINUOUS
 62
               7
100
AcDbLine
 10
30.600000030428646
 20
-82.000000000000057
 30
0.0
 11
53.4000000304286
 21
-82.000000000000057
 31
0.0
  0
LINE
  5
FD
100
AcDbEntity
  8
0
  6
CONTINUOUS
 62
               7
100
AcDbLine
 10
30.100000030428646
 20
-52.000000000000057
 30
0.0
 11
53.9000000304286
 21
-52.000000000000057
 31
0.0
  0
LINE
  5
FE
100
AcDbEntity
  8
0
  6
CONTINUOUS
 62
               7
100
AcDbLine
 10
30.100000030429328
 20
22.999999999999829
 30
0.0
 11
53.900000030429737
 21
22.999999999999602
 31
0.0
  0
LINE
  5
FF
100
AcDbEntity
  8
0
  6
CONTINUOUS
 62
               7
100
AcDbLine
 10
30.100000007973222
 20
24.499999999798263
 30
0.0
 11
31.400000019894151
 21
24.499999999798263
 31
0.0
  0
LINE
  5
100
100
AcDbEntity
  8
0
  6
CONTINUOUS
 62
               7
100
AcDbLine
 10
52.600000007973449
 20
24.499999999798263
 30
0.0
 11
53.900000030430192
 21
24.499999999798263
 31
0.0
  0
LINE
  5
101
100
AcDbEntity
  8
0
  6
CONTINUOUS
 62
               4
100
AcDbLine
 10
38.000000030430556
 20
45.900000000000375
 30
0.0
 11
33.200000030430374
 21
45.900000000000375
 31
0.0
  0
LINE
  5
102
100
AcDbEntity
  8
0
  6
CONTINUOUS
 62
               4
100
AcDbLine
 10
39.900000030430647
 20
64.59999999999917
 30
0.0
 11
34.100000030430692
 21
64.599999999999284
 31
0.0
  0
LINE
  5
103
100
AcDbEntity
  8
0
  6
CONTINUOUS
 62
               4
100
AcDbLine
 10
39.900000030430647
 20
71.399999999999125
 30
0.0
 11
39.900000030430647
 21
64.59999999999917
 31
0.0
  0
LINE
  5
104
100
AcDbEntity
  8
0
  6
CONTINUOUS
 62
               4
100
AcDbLine
 10
34.100000030430692
 20
71.399999999999238
 30
0.0
 11
34.100000030430692
 21
64.599999999999284
 31
0.0
  0
LINE
  5
105
100
AcDbEntity
  8
0
  6
CONTINUOUS
 62
               4
100
AcDbLine
 10
39.900000030430647
 20
71.399999999999125
 30
0.0
 11
34.100000030430692
 21
71.399999999999238
 31
0.0
  0
LINE
  5
106
100
AcDbEntity
  8
0
  6
CONTINUOUS
 62
               4
100
AcDbLine
 10
44.100000030430692
 20
64.59999999999917
 30
0.0
 11
49.900000030430874
 21
64.599999999999056
 31
0.0
  0
LINE
  5
107
100
AcDbEntity
  8
0
  6
CONTINUOUS
 62
               4
100
AcDbLine
 10
44.10000003043092
 20
71.399999999999125
 30
0.0
 11
44.100000030430692
 21
64.59999999999917
 31
0.0
  0
LINE
  5
108
100
AcDbEntity
  8
0
  6
CONTINUOUS
 62
               4
100
AcDbLine
 10
49.900000030430874
 20
71.399999999999011
 30
0.0
 11
49.900000030430874
 21
64.599999999999056
 31
0.0
  0
LINE
  5
109
100
AcDbEntity
  8
0
  6
CONTINUOUS
 62
               4
100
AcDbLine
 10
44.10000003043092
 20
71.399999999999125
 30
0.0
 11
49.900000030430874
 21
71.399999999999011
 31
0.0
  0
LINE
  5
10A
100
AcDbEntity
  8
0
  6
CONTINUOUS
 62
               4
100
AcDbLine
 10
34.000000030430783
 20
71.499999999999261
 30
0.0
 11
34.000000030430556
 21
64.499999999999261
 31
0.0
  0
LINE
  5
10B
100
AcDbEntity
  8
0
  6
CONTINUOUS
 62
               4
100
AcDbLine
 10
40.000000030430783
 20
71.499999999999147
 30
0.0
 11
40.000000030430556
 21
64.499999999999147
 31
0.0
  0
LINE
  5
10C
100
AcDbEntity
  8
0
  6
CONTINUOUS
 62
               4
100
AcDbLine
 10
40.000000030430556
 20
64.499999999999147
 30
0.0
 11
34.000000030430556
 21
64.499999999999261
 31
0.0
  0
LINE
  5
10D
100
AcDbEntity
  8
0
  6
CONTINUOUS
 62
               4
100
AcDbLine
 10
40.000000030430783
 20
71.499999999999147
 30
0.0
 11
34.000000030430783
 21
71.499999999999261
 31
0.0
  0
LINE
  5
10E
100
AcDbEntity
  8
0
  6
CONTINUOUS
 62
               4
100
AcDbLine
 10
44.000000030430783
 20
64.499999999999147
 30
0.0
 11
50.000000030430783
 21
64.499999999999034
 31
0.0
  0
LINE
  5
10F
100
AcDbEntity
  8
0
  6
CONTINUOUS
 62
               4
100
AcDbLine
 10
44.000000030430783
 20
71.499999999999147
 30
0.0
 11
50.000000030430783
 21
71.499999999999034
 31
0.0
  0
LINE
  5
110
100
AcDbEntity
  8
0
  6
CONTINUOUS
 62
               4
100
AcDbLine
 10
49.900000030430647
 20
56.299999994247912
 30
0.0
 11
49.900000030430647
 21
56.700207536079176
 31
0.0
  0
ARC
  5
111
100
AcDbEntity
  8
0
  6
CONTINUOUS
 62
               4
100
AcDbCircle
 10
49.600000030430465
 20
56.299999994247912
 30
0.0
 40
0.3
100
AcDbArc
 50
269.9999999999979
 51
359.99999999999767
  0
LINE
  5
112
100
AcDbEntity
  8
0
  6
CONTINUOUS
 62
               4
100
AcDbLine
 10
49.900000030430647
 20
56.700207536079176
 30
0.0
 11
51.300000017882439
 21
56.700207536079176
 31
0.0
  0
ARC
  5
113
100
AcDbEntity
  8
0
  6
CONTINUOUS
 62
               4
100
AcDbCircle
 10
34.400000030430647
 20
56.29999999424814
 30
0.0
 40
0.3
100
AcDbArc
 50
179.99999999999963
 51
269.99999999999937
  0
LINE
  5
114
100
AcDbEntity
  8
0
  6
CONTINUOUS
 62
               4
100
AcDbLine
 10
49.100000030430465
 20
54.400000000000148
 30
0.0
 11
49.100000030430465
 21
55.999999994247958
 31
0.0
  0
LINE
  5
115
100
AcDbEntity
  8
0
  6
CONTINUOUS
 62
               4
100
AcDbLine
 10
34.100000030430692
 20
56.299999994248253
 30
0.0
 11
34.100000030430692
 21
56.700207536079404
 31
0.0
  0
LINE
  5
116
100
AcDbEntity
  8
0
  6
CONTINUOUS
 62
               4
100
AcDbLine
 10
49.100000030430465
 20
55.999999994247958
 30
0.0
 11
51.30000003043051
 21
55.999999994247958
 31
0.0
  0
LINE
  5
117
100
AcDbEntity
  8
0
  6
CONTINUOUS
 62
               4
100
AcDbLine
 10
34.100000030430692
 20
56.700207536079404
 30
0.0
 11
32.700000042978672
 21
56.700207536079404
 31
0.0
  0
LINE
  5
118
100
AcDbEntity
  8
0
  6
CONTINUOUS
 62
               4
100
AcDbLine
 10
34.900000030430647
 20
55.999999994248185
 30
0.0
 11
32.700000030430601
 21
55.999999994248185
 31
0.0
  0
LINE
  5
119
100
AcDbEntity
  8
0
  6
CONTINUOUS
 62
               4
100
AcDbLine
 10
51.30000003043051
 20
46.400000000000375
 30
0.0
 11
51.30000003043051
 21
56.700207536079176
 31
0.0
  0
ARC
  5
11A
100
AcDbEntity
  8
0
  6
CONTINUOUS
 62
               4
100
AcDbCircle
 10
38.500000030430556
 20
45.200000000000443
 30
0.0
 40
0.5
100
AcDbArc
 50
179.99999999999807
 51
269.9999999999979
  0
LINE
  5
11B
100
AcDbEntity
  8
0
  6
CONTINUOUS
 62
               4
100
AcDbLine
 10
38.000000030430556
 20
45.200000000000443
 30
0.0
 11
38.000000030430556
 21
45.900000000000489
 31
0.0
  0
ARC
  5
11C
100
AcDbEntity
  8
0
  6
CONTINUOUS
 62
               4
100
AcDbCircle
 10
45.500000030430556
 20
45.20000000000033
 30
0.0
 40
0.5
100
AcDbArc
 50
269.99999999999937
 51
0.0
  0
LINE
  5
11D
100
AcDbEntity
  8
0
  6
CONTINUOUS
 62
               4
100
AcDbLine
 10
46.000000030430556
 20
45.20000000000033
 30
0.0
 11
46.000000030430556
 21
45.900000000000375
 31
0.0
  0
LINE
  5
11E
100
AcDbEntity
  8
0
  6
CONTINUOUS
 62
               4
100
AcDbLine
 10
45.500000030430556
 20
44.70000000000033
 30
0.0
 11
38.500000030430556
 21
44.70000000000033
 31
0.0
  0
ARC
  5
11F
100
AcDbEntity
  8
0
  6
CONTINUOUS
 62
               4
100
AcDbCircle
 10
48.600000030430465
 20
54.400000000000375
 30
0.0
 40
0.5
100
AcDbArc
 50
269.99999999999937
 51
0.0
  0
ARC
  5
120
100
AcDbEntity
  8
0
  6
CONTINUOUS
 62
               4
100
AcDbCircle
 10
35.400000030430647
 20
54.400000000000375
 30
0.0
 40
0.5
100
AcDbArc
 50
179.99999999999963
 51
269.99999999999937
  0
LINE
  5
121
100
AcDbEntity
  8
0
  6
CONTINUOUS
 62
               4
100
AcDbLine
 10
34.900000030430647
 20
54.400000000000375
 30
0.0
 11
34.900000030430647
 21
55.999999994248185
 31
0.0
  0
ARC
  5
122
100
AcDbEntity
  8
0
  6
CONTINUOUS
 62
               4
100
AcDbCircle
 10
33.200000030430374
 20
46.400000000000375
 30
0.0
 40
0.5
100
AcDbArc
 50
179.99999999999963
 51
269.99999999999937
  0
LINE
  5
123
100
AcDbEntity
  8
0
  6
CONTINUOUS
 62
               4
100
AcDbLine
 10
32.700000030430374
 20
46.400000000000603
 30
0.0
 11
32.700000030430601
 21
56.700207536079404
 31
0.0
  0
ARC
  5
124
100
AcDbEntity
  8
0
  6
CONTINUOUS
 62
               4
100
AcDbCircle
 10
50.80000003043051
 20
46.400000000000375
 30
0.0
 40
0.5
100
AcDbArc
 50
269.99999999999937
 51
0.0
  0
LINE
  5
125
100
AcDbEntity
  8
0
  6
CONTINUOUS
 62
               4
100
AcDbLine
 10
50.80000003043051
 20
45.900000000000375
 30
0.0
 11
46.000000030430556
 21
45.900000000000375
 31
0.0
  0
LINE
  5
126
100
AcDbEntity
  8
0
  6
CONTINUOUS
 62
               4
100
AcDbLine
 10
48.600000030430465
 20
53.900000000000375
 30
0.0
 11
35.400000030430647
 21
53.900000000000375
 31
0.0
  0
LINE
  5
127
100
AcDbEntity
  8
0
  6
CONTINUOUS
 62
               7
100
AcDbLine
 10
52.600000041723433
 20
25.999999999999034
 30
0.0
 11
53.40000002384204
 21
25.999999999999034
 31
0.0
  0
ARC
  5
128
100
AcDbEntity
  8
0
  6
CONTINUOUS
 62
               7
100
AcDbCircle
 10
53.400000030430419
 20
26.499999999999034
 30
0.0
 40
0.5
100
AcDbArc
 50
269.9999999999979
 51
359.99999999999767
  0
LINE
  5
129
100
AcDbEntity
  8
0
  6
CONTINUOUS
 62
               7
100
AcDbLine
 10
52.600000030430465
 20
24.499999999798263
 30
0.0
 11
52.600000030430238
 21
31.999999999998693
 31
0.0
  0
ARC
  5
12A
100
AcDbEntity
  8
0
  6
CONTINUOUS
 62
               7
100
AcDbCircle
 10
30.60000003043001
 20
26.499999999999375
 30
0.0
 40
0.5
100
AcDbArc
 50
179.99999999999963
 51
269.99999999999937
  0
LINE
  5
12B
100
AcDbEntity
  8
0
  6
CONTINUOUS
 62
               7
100
AcDbLine
 10
31.400000019136769
 20
25.999999999999375
 30
0.0
 11
30.600000037018162
 21
25.999999999999375
 31
0.0
  0
LINE
  5
12C
100
AcDbEntity
  8
0
  6
CONTINUOUS
 62
               7
100
AcDbLine
 10
31.400000030429737
 20
24.499999999798263
 30
0.0
 11
31.400000030430192
 21
31.999999999999034
 31
0.0
  0
LINE
  5
12D
100
AcDbEntity
  8
0
  6
CONTINUOUS
 62
               7
100
AcDbLine
 10
30.10000003043001
 20
31.999999999999034
 30
0.0
 11
53.900000030430419
 21
31.999999999998579
 31
0.0
  0
LINE
  5
12E
100
AcDbEntity
  8
0
  6
CONTINUOUS
 62
               4
100
AcDbLine
 10
31.300000031057834
 20
72.900000000001512
 30
0.0
 11
30.100000037018162
 21
72.900000000001512
 31
0.0
  0
LINE
  5
12F
100
AcDbEntity
  8
0
  6
CONTINUOUS
 62
               4
100
AcDbLine
 10
31.300000030430738
 20
72.900000000001512
 30
0.0
 11
31.300000030430738
 21
76.100000000001558
 31
0.0
  0
LINE
  5
130
100
AcDbEntity
  8
0
  6
CONTINUOUS
 62
               4
100
AcDbLine
 10
44.000000030430783
 20
71.499999999999147
 30
0.0
 11
44.000000030430783
 21
64.499999999999147
 31
0.0
  0
LINE
  5
131
100
AcDbEntity
  8
0
  6
CONTINUOUS
 62
               4
100
AcDbLine
 10
50.000000030430783
 20
71.499999999999034
 30
0.0
 11
50.000000030430783
 21
64.499999999999034
 31
0.0
  0
LINE
  5
132
100
AcDbEntity
  8
0
  6
CONTINUOUS
 62
               4
100
AcDbLine
 10
31.300000031057834
 20
76.100000000001558
 30
0.0
 11
30.100000037018162
 21
76.100000000001558
 31
0.0
  0
ARC
  5
133
100
AcDbEntity
  8
0
  6
CONTINUOUS
 62
               4
100
AcDbCircle
 10
31.10000003043092
 20
76.999999999999261
 30
0.0
 40
1.0
100
AcDbArc
 50
89.999999999999815
 51
179.99999999999963
  0
LINE
  5
134
100
AcDbEntity
  8
0
  6
CONTINUOUS
 62
               4
100
AcDbLine
 10
52.700000030430829
 20
72.900000000001285
 30
0.0
 11
52.700000030430829
 21
76.10000000000133
 31
0.0
  0
LINE
  5
135
100
AcDbEntity
  8
0
  6
CONTINUOUS
 62
               4
100
AcDbLine
 10
31.10000003043092
 20
77.999999999999261
 30
0.0
 11
52.900000030430874
 21
77.999999999999034
 31
0.0
  0
ARC
  5
136
100
AcDbEntity
  8
0
  6
CONTINUOUS
 62
               4
100
AcDbCircle
 10
52.900000030430874
 20
76.99999999999892
 30
0.0
 40
1.0
100
AcDbArc
 50
359.99999999999847
 51
89.999999999998266
  0
LINE
  5
137
100
AcDbEntity
  8
0
  6
CONTINUOUS
 62
               4
100
AcDbLine
 10
52.700000029803959
 20
76.10000000000133
 30
0.0
 11
53.900000023843404
 21
76.100000000001216
 31
0.0
  0
LINE
  5
138
100
AcDbEntity
  8
0
  6
CONTINUOUS
 62
               4
100
AcDbLine
 10
52.700000029803959
 20
72.900000000001285
 30
0.0
 11
53.900000023843404
 21
72.900000000001171
 31
0.0
  0
ARC
  5
139
100
AcDbEntity
  8
0
  6
CONTINUOUS
 62
               4
100
AcDbCircle
 10
45.517157317294959
 20
47.699999999999079
 30
0.0
 40
0.2
100
AcDbArc
 50
269.99999999999937
 51
45.000000000000966
  0
ARC
  5
13A
100
AcDbEntity
  8
0
  6
CONTINUOUS
 62
               4
100
AcDbCircle
 10
38.482842743565925
 20
47.699999999999079
 30
0.0
 40
0.2
100
AcDbArc
 50
134.99999999999793
 51
269.99999999999937
  0
ARC
  5
13B
100
AcDbEntity
  8
0
  6
CONTINUOUS
 62
               4
100
AcDbCircle
 10
42.000000030430556
 20
51.217157286863483
 30
0.0
 40
0.2
100
AcDbArc
 50
44.99999999999919
 51
134.99999999999898
  0
LINE
  5
13C
100
AcDbEntity
  8
0
  6
CONTINUOUS
 62
               4
100
AcDbLine
 10
42.141421386667844
 20
51.35857864310077
 30
0.0
 11
45.658578673532247
 21
47.841421356236367
 31
0.0
  0
LINE
  5
13D
100
AcDbEntity
  8
0
  6
CONTINUOUS
 62
               4
100
AcDbLine
 10
41.858578674193268
 20
51.35857864310077
 30
0.0
 11
38.341421387328637
 21
47.841421356236367
 31
0.0
  0
LINE
  5
13E
100
AcDbEntity
  8
0
  6
CONTINUOUS
 62
               4
100
AcDbLine
 10
45.517157317294959
 20
47.499999999999034
 30
0.0
 11
38.482842743565925
 21
47.499999999999034
 31
0.0
  0
LINE
  5
13F
100
AcDbEntity
  8
0
  6
CONTINUOUS
 62
               4
100
AcDbLine
 10
34.100000030430465
 20
53.799999999999216
 30
0.0
 11
34.100000030430692
 21
55.899999999999125
 31
0.0
  0
LINE
  5
140
100
AcDbEntity
  8
0
  6
CONTINUOUS
 62
               4
100
AcDbLine
 10
34.100000030430692
 20
55.899999999999125
 30
0.0
 11
32.700000030430601
 21
55.899999999999125
 31
0.0
  0
ARC
  5
141
100
AcDbEntity
  8
0
  6
CONTINUOUS
 62
               4
100
AcDbCircle
 10
33.200000030430374
 20
46.499999999999034
 30
0.0
 40
0.5
100
AcDbArc
 50
179.99999999999963
 51
269.99999999999937
  0
LINE
  5
142
100
AcDbEntity
  8
0
  6
CONTINUOUS
 62
               4
100
AcDbLine
 10
50.80000003043051
 20
45.999999999999034
 30
0.0
 11
33.200000030430374
 21
45.999999999999034
 31
0.0
  0
ARC
  5
143
100
AcDbEntity
  8
0
  6
CONTINUOUS
 62
               4
100
AcDbCircle
 10
50.80000003043051
 20
46.499999999998806
 30
0.0
 40
0.5
100
AcDbArc
 50
269.9999999999979
 51
359.99999999999767
  0
LINE
  5
144
100
AcDbEntity
  8
0
  6
CONTINUOUS
 62
               4
100
AcDbLine
 10
49.900000030430647
 20
53.799999999999216
 30
0.0
 11
49.900000030430647
 21
55.89999999999867
 31
0.0
  0
LINE
  5
145
100
AcDbEntity
  8
0
  6
CONTINUOUS
 62
               4
100
AcDbLine
 10
49.900000030430647
 20
55.89999999999867
 30
0.0
 11
51.30000003043051
 21
55.89999999999867
 31
0.0
  0
LINE
  5
146
100
AcDbEntity
  8
0
  6
CONTINUOUS
 62
               4
100
AcDbLine
 10
51.30000003043051
 20
53.799999999999216
 30
0.0
 11
32.700000030430601
 21
53.799999999999216
 31
0.0
  0
LINE
  5
147
100
AcDbEntity
  8
0
  6
CONTINUOUS
 62
               7
100
AcDbLine
 10
49.800000030430056
 20
14.866025388240644
 30
0.0
 11
49.800000030429942
 21
13.133974611759015
 31
0.0
  0
LINE
  5
148
100
AcDbEntity
  8
0
  6
CONTINUOUS
 62
               7
100
AcDbLine
 10
52.800000030430056
 20
14.866025686263754
 30
0.0
 11
52.800000030429942
 21
13.133974313735678
 31
0.0
  0
LINE
  5
149
100
AcDbEntity
  8
0
  6
CONTINUOUS
 62
               7
100
AcDbLine
 10
52.80000043029213
 20
14.866025261045763
 30
0.0
 11
51.300000277660274
 21
15.732050605652944
 31
0.0
  0
LINE
  5
14A
100
AcDbEntity
  8
0
  6
CONTINUOUS
 62
               7
100
AcDbLine
 10
51.300000672989881
 20
12.267949981834249
 30
0.0
 11
49.80000052035814
 21
13.13397532644143
 31
0.0
  0
LINE
  5
14B
100
AcDbEntity
  8
0
  6
CONTINUOUS
 62
               7
100
AcDbLine
 10
51.300000672990109
 20
15.732050018165296
 30
0.0
 11
49.80000052035814
 21
14.866024673558229
 31
0.0
  0
LINE
  5
14C
100
AcDbEntity
  8
0
  6
CONTINUOUS
 62
               7
100
AcDbLine
 10
52.800000430292016
 20
13.133974738953668
 30
0.0
 11
51.30000027766016
 21
12.267949394346601
 31
0.0
  0
CIRCLE
  5
14D
100
AcDbEntity
  8
0
  6
CONTINUOUS
 62
               7
100
AcDbCircle
 10
51.300000030430056
 20
13.999999999999773
 30
0.0
 40
3.5
  0
CIRCLE
  5
14E
100
AcDbEntity
  8
0
  6
CONTINUOUS
 62
               7
100
AcDbCircle
 10
51.300000030430056
 20
14.000000119209062
 30
0.0
 40
2.9803848266601563
  0
LINE
  5
14F
100
AcDbEntity
  8
0
  6
CONTINUOUS
 62
               7
100
AcDbLine
 10
31.200000030429578
 20
-42.133974611758902
 30
0.0
 11
31.200000030429578
 21
-43.86602538824053
 31
0.0
  0
LINE
  5
150
100
AcDbEntity
  8
0
  6
CONTINUOUS
 62
               7
100
AcDbLine
 10
34.200000030429578
 20
-42.133974313735678
 30
0.0
 11
34.200000030429578
 21
-43.866025686263754
 31
0.0
  0
LINE
  5
151
100
AcDbEntity
  8
0
  6
CONTINUOUS
 62
               7
100
AcDbLine
 10
34.200000430291652
 20
-42.133974738953668
 30
0.0
 11
32.70000027765991
 21
-41.267949394346545
 31
0.0
  0
LINE
  5
152
100
AcDbEntity
  8
0
  6
CONTINUOUS
 62
               7
100
AcDbLine
 10
32.700000672989518
 20
-44.732050018165239
 30
0.0
 11
31.200000520357662
 21
-43.866024673558115
 31
0.0
  0
LINE
  5
153
100
AcDbEntity
  8
0
  6
CONTINUOUS
 62
               7
100
AcDbLine
 10
32.700000672989631
 20
-41.267949981834192
 30
0.0
 11
31.200000520357776
 21
-42.133975326441316
 31
0.0
  0
LINE
  5
154
100
AcDbEntity
  8
0
  6
CONTINUOUS
 62
               7
100
AcDbLine
 10
34.200000430291652
 20
-43.866025261045763
 30
0.0
 11
32.700000277659683
 21
-44.732050605652887
 31
0.0
  0
CIRCLE
  5
155
100
AcDbEntity
  8
0
  6
CONTINUOUS
 62
               7
100
AcDbCircle
 10
32.700000030429578
 20
-42.999999999999716
 30
0.0
 40
3.5
  0
CIRCLE
  5
156
100
AcDbEntity
  8
0
  6
CONTINUOUS
 62
               7
100
AcDbCircle
 10
32.700000030429578
 20
-42.999999880790426
 30
0.0
 40
2.9803848266601563
  0
LINE
  5
157
100
AcDbEntity
  8
0
  6
CONTINUOUS
 62
               7
100
AcDbLine
 10
30.100000030429328
 20
-45.343074902771662
 30
0.0
 11
30.100000030429328
 21
-57.999999982866086
 31
0.0
  0
LINE
  5
158
100
AcDbEntity
  8
0
  6
CONTINUOUS
 62
               7
100
AcDbLine
 10
30.099999986577359
 20
-40.656925145888465
 30
0.0
 11
30.099999986577359
 21
10.267949145536647
 31
0.0
  0
LINE
  5
159
100
AcDbEntity
  8
0
  6
CONTINUOUS
 62
               4
100
AcDbLine
 10
25.298657982824665
 20
-99.299999982865103
 30
0.0
 11
24.698657982824699
 21
-99.299999982865103
 31
0.0
  0
LINE
  5
15A
100
AcDbEntity
  8
0
  6
CONTINUOUS
 62
               4
100
AcDbLine
 10
25.298657982824665
 20
-99.299999982865103
 30
0.0
 11
25.298657982824665
 21
-98.323999982865104
 31
0.0
  0
LINE
  5
15B
100
AcDbEntity
  8
0
  6
CONTINUOUS
 62
               4
100
AcDbLine
 10
24.698657982824699
 20
-99.299999982865103
 30
0.0
 11
24.698657982824699
 21
-98.323999982865104
 31
0.0
  0
LINE
  5
15C
100
AcDbEntity
  8
0
  6
CONTINUOUS
 62
               4
100
AcDbLine
 10
26.976657982824662
 20
-99.999999982865091
 30
0.0
 11
23.022657982824711
 21
-99.999999982865091
 31
0.0
  0
LINE
  5
15D
100
AcDbEntity
  8
0
  6
CONTINUOUS
 62
               4
100
AcDbLine
 10
26.976657982824662
 20
-100.59999998286511
 30
0.0
 11
23.022657982824711
 21
-100.59999998286511
 31
0.0
  0
CIRCLE
  5
15E
100
AcDbEntity
  8
0
  6
CONTINUOUS
 62
               4
100
AcDbCircle
 10
25.000000023840329
 20
-100.2999999828651
 30
0.0
 40
2.0
  0
LINE
  5
15F
100
AcDbEntity
  8
0
  6
CONTINUOUS
 62
               4
100
AcDbLine
 10
27.40000003907366
 20
-79.99999998286512
 30
0.0
 11
21.40000003907366
 21
-79.99999998286512
 31
0.0
  0
LINE
  5
160
100
AcDbEntity
  8
0
  6
CONTINUOUS
 62
               4
100
AcDbLine
 10
27.40000003907366
 20
-77.99999998286512
 30
0.0
 11
21.40000003907366
 21
-77.99999998286512
 31
0.0
  0
LINE
  5
161
100
AcDbEntity
  8
0
  6
CONTINUOUS
 62
               4
100
AcDbLine
 10
21.40000003907366
 20
-77.99999998286512
 30
0.0
 11
21.40000003907366
 21
-79.99999998286512
 31
0.0
  0
LINE
  5
162
100
AcDbEntity
  8
0
  6
CONTINUOUS
 62
               4
100
AcDbLine
 10
27.40000003907366
 20
-77.99999998286512
 30
0.0
 11
27.40000003907366
 21
-79.99999998286512
 31
0.0
  0
LINE
  5
163
100
AcDbEntity
  8
0
  6
CENTER
 62
             200
100
AcDbLine
 10
22.000000023840329
 20
-100.2999999828651
 30
0.0
 11
28.000000023840329
 21
-100.2999999828651
 31
0.0
  0
LINE
  5
164
100
AcDbEntity
  8
0
  6
CONTINUOUS
 62
               4
100
AcDbLine
 10
27.400000023840079
 20
-87.99999998286512
 30
0.0
 11
27.900000023840079
 21
-87.99999998286512
 31
0.0
  0
LINE
  5
165
100
AcDbEntity
  8
0
  6
CONTINUOUS
 62
               4
100
AcDbLine
 10
21.600000023840067
 20
-87.99999998286512
 30
0.0
 11
22.100000023840067
 21
-87.99999998286512
 31
0.0
  0
LINE
  5
166
100
AcDbEntity
  8
0
  6
CONTINUOUS
 62
               4
100
AcDbLine
 10
22.100000023840067
 20
-87.99999998286512
 30
0.0
 11
22.100000023840067
 21
-82.99999998286512
 31
0.0
  0
LINE
  5
167
100
AcDbEntity
  8
0
  6
CONTINUOUS
 62
               4
100
AcDbLine
 10
27.400000023840079
 20
-87.99999998286512
 30
0.0
 11
27.400000023840079
 21
-82.99999998286512
 31
0.0
  0
LINE
  5
168
100
AcDbEntity
  8
0
  6
CONTINUOUS
 62
               4
100
AcDbLine
 10
27.900000023840079
 20
-87.99999998286512
 30
0.0
 11
27.900000023840079
 21
-82.99999998286512
 31
0.0
  0
LINE
  5
169
100
AcDbEntity
  8
0
  6
CONTINUOUS
 62
               4
100
AcDbLine
 10
21.600000023840067
 20
-87.99999998286512
 30
0.0
 11
21.600000023840067
 21
-82.99999998286512
 31
0.0
  0
ARC
  5
16A
100
AcDbEntity
  8
0
  6
CONTINUOUS
 62
               4
100
AcDbCircle
 10
28.40000003907366
 20
-97.099999982865114
 30
0.0
 40
0.5
100
AcDbArc
 50
0.0
 51
89.999999999999815
  0
ARC
  5
16B
100
AcDbEntity
  8
0
  6
CONTINUOUS
 62
               4
100
AcDbCircle
 10
28.40000003907366
 20
-103.49999998286512
 30
0.0
 40
0.5
100
AcDbArc
 50
270.00000000000023
 51
0.0
  0
ARC
  5
16C
100
AcDbEntity
  8
0
  6
CONTINUOUS
 62
               4
100
AcDbCircle
 10
21.600000008606997
 20
-103.49999998286512
 30
0.0
 40
0.5
100
AcDbArc
 50
179.99999999999963
 51
269.99999999999937
  0
ARC
  5
16D
100
AcDbEntity
  8
0
  6
CONTINUOUS
 62
               4
100
AcDbCircle
 10
21.600000008606997
 20
-97.099999982865114
 30
0.0
 40
0.5
100
AcDbArc
 50
89.999999999999815
 51
179.99999999999963
  0
LINE
  5
16E
100
AcDbEntity
  8
0
  6
CONTINUOUS
 62
               4
100
AcDbLine
 10
21.600000008606997
 20
-96.599999982865114
 30
0.0
 11
28.40000003907366
 21
-96.599999982865114
 31
0.0
  0
LINE
  5
16F
100
AcDbEntity
  8
0
  6
CONTINUOUS
 62
               4
100
AcDbLine
 10
21.100000008606997
 20
-103.49999998286512
 30
0.0
 11
21.100000008606997
 21
-97.099999982865114
 31
0.0
  0
LINE
  5
170
100
AcDbEntity
  8
0
  6
CONTINUOUS
 62
               4
100
AcDbLine
 10
28.90000003907366
 20
-103.49999998286512
 30
0.0
 11
28.90000003907366
 21
-97.099999982865114
 31
0.0
  0
LINE
  5
171
100
AcDbEntity
  8
0
  6
CONTINUOUS
 62
               4
100
AcDbLine
 10
21.600000008606997
 20
-103.99999998286512
 30
0.0
 11
28.40000003907366
 21
-103.99999998286512
 31
0.0
  0
CIRCLE
  5
172
100
AcDbEntity
  8
0
  6
CONTINUOUS
 62
               4
100
AcDbCircle
 10
25.000000023840329
 20
-100.2999999828651
 30
0.0
 40
2.1000000000000001
  0
LINE
  5
173
100
AcDbEntity
  8
0
  6
CENTER
 62
             200
100
AcDbLine
 10
25.000000023840329
 20
-103.2999999828651
 30
0.0
 11
25.000000023840329
 21
-97.299999982865103
 31
0.0
  0
LINE
  5
174
100
AcDbEntity
  8
0
  6
CONTINUOUS
 62
               4
100
AcDbLine
 10
30.000000023840386
 20
-82.99999998286512
 30
0.0
 11
6.0000000238403288
 21
-82.99999998286512
 31
0.0
  0
LINE
  5
175
100
AcDbEntity
  8
0
  6
CONTINUOUS
 62
               4
100
AcDbLine
 10
30.000000023840386
 20
-104.99999998286512
 30
0.0
 11
6.0000000238403288
 21
-104.99999998286512
 31
0.0
  0
LINE
  5
176
100
AcDbEntity
  8
0
  6
CONTINUOUS
 62
               4
100
AcDbLine
 10
20.400000023840306
 20
-109.99999998286512
 30
0.0
 11
20.400000023840306
 21
-104.99999998286609
 31
0.0
  0
LINE
  5
177
100
AcDbEntity
  8
0
  6
CONTINUOUS
 62
               4
100
AcDbLine
 10
24.400000023840306
 20
-109.99999998286512
 30
0.0
 11
24.400000023840306
 21
-104.99999998286609
 31
0.0
  0
LINE
  5
178
100
AcDbEntity
  8
0
  6
CONTINUOUS
 62
               4
100
AcDbLine
 10
20.250000023840329
 20
-109.99999998286512
 30
0.0
 11
20.250000023840329
 21
-104.99999998286609
 31
0.0
  0
LINE
  5
179
100
AcDbEntity
  8
0
  6
CONTINUOUS
 62
               4
100
AcDbLine
 10
24.55000002384034
 20
-109.99999998286512
 30
0.0
 11
24.55000002384034
 21
-104.99999998286609
 31
0.0
  0
LINE
  5
17A
100
AcDbEntity
  8
0
  6
CONTINUOUS
 62
               4
100
AcDbLine
 10
20.250000023840329
 20
-62.999999982866086
 30
0.0
 11
24.55000002384034
 21
-62.999999982866086
 31
0.0
  0
LINE
  5
17B
100
AcDbEntity
  8
0
  6
CONTINUOUS
 62
               4
100
AcDbLine
 10
6.9000000390734328
 20
-115.9999999615128
 30
0.0
 11
6.9000000390734328
 21
-109.99999998286586
 31
0.0
  0
LINE
  5
17C
100
AcDbEntity
  8
0
  6
CONTINUOUS
 62
               4
100
AcDbLine
 10
28.90000003907349
 20
-115.9999999615128
 30
0.0
 11
28.90000003907349
 21
-109.99999998286609
 31
0.0
  0
ARC
  5
17D
100
AcDbEntity
  8
0
  6
CONTINUOUS
 62
               4
100
AcDbCircle
 10
27.900000039073433
 20
-115.99999998286603
 30
0.0
 40
1.0
100
AcDbArc
 50
270.00000000000023
 51
0.0
  0
ARC
  5
17E
100
AcDbEntity
  8
0
  6
CONTINUOUS
 62
               4
100
AcDbCircle
 10
7.9000000390734328
 20
-115.99999998286603
 30
0.0
 40
1.0
100
AcDbArc
 50
179.99999999999963
 51
269.99999999999937
  0
LINE
  5
17F
100
AcDbEntity
  8
0
  6
CONTINUOUS
 62
               4
100
AcDbLine
 10
30.000000023840386
 20
-109.99999998286512
 30
0.0
 11
6.0000000238403288
 21
-109.99999998286512
 31
0.0
  0
LINE
  5
180
100
AcDbEntity
  8
0
  6
CONTINUOUS
 62
               4
100
AcDbLine
 10
20.250000023840329
 20
-62.99999998286512
 30
0.0
 11
20.250000023840329
 21
-57.999999982866086
 31
0.0
  0
LINE
  5
181
100
AcDbEntity
  8
0
  6
CONTINUOUS
 62
               4
100
AcDbLine
 10
24.55000002384034
 20
-62.99999998286512
 30
0.0
 11
24.55000002384034
 21
-57.999999982866086
 31
0.0
  0
LINE
  5
182
100
AcDbEntity
  8
0
  6
CONTINUOUS
 62
               4
100
AcDbLine
 10
10.178945291475628
 20
-117.0000000223416
 30
0.0
 11
10.178945291475628
 21
-110.0000000223416
 31
0.0
  0
LINE
  5
183
100
AcDbEntity
  8
0
  6
CONTINUOUS
 62
               4
100
AcDbLine
 10
13.977210286735811
 20
-117.0000000223416
 30
0.0
 11
13.977210286735811
 21
-110.0000000223416
 31
0.0
  0
LINE
  5
184
100
AcDbEntity
  8
0
  6
CONTINUOUS
 62
               4
100
AcDbLine
 10
6.0000000238403857
 20
-109.99999998286512
 30
0.0
 11
6.0000000238403857
 21
-82.99999998286512
 31
0.0
  0
LINE
  5
185
100
AcDbEntity
  8
0
  6
CONTINUOUS
 62
               4
100
AcDbLine
 10
30.000000023840386
 20
-109.99999998286512
 30
0.0
 11
30.000000023840386
 21
-82.99999998286512
 31
0.0
  0
LINE
  5
186
100
AcDbEntity
  8
0
  6
CONTINUOUS
 62
               7
100
AcDbLine
 10
53.900000030430363
 20
11.65692509722814
 30
0.0
 11
53.900000030429737
 21
-39.267949224103006
 31
0.0
  0
LINE
  5
187
100
AcDbEntity
  8
0
  6
CENTER
 62
             200
100
AcDbLine
 10
42.000000030429248
 20
-119.3739228749254
 30
0.0
 11
42.000000030429561
 21
-82.99999998286512
 31
0.0
  0
LINE
  5
188
100
AcDbEntity
  8
0
  6
CONTINUOUS
 62
               4
100
AcDbLine
 10
30.100000030429555
 20
77.11425569252242
 30
0.0
 11
30.100000030429555
 21
38.000000000002615
 31
0.0
  0
ENDBLK
  5
189
100
AcDbEntity
  8
0
100
AcDbBlockEnd
  0
BLOCK
  5
18A
100
AcDbEntity
  8
0
100
AcDbBlockBegin
  2
PA-H-2
 70
               0
 10
0.0
 20
0.0
 30
0.0
  3
PA-H-2
  1

  0
LINE
  5
18B
100
AcDbEntity
  8
0
  6
CONTINUOUS
 62
               7
100
AcDbLine
 10
30.100000031933405
 20
96.999999975906604
 30
0.0
 11
30.10000003193062
 21
61.999999975906547
 31
0.0
  0
LINE
  5
18C
100
AcDbEntity
  8
0
  6
CONTINUOUS
 62
               7
100
AcDbLine
 10
53.900000031933359
 20
96.999999975906519
 30
0.0
 11
53.900000031930517
 21
61.999999975906377
 31
0.0
  0
LINE
  5
18D
100
AcDbEntity
  8
0
  6
CENTER
 62
               2
100
AcDbLine
 10
42.000000023841181
 20
-3.1424285489004831
 30
0.0
 11
42.000000023841181
 21
101.90413716229475
 31
0.0
  0
LINE
  5
18E
100
AcDbEntity
  8
0
  6
CENTER
 62
               2
100
AcDbLine
 10
18.000000023841181
 20
-3.1424285489004831
 30
0.0
 11
18.000000023841181
 21
101.90413716229475
 31
0.0
  0
LINE
  5
18F
100
AcDbEntity
  8
0
  6
CONTINUOUS
 62
               7
100
AcDbLine
 10
29.900000031925771
 20
61.99999997590632
 30
0.0
 11
29.900000031928556
 21
96.999999975906377
 31
0.0
  0
LINE
  5
190
100
AcDbEntity
  8
0
  6
CONTINUOUS
 62
               7
100
AcDbLine
 10
6.1000000319258163
 20
61.999999975906405
 30
0.0
 11
6.1000000319286585
 21
96.999999975906547
 31
0.0
  0
LINE
  5
191
100
AcDbEntity
  8
0
  6
CENTER
 62
               2
100
AcDbLine
 10
10.50000003192892
 20
71.799999975657556
 30
0.0
 11
10.50000003192892
 21
61.299999975657556
 31
0.0
  0
LINE
  5
192
100
AcDbEntity
  8
0
  6
CENTER
 62
               2
100
AcDbLine
 10
34.500000031930256
 20
71.79999997565767
 30
0.0
 11
34.500000031930256
 21
61.29999997565767
 31
0.0
  0
LINE
  5
193
100
AcDbEntity
  8
0
  6
CENTER
 62
               2
100
AcDbLine
 10
60.000000030429248
 20
-5.0
 30
0.0
 11
60.000000030429248
 21
5.0
 31
0.0
  0
LINE
  5
194
100
AcDbEntity
  8
0
  6
CENTER
 62
               2
100
AcDbLine
 10
0.0
 20
-5.0
 30
0.0
 11
0.0
 21
5.0
 31
0.0
  0
CIRCLE
  5
195
100
AcDbEntity
  8
0
  6
CONTINUOUS
 62
               2
100
AcDbCircle
 10
18.000000023841181
 20
42.500000017234015
 30
0.0
 40
8.3310003280639648
  0
CIRCLE
  5
196
100
AcDbEntity
  8
0
  6
CONTINUOUS
 62
               7
100
AcDbCircle
 10
18.000000023841181
 20
42.500000017234015
 30
0.0
 40
7.4749994277954102
  0
CIRCLE
  5
197
100
AcDbEntity
  8
0
  6
CONTINUOUS
 62
               2
100
AcDbCircle
 10
18.000000023841181
 20
17.500000017234015
 30
0.0
 40
8.3310003280639648
  0
CIRCLE
  5
198
100
AcDbEntity
  8
0
  6
CONTINUOUS
 62
               7
100
AcDbCircle
 10
18.000000023841181
 20
17.500000017234015
 30
0.0
 40
7.4749994277954102
  0
CIRCLE
  5
199
100
AcDbEntity
  8
0
  6
CONTINUOUS
 62
               2
100
AcDbCircle
 10
42.000000023841181
 20
17.500000017234015
 30
0.0
 40
8.3310003280639648
  0
CIRCLE
  5
19A
100
AcDbEntity
  8
0
  6
CONTINUOUS
 62
               7
100
AcDbCircle
 10
42.000000023841181
 20
17.500000017234015
 30
0.0
 40
7.4749994277954102
  0
CIRCLE
  5
19B
100
AcDbEntity
  8
0
  6
CONTINUOUS
 62
               2
100
AcDbCircle
 10
42.000000023841181
 20
42.500000017233958
 30
0.0
 40
8.3310003280639648
  0
CIRCLE
  5
19C
100
AcDbEntity
  8
0
  6
CONTINUOUS
 62
               7
100
AcDbCircle
 10
42.000000023841181
 20
42.500000017233958
 30
0.0
 40
7.4749994277954102
  0
LINE
  5
19D
100
AcDbEntity
  8
0
  6
CENTER
 62
               2
100
AcDbLine
 10
28.475000023841176
 20
17.500000017234015
 30
0.0
 11
7.5250000238411872
 21
17.500000017234015
 31
0.0
  0
LINE
  5
19E
100
AcDbEntity
  8
0
  6
CENTER
 62
               2
100
AcDbLine
 10
52.475000023841176
 20
17.500000017234015
 30
0.0
 11
31.525000023841187
 21
17.500000017234015
 31
0.0
  0
LINE
  5
19F
100
AcDbEntity
  8
0
  6
CENTER
 62
               2
100
AcDbLine
 10
28.475000023841176
 20
42.500000017234015
 30
0.0
 11
7.5250000238411872
 21
42.500000017234015
 31
0.0
  0
LINE
  5
1A0
100
AcDbEntity
  8
0
  6
CENTER
 62
               2
100
AcDbLine
 10
52.475000023841176
 20
42.500000017233958
 30
0.0
 11
31.525000023841187
 21
42.500000017233958
 31
0.0
  0
LINE
  5
1A1
100
AcDbEntity
  8
0
  6
CENTER
 62
               2
100
AcDbLine
 10
39.750000031930256
 20
66.54999997565767
 30
0.0
 11
29.250000031930256
 21
66.54999997565767
 31
0.0
  0
LINE
  5
1A2
100
AcDbEntity
  8
0
  6
CENTER
 62
               2
100
AcDbLine
 10
15.75000003192892
 20
66.549999975657556
 30
0.0
 11
5.25000003192892
 21
66.549999975657556
 31
0.0
  0
LINE
  5
1A3
100
AcDbEntity
  8
0
  6
CONTINUOUS
 62
               7
100
AcDbLine
 10
7.1500000238411587
 20
59.5
 30
0.0
 11
52.90000003907457
 21
59.5
 31
0.0
  0
LINE
  5
1A4
100
AcDbEntity
  8
0
  6
CONTINUOUS
 62
               7
100
AcDbLine
 10
-13.500000000000142
 20
60.0
 30
0.0
 11
73.500000030429248
 21
60.0
 31
0.0
  0
LINE
  5
1A5
100
AcDbEntity
  8
0
  6
CONTINUOUS
 62
               7
100
AcDbLine
 10
-13.500000000000142
 20
0.0
 30
0.0
 11
73.500000030429248
 21
0.0
 31
0.0
  0
CIRCLE
  5
1A6
100
AcDbEntity
  8
0
  6
CONTINUOUS
 62
               7
100
AcDbCircle
 10
18.00000003192892
 20
65.249999975906462
 30
0.0
 40
4.0
  0
LINE
  5
1A7
100
AcDbEntity
  8
0
  6
CONTINUOUS
 62
               7
100
AcDbLine
 10
19.697056151044052
 20
66.947055951970356
 30
0.0
 11
16.302943238464167
 21
63.552943325492834
 31
0.0
  0
LINE
  5
1A8
100
AcDbEntity
  8
0
  6
CONTINUOUS
 62
               7
100
AcDbLine
 10
16.302944160173041
 20
66.947056199329722
 30
0.0
 11
19.697056786650677
 21
63.55294328674978
 31
0.0
  0
CIRCLE
  5
1A9
100
AcDbEntity
  8
0
  6
CONTINUOUS
 62
               7
100
AcDbCircle
 10
18.00000003192892
 20
65.249999975906462
 30
0.0
 40
4.0999999999999996
  0
ARC
  5
1AA
100
AcDbEntity
  8
0
  6
CONTINUOUS
 62
               7
100
AcDbCircle
 10
29.400000031928897
 20
64.914213544563722
 30
0.0
 40
0.5
100
AcDbArc
 50
269.99999999999937
 51
0.0
  0
CIRCLE
  5
1AB
100
AcDbEntity
  8
0
  6
CONTINUOUS
 62
               7
100
AcDbCircle
 10
10.50000003192892
 20
66.549999975657556
 30
0.0
 40
2.25
  0
ARC
  5
1AC
100
AcDbEntity
  8
0
  6
CONTINUOUS
 62
               7
100
AcDbCircle
 10
23.400000031929011
 20
61.499999975906405
 30
0.0
 40
0.5
100
AcDbArc
 50
269.99999999999937
 51
0.0
  0
ARC
  5
1AD
100
AcDbEntity
  8
0
  6
CONTINUOUS
 62
               7
100
AcDbCircle
 10
24.400000031929011
 20
63.914213544563722
 30
0.0
 40
0.5
100
AcDbArc
 50
89.999999999999815
 51
179.99999999999963
  0
LINE
  5
1AE
100
AcDbEntity
  8
0
  6
CONTINUOUS
 62
               7
100
AcDbLine
 10
24.400000031929011
 20
64.414213544563722
 30
0.0
 11
29.400000031928897
 21
64.414213544563722
 31
0.0
  0
LINE
  5
1AF
100
AcDbEntity
  8
0
  6
CONTINUOUS
 62
               7
100
AcDbLine
 10
23.900000031929011
 20
63.914213544563722
 30
0.0
 11
23.900000031929011
 21
61.499999975906405
 31
0.0
  0
ARC
  5
1B0
100
AcDbEntity
  8
0
  6
CONTINUOUS
 62
               7
100
AcDbCircle
 10
28.900000031928897
 20
61.999999975906405
 30
0.0
 40
1.0
100
AcDbArc
 50
269.99999999999937
 51
0.0
  0
ARC
  5
1B1
100
AcDbEntity
  8
0
  6
CONTINUOUS
 62
               7
100
AcDbCircle
 10
7.1000000319289427
 20
61.999999975906405
 30
0.0
 40
1.0
100
AcDbArc
 50
179.99999999999963
 51
269.99999999999937
  0
LINE
  5
1B2
100
AcDbEntity
  8
0
  6
CONTINUOUS
 62
               7
100
AcDbLine
 10
6.1000000319258163
 20
60.999999975906405
 30
0.0
 11
29.900000031925771
 21
60.999999975906405
 31
0.0
  0
LINE
  5
1B3
100
AcDbEntity
  8
0
  6
CONTINUOUS
 62
               7
100
AcDbLine
 10
29.900000031925771
 20
60.0
 30
0.0
 11
29.900000031925771
 21
61.0
 31
0.0
  0
LINE
  5
1B4
100
AcDbEntity
  8
0
  6
CONTINUOUS
 62
               7
100
AcDbLine
 10
6.1000000319258163
 20
60.0
 30
0.0
 11
6.1000000319258163
 21
61.0
 31
0.0
  0
LINE
  5
1B5
100
AcDbEntity
  8
0
  6
CONTINUOUS
 62
               7
100
AcDbLine
 10
-13.500000000000142
 20
60.0
 30
0.0
 11
-13.500000000000142
 21
0.0
 31
0.0
  0
LINE
  5
1B6
100
AcDbEntity
  8
0
  6
CONTINUOUS
 62
               7
100
AcDbLine
 10
73.500000030429248
 20
60.0
 30
0.0
 11
73.500000030429248
 21
0.0
 31
0.0
  0
ARC
  5
1B7
100
AcDbEntity
  8
0
  6
CONTINUOUS
 62
               7
100
AcDbCircle
 10
22.400000008607918
 20
58.5
 30
0.0
 40
2.25
100
AcDbArc
 50
179.99999999999963
 51
0.0
  0
LINE
  5
1B8
100
AcDbEntity
  8
0
  6
CONTINUOUS
 62
               7
100
AcDbLine
 10
24.650000008607918
 20
59.0
 30
0.0
 11
24.650000008607918
 21
58.5
 31
0.0
  0
LINE
  5
1B9
100
AcDbEntity
  8
0
  6
CONTINUOUS
 62
               7
100
AcDbLine
 10
20.150000008607918
 20
59.0
 30
0.0
 11
20.150000008607918
 21
58.5
 31
0.0
  0
ARC
  5
1BA
100
AcDbEntity
  8
0
  6
CONTINUOUS
 62
               7
100
AcDbCircle
 10
13.600000039074445
 20
1.4999999654949079
 30
0.0
 40
2.25
100
AcDbArc
 50
0.0
 51
179.99999999999963
  0
LINE
  5
1BB
100
AcDbEntity
  8
0
  6
CONTINUOUS
 62
               7
100
AcDbLine
 10
15.850000039074445
 20
0.9999999654949079
 30
0.0
 11
15.850000039074445
 21
1.4999999654949079
 31
0.0
  0
LINE
  5
1BC
100
AcDbEntity
  8
0
  6
CONTINUOUS
 62
               7
100
AcDbLine
 10
11.350000039074445
 20
0.9999999654949079
 30
0.0
 11
11.350000039074445
 21
1.4999999654949079
 31
0.0
  0
ARC
  5
1BD
100
AcDbEntity
  8
0
  6
CONTINUOUS
 62
               7
100
AcDbCircle
 10
10.850000039074445
 20
0.9999999654949079
 30
0.0
 40
0.5
100
AcDbArc
 50
269.99999999999937
 51
0.0
  0
ARC
  5
1BE
100
AcDbEntity
  8
0
  6
CONTINUOUS
 62
               7
100
AcDbCircle
 10
16.350000039074445
 20
0.9999999654949079
 30
0.0
 40
0.5
100
AcDbArc
 50
179.99999999999963
 51
269.99999999999937
  0
ARC
  5
1BF
100
AcDbEntity
  8
0
  6
CONTINUOUS
 62
               7
100
AcDbCircle
 10
19.650000008607918
 20
59.0
 30
0.0
 40
0.5
100
AcDbArc
 50
0.0
 51
89.999999999999815
  0
ARC
  5
1C0
100
AcDbEntity
  8
0
  6
CONTINUOUS
 62
               7
100
AcDbCircle
 10
25.150000008607918
 20
59.0
 30
0.0
 40
0.5
100
AcDbArc
 50
89.999999999999815
 51
179.99999999999963
  0
ARC
  5
1C1
100
AcDbEntity
  8
0
  6
CONTINUOUS
 62
               7
100
AcDbCircle
 10
18.000000023841181
 20
42.500000017233958
 30
0.0
 40
11.699999999999999
100
AcDbArc
 50
131.94879674482874
 51
110.11028008888883
  0
ARC
  5
1C2
100
AcDbEntity
  8
0
  6
CONTINUOUS
 62
               7
100
AcDbCircle
 10
18.000000023841181
 20
17.500000017234015
 30
0.0
 40
11.699999999999999
100
AcDbArc
 50
311.94879625562083
 51
290.11028030534595
  0
ARC
  5
1C3
100
AcDbEntity
  8
0
  6
CONTINUOUS
 62
               7
100
AcDbCircle
 10
7.1000000086077932
 20
58.5
 30
0.0
 40
1.0
100
AcDbArc
 50
89.999999999999815
 51
179.99999999999963
  0
ARC
  5
1C4
100
AcDbEntity
  8
0
  6
CONTINUOUS
 62
               7
100
AcDbCircle
 10
28.90000003907457
 20
58.5
 30
0.0
 40
1.0
100
AcDbArc
 50
0.0
 51
89.999999999999815
  0
ARC
  5
1C5
100
AcDbEntity
  8
0
  6
CONTINUOUS
 62
               7
100
AcDbCircle
 10
7.1000000086077932
 20
1.4999999654949079
 30
0.0
 40
1.0
100
AcDbArc
 50
179.99999999999963
 51
269.99999999999937
  0
ARC
  5
1C6
100
AcDbEntity
  8
0
  6
CONTINUOUS
 62
               7
100
AcDbCircle
 10
28.90000003907457
 20
1.4999999654949079
 30
0.0
 40
1.0
100
AcDbArc
 50
270.00000000000023
 51
0.0
  0
CIRCLE
  5
1C7
100
AcDbEntity
  8
0
  6
CONTINUOUS
 62
               7
100
AcDbCircle
 10
10.300000023841136
 20
55.299999862016307
 30
0.0
 40
4.0999999999999996
  0
CIRCLE
  5
1C8
100
AcDbEntity
  8
0
  6
CONTINUOUS
 62
               7
100
AcDbCircle
 10
25.700000023841227
 20
4.700000103478601
 30
0.0
 40
4.0999999999999996
  0
LINE
  5
1C9
100
AcDbEntity
  8
0
  6
CONTINUOUS
 62
               7
100
AcDbLine
 10
6.1000000086078501
 20
20.700000012780777
 30
0.0
 11
6.1000000086078501
 21
39.89999995271404
 31
0.0
  0
LINE
  5
1CA
100
AcDbEntity
  8
0
  6
CONTINUOUS
 62
               7
100
AcDbLine
 10
6.1000000086078501
 20
45.700000057557475
 30
0.0
 11
6.1000000086078501
 21
58.5
 31
0.0
  0
LINE
  5
1CB
100
AcDbEntity
  8
0
  6
CONTINUOUS
 62
               7
100
AcDbLine
 10
6.1000000086078501
 20
45.700000057557475
 30
0.0
 11
6.3000000466913946
 21
45.50000001947393
 31
0.0
  0
LINE
  5
1CC
100
AcDbEntity
  8
0
  6
CONTINUOUS
 62
               7
100
AcDbLine
 10
6.3000000466913946
 20
40.099999990797585
 30
0.0
 11
6.1000000086078501
 21
39.89999995271404
 31
0.0
  0
LINE
  5
1CD
100
AcDbEntity
  8
0
  6
CONTINUOUS
 62
               7
100
AcDbLine
 10
6.3000000466913946
 20
40.099999990797585
 30
0.0
 11
6.3000000466913946
 21
45.50000001947393
 31
0.0
  0
LINE
  5
1CE
100
AcDbEntity
  8
0
  6
CONTINUOUS
 62
               7
100
AcDbLine
 10
29.90000003907457
 20
20.700000012780777
 30
0.0
 11
29.90000003907457
 21
39.89999995271404
 31
0.0
  0
LINE
  5
1CF
100
AcDbEntity
  8
0
  6
CONTINUOUS
 62
               7
100
AcDbLine
 10
29.90000003907457
 20
45.700000057557475
 30
0.0
 11
29.90000003907457
 21
58.5
 31
0.0
  0
LINE
  5
1D0
100
AcDbEntity
  8
0
  6
CONTINUOUS
 62
               7
100
AcDbLine
 10
29.700000000991025
 20
40.099999990797585
 30
0.0
 11
29.700000000991025
 21
45.50000001947393
 31
0.0
  0
LINE
  5
1D1
100
AcDbEntity
  8
0
  6
CONTINUOUS
 62
               7
100
AcDbLine
 10
29.700000000991025
 20
40.099999990797585
 30
0.0
 11
29.90000003907457
 21
39.89999995271404
 31
0.0
  0
LINE
  5
1D2
100
AcDbEntity
  8
0
  6
CONTINUOUS
 62
               7
100
AcDbLine
 10
29.90000003907457
 20
45.700000057557475
 30
0.0
 11
29.700000000991025
 21
45.50000001947393
 31
0.0
  0
LINE
  5
1D3
100
AcDbEntity
  8
0
  6
CONTINUOUS
 62
               7
100
AcDbLine
 10
6.1000000086078501
 20
1.4999999733590812
 30
0.0
 11
6.1000000086078501
 21
14.899999901833496
 31
0.0
  0
LINE
  5
1D4
100
AcDbEntity
  8
0
  6
CONTINUOUS
 62
               7
100
AcDbLine
 10
6.3000000466913946
 20
20.499999974697232
 30
0.0
 11
6.1000000086078501
 21
20.700000012780777
 31
0.0
  0
LINE
  5
1D5
100
AcDbEntity
  8
0
  6
CONTINUOUS
 62
               7
100
AcDbLine
 10
6.1000000086078501
 20
14.899999907937399
 30
0.0
 11
6.3000000466913946
 21
15.099999946020944
 31
0.0
  0
LINE
  5
1D6
100
AcDbEntity
  8
0
  6
CONTINUOUS
 62
               7
100
AcDbLine
 10
6.3000000466913946
 20
20.499999974697232
 30
0.0
 11
6.3000000466913946
 21
15.099999946020944
 31
0.0
  0
LINE
  5
1D7
100
AcDbEntity
  8
0
  6
CONTINUOUS
 62
               7
100
AcDbLine
 10
29.90000003907457
 20
1.4999999733590812
 30
0.0
 11
29.90000003907457
 21
14.899999901833496
 31
0.0
  0
LINE
  5
1D8
100
AcDbEntity
  8
0
  6
CONTINUOUS
 62
               7
100
AcDbLine
 10
29.700000000991025
 20
20.499999974697232
 30
0.0
 11
29.700000000991025
 21
15.099999946020944
 31
0.0
  0
LINE
  5
1D9
100
AcDbEntity
  8
0
  6
CONTINUOUS
 62
               7
100
AcDbLine
 10
29.90000003907457
 20
14.899999907937399
 30
0.0
 11
29.700000000991025
 21
15.099999946020944
 31
0.0
  0
LINE
  5
1DA
100
AcDbEntity
  8
0
  6
CONTINUOUS
 62
               7
100
AcDbLine
 10
29.700000000991025
 20
20.499999974697232
 30
0.0
 11
29.90000003907457
 21
20.700000012780777
 31
0.0
  0
LINE
  5
1DB
100
AcDbEntity
  8
0
  6
CONTINUOUS
 62
               7
100
AcDbLine
 10
24.002944009034167
 20
3.0029442317226085
 30
0.0
 11
27.397056921614052
 21
6.3970568582001874
 31
0.0
  0
LINE
  5
1DC
100
AcDbEntity
  8
0
  6
CONTINUOUS
 62
               7
100
AcDbLine
 10
24.00294425639342
 20
6.3970562225936192
 30
0.0
 11
27.397056882870999
 21
3.0029433100137339
 31
0.0
  0
CIRCLE
  5
1DD
100
AcDbEntity
  8
0
  6
CONTINUOUS
 62
               7
100
AcDbCircle
 10
25.700000232457427
 20
4.7000001034784873
 30
0.0
 40
4.0
  0
LINE
  5
1DE
100
AcDbEntity
  8
0
  6
CONTINUOUS
 62
               7
100
AcDbLine
 10
8.6029440090340188
 20
53.602943990260314
 30
0.0
 11
11.997056921613904
 21
56.997056616737893
 31
0.0
  0
LINE
  5
1DF
100
AcDbEntity
  8
0
  6
CONTINUOUS
 62
               7
100
AcDbLine
 10
8.6029442563932719
 20
56.997055981131325
 30
0.0
 11
11.997056882870851
 21
53.60294306855144
 31
0.0
  0
CIRCLE
  5
1E0
100
AcDbEntity
  8
0
  6
CONTINUOUS
 62
               7
100
AcDbCircle
 10
10.300000232457279
 20
55.299999862016193
 30
0.0
 40
4.0
  0
ARC
  5
1E1
100
AcDbEntity
  8
0
  6
CONTINUOUS
 62
               7
100
AcDbCircle
 10
46.400000008607918
 20
58.5
 30
0.0
 40
2.25
100
AcDbArc
 50
179.99999999999963
 51
0.0
  0
LINE
  5
1E2
100
AcDbEntity
  8
0
  6
CONTINUOUS
 62
               7
100
AcDbLine
 10
48.650000008607918
 20
59.0
 30
0.0
 11
48.650000008607918
 21
58.5
 31
0.0
  0
LINE
  5
1E3
100
AcDbEntity
  8
0
  6
CONTINUOUS
 62
               7
100
AcDbLine
 10
44.150000008607918
 20
59.0
 30
0.0
 11
44.150000008607918
 21
58.5
 31
0.0
  0
ARC
  5
1E4
100
AcDbEntity
  8
0
  6
CONTINUOUS
 62
               7
100
AcDbCircle
 10
37.600000039074445
 20
1.4999999654949079
 30
0.0
 40
2.25
100
AcDbArc
 50
0.0
 51
179.99999999999963
  0
LINE
  5
1E5
100
AcDbEntity
  8
0
  6
CONTINUOUS
 62
               7
100
AcDbLine
 10
39.850000039074445
 20
0.9999999654949079
 30
0.0
 11
39.850000039074445
 21
1.4999999654949079
 31
0.0
  0
LINE
  5
1E6
100
AcDbEntity
  8
0
  6
CONTINUOUS
 62
               7
100
AcDbLine
 10
35.350000039074445
 20
0.9999999654949079
 30
0.0
 11
35.350000039074445
 21
1.4999999654949079
 31
0.0
  0
ARC
  5
1E7
100
AcDbEntity
  8
0
  6
CONTINUOUS
 62
               7
100
AcDbCircle
 10
34.850000039074445
 20
0.9999999654949079
 30
0.0
 40
0.5
100
AcDbArc
 50
269.99999999999937
 51
0.0
  0
ARC
  5
1E8
100
AcDbEntity
  8
0
  6
CONTINUOUS
 62
               7
100
AcDbCircle
 10
40.350000039074445
 20
0.9999999654949079
 30
0.0
 40
0.5
100
AcDbArc
 50
179.99999999999963
 51
269.99999999999937
  0
ARC
  5
1E9
100
AcDbEntity
  8
0
  6
CONTINUOUS
 62
               7
100
AcDbCircle
 10
43.650000008607918
 20
59.0
 30
0.0
 40
0.5
100
AcDbArc
 50
0.0
 51
89.999999999999815
  0
ARC
  5
1EA
100
AcDbEntity
  8
0
  6
CONTINUOUS
 62
               7
100
AcDbCircle
 10
49.150000008607918
 20
59.0
 30
0.0
 40
0.5
100
AcDbArc
 50
89.999999999999815
 51
179.99999999999963
  0
ARC
  5
1EB
100
AcDbEntity
  8
0
  6
CONTINUOUS
 62
               7
100
AcDbCircle
 10
42.000000023841181
 20
42.500000017233958
 30
0.0
 40
11.699999999999999
100
AcDbArc
 50
131.94879674482874
 51
110.11028008888883
  0
ARC
  5
1EC
100
AcDbEntity
  8
0
  6
CONTINUOUS
 62
               7
100
AcDbCircle
 10
42.000000023841181
 20
17.500000017234015
 30
0.0
 40
11.699999999999999
100
AcDbArc
 50
311.94879625562083
 51
290.11028030534595
  0
ARC
  5
1ED
100
AcDbEntity
  8
0
  6
CONTINUOUS
 62
               7
100
AcDbCircle
 10
31.100000008607793
 20
58.5
 30
0.0
 40
1.0
100
AcDbArc
 50
89.999999999999815
 51
179.99999999999963
  0
ARC
  5
1EE
100
AcDbEntity
  8
0
  6
CONTINUOUS
 62
               7
100
AcDbCircle
 10
52.90000003907457
 20
58.5
 30
0.0
 40
1.0
100
AcDbArc
 50
0.0
 51
89.999999999999815
  0
ARC
  5
1EF
100
AcDbEntity
  8
0
  6
CONTINUOUS
 62
               7
100
AcDbCircle
 10
31.100000008607793
 20
1.4999999654949079
 30
0.0
 40
1.0
100
AcDbArc
 50
179.99999999999963
 51
269.99999999999937
  0
ARC
  5
1F0
100
AcDbEntity
  8
0
  6
CONTINUOUS
 62
               7
100
AcDbCircle
 10
52.90000003907457
 20
1.4999999654949079
 30
0.0
 40
1.0
100
AcDbArc
 50
270.00000000000023
 51
0.0
  0
CIRCLE
  5
1F1
100
AcDbEntity
  8
0
  6
CONTINUOUS
 62
               7
100
AcDbCircle
 10
34.300000023841136
 20
55.299999862016307
 30
0.0
 40
4.0999999999999996
  0
CIRCLE
  5
1F2
100
AcDbEntity
  8
0
  6
CONTINUOUS
 62
               7
100
AcDbCircle
 10
49.700000023841227
 20
4.700000103478601
 30
0.0
 40
4.0999999999999996
  0
LINE
  5
1F3
100
AcDbEntity
  8
0
  6
CONTINUOUS
 62
               7
100
AcDbLine
 10
30.10000000860785
 20
20.700000012780777
 30
0.0
 11
30.10000000860785
 21
39.89999995271404
 31
0.0
  0
LINE
  5
1F4
100
AcDbEntity
  8
0
  6
CONTINUOUS
 62
               7
100
AcDbLine
 10
30.10000000860785
 20
45.700000057557475
 30
0.0
 11
30.10000000860785
 21
58.5
 31
0.0
  0
LINE
  5
1F5
100
AcDbEntity
  8
0
  6
CONTINUOUS
 62
               7
100
AcDbLine
 10
30.10000000860785
 20
45.700000057557475
 30
0.0
 11
30.300000046691395
 21
45.50000001947393
 31
0.0
  0
LINE
  5
1F6
100
AcDbEntity
  8
0
  6
CONTINUOUS
 62
               7
100
AcDbLine
 10
30.300000046691395
 20
40.099999990797585
 30
0.0
 11
30.10000000860785
 21
39.89999995271404
 31
0.0
  0
LINE
  5
1F7
100
AcDbEntity
  8
0
  6
CONTINUOUS
 62
               7
100
AcDbLine
 10
30.300000046691395
 20
40.099999990797585
 30
0.0
 11
30.300000046691395
 21
45.50000001947393
 31
0.0
  0
LINE
  5
1F8
100
AcDbEntity
  8
0
  6
CONTINUOUS
 62
               7
100
AcDbLine
 10
53.90000003907457
 20
20.700000012780777
 30
0.0
 11
53.90000003907457
 21
39.89999995271404
 31
0.0
  0
LINE
  5
1F9
100
AcDbEntity
  8
0
  6
CONTINUOUS
 62
               7
100
AcDbLine
 10
53.90000003907457
 20
45.700000057557475
 30
0.0
 11
53.90000003907457
 21
58.5
 31
0.0
  0
LINE
  5
1FA
100
AcDbEntity
  8
0
  6
CONTINUOUS
 62
               7
100
AcDbLine
 10
53.700000000991025
 20
40.099999990797585
 30
0.0
 11
53.700000000991025
 21
45.50000001947393
 31
0.0
  0
LINE
  5
1FB
100
AcDbEntity
  8
0
  6
CONTINUOUS
 62
               7
100
AcDbLine
 10
53.700000000991025
 20
40.099999990797585
 30
0.0
 11
53.90000003907457
 21
39.89999995271404
 31
0.0
  0
LINE
  5
1FC
100
AcDbEntity
  8
0
  6
CONTINUOUS
 62
               7
100
AcDbLine
 10
53.90000003907457
 20
45.700000057557475
 30
0.0
 11
53.700000000991025
 21
45.50000001947393
 31
0.0
  0
LINE
  5
1FD
100
AcDbEntity
  8
0
  6
CONTINUOUS
 62
               7
100
AcDbLine
 10
30.10000000860785
 20
1.4999999733590812
 30
0.0
 11
30.10000000860785
 21
14.899999901833496
 31
0.0
  0
LINE
  5
1FE
100
AcDbEntity
  8
0
  6
CONTINUOUS
 62
               7
100
AcDbLine
 10
30.300000046691395
 20
20.499999974697232
 30
0.0
 11
30.10000000860785
 21
20.700000012780777
 31
0.0
  0
LINE
  5
1FF
100
AcDbEntity
  8
0
  6
CONTINUOUS
 62
               7
100
AcDbLine
 10
30.10000000860785
 20
14.899999907937399
 30
0.0
 11
30.300000046691395
 21
15.099999946020944
 31
0.0
  0
LINE
  5
200
100
AcDbEntity
  8
0
  6
CONTINUOUS
 62
               7
100
AcDbLine
 10
30.300000046691395
 20
20.499999974697232
 30
0.0
 11
30.300000046691395
 21
15.099999946020944
 31
0.0
  0
LINE
  5
201
100
AcDbEntity
  8
0
  6
CONTINUOUS
 62
               7
100
AcDbLine
 10
53.90000003907457
 20
1.4999999733590812
 30
0.0
 11
53.90000003907457
 21
14.899999901833496
 31
0.0
  0
LINE
  5
202
100
AcDbEntity
  8
0
  6
CONTINUOUS
 62
               7
100
AcDbLine
 10
53.700000000991025
 20
20.499999974697232
 30
0.0
 11
53.700000000991025
 21
15.099999946020944
 31
0.0
  0
LINE
  5
203
100
AcDbEntity
  8
0
  6
CONTINUOUS
 62
               7
100
AcDbLine
 10
53.90000003907457
 20
14.899999907937399
 30
0.0
 11
53.700000000991025
 21
15.099999946020944
 31
0.0
  0
LINE
  5
204
100
AcDbEntity
  8
0
  6
CONTINUOUS
 62
               7
100
AcDbLine
 10
53.700000000991025
 20
20.499999974697232
 30
0.0
 11
53.90000003907457
 21
20.700000012780777
 31
0.0
  0
LINE
  5
205
100
AcDbEntity
  8
0
  6
CONTINUOUS
 62
               7
100
AcDbLine
 10
48.002944009034167
 20
3.0029442317226085
 30
0.0
 11
51.397056921614052
 21
6.3970568582001874
 31
0.0
  0
LINE
  5
206
100
AcDbEntity
  8
0
  6
CONTINUOUS
 62
               7
100
AcDbLine
 10
48.00294425639342
 20
6.3970562225936192
 30
0.0
 11
51.397056882870999
 21
3.0029433100137339
 31
0.0
  0
CIRCLE
  5
207
100
AcDbEntity
  8
0
  6
CONTINUOUS
 62
               7
100
AcDbCircle
 10
49.700000232457427
 20
4.7000001034784873
 30
0.0
 40
4.0
  0
LINE
  5
208
100
AcDbEntity
  8
0
  6
CONTINUOUS
 62
               7
100
AcDbLine
 10
32.602944009034019
 20
53.602943990260314
 30
0.0
 11
35.997056921613904
 21
56.997056616737893
 31
0.0
  0
LINE
  5
209
100
AcDbEntity
  8
0
  6
CONTINUOUS
 62
               7
100
AcDbLine
 10
32.602944256393272
 20
56.997055981131325
 30
0.0
 11
35.997056882870851
 21
53.60294306855144
 31
0.0
  0
CIRCLE
  5
20A
100
AcDbEntity
  8
0
  6
CONTINUOUS
 62
               7
100
AcDbCircle
 10
34.300000232457279
 20
55.299999862016193
 30
0.0
 40
4.0
  0
LINE
  5
20B
100
AcDbEntity
  8
0
  6
CONTINUOUS
 62
               7
100
AcDbLine
 10
7.1000000086077932
 20
0.4999999654949079
 30
0.0
 11
52.900000059603968
 21
0.4999999654949079
 31
0.0
  0
CIRCLE
  5
20C
100
AcDbEntity
  8
0
  6
CONTINUOUS
 62
               7
100
AcDbCircle
 10
42.000000031930256
 20
65.249999975906462
 30
0.0
 40
4.0
  0
LINE
  5
20D
100
AcDbEntity
  8
0
  6
CONTINUOUS
 62
               7
100
AcDbLine
 10
40.302943912815124
 20
66.947055951970583
 30
0.0
 11
43.697056825395009
 21
63.552943325492947
 31
0.0
  0
LINE
  5
20E
100
AcDbEntity
  8
0
  6
CONTINUOUS
 62
               7
100
AcDbLine
 10
43.697055903686135
 20
66.947056199329722
 30
0.0
 11
40.302943277208499
 21
63.552943286749837
 31
0.0
  0
CIRCLE
  5
20F
100
AcDbEntity
  8
0
  6
CONTINUOUS
 62
               7
100
AcDbCircle
 10
42.000000031930256
 20
65.249999975906462
 30
0.0
 40
4.0999999999999996
  0
CIRCLE
  5
210
100
AcDbEntity
  8
0
  6
CONTINUOUS
 62
               7
100
AcDbCircle
 10
34.500000031930256
 20
66.54999997565767
 30
0.0
 40
2.25
  0
ARC
  5
211
100
AcDbEntity
  8
0
  6
CONTINUOUS
 62
               7
100
AcDbCircle
 10
31.100000031930279
 20
61.999999975906462
 30
0.0
 40
1.0
100
AcDbArc
 50
179.99999999999963
 51
269.99999999999937
  0
ARC
  5
212
100
AcDbEntity
  8
0
  6
CONTINUOUS
 62
               7
100
AcDbCircle
 10
52.900000031930233
 20
61.999999975906462
 30
0.0
 40
1.0
100
AcDbArc
 50
269.99999999999937
 51
0.0
  0
LINE
  5
213
100
AcDbEntity
  8
0
  6
CONTINUOUS
 62
               7
100
AcDbLine
 10
30.100000031926925
 20
60.999999975906405
 30
0.0
 11
53.900000031926879
 21
60.999999975906405
 31
0.0
  0
LINE
  5
214
100
AcDbEntity
  8
0
  6
CONTINUOUS
 62
               7
100
AcDbLine
 10
53.900000031926879
 20
60.0
 30
0.0
 11
53.900000031926879
 21
61.0
 31
0.0
  0
LINE
  5
215
100
AcDbEntity
  8
0
  6
CONTINUOUS
 62
               7
100
AcDbLine
 10
30.100000031926925
 20
60.0
 30
0.0
 11
30.100000031926925
 21
61.0
 31
0.0
  0
LINE
  5
216
100
AcDbEntity
  8
0
  6
CONTINUOUS
 62
               7
100
AcDbLine
 10
30.10000003193133
 20
70.999999975906462
 30
0.0
 11
53.900000031931256
 21
70.999999975906462
 31
0.0
  0
LINE
  5
217
100
AcDbEntity
  8
0
  6
CONTINUOUS
 62
               7
100
AcDbLine
 10
30.100000031932694
 20
87.999999975906462
 30
0.0
 11
53.90000003193262
 21
87.999999975906462
 31
0.0
  0
LINE
  5
218
100
AcDbEntity
  8
0
  6
CENTER
 62
               2
100
AcDbLine
 10
25.50000003192892
 20
97.699999976155254
 30
0.0
 11
25.50000003192892
 21
87.199999976155254
 31
0.0
  0
LINE
  5
219
100
AcDbEntity
  8
0
  6
CENTER
 62
               2
100
AcDbLine
 10
30.75000003192892
 20
92.449999976155254
 30
0.0
 11
20.25000003192892
 21
92.449999976155254
 31
0.0
  0
LINE
  5
21A
100
AcDbEntity
  8
0
  6
CENTER
 62
               2
100
AcDbLine
 10
49.500000031930256
 20
97.699999976155368
 30
0.0
 11
49.500000031930256
 21
87.199999976155368
 31
0.0
  0
LINE
  5
21B
100
AcDbEntity
  8
0
  6
CENTER
 62
               2
100
AcDbLine
 10
54.750000031930256
 20
92.449999976155368
 30
0.0
 11
44.250000031930256
 21
92.449999976155368
 31
0.0
  0
CIRCLE
  5
21C
100
AcDbEntity
  8
0
  6
CONTINUOUS
 62
               7
100
AcDbCircle
 10
18.00000003192892
 20
93.749999975906462
 30
0.0
 40
4.0
  0
LINE
  5
21D
100
AcDbEntity
  8
0
  6
CONTINUOUS
 62
               7
100
AcDbLine
 10
19.697056151044052
 20
92.052943999842341
 30
0.0
 11
16.302943238464167
 21
95.447056626319977
 31
0.0
  0
LINE
  5
21E
100
AcDbEntity
  8
0
  6
CONTINUOUS
 62
               7
100
AcDbLine
 10
16.302944160173041
 20
92.052943752483202
 30
0.0
 11
19.697056786650677
 21
95.447056665063087
 31
0.0
  0
CIRCLE
  5
21F
100
AcDbEntity
  8
0
  6
CONTINUOUS
 62
               7
100
AcDbCircle
 10
18.00000003192892
 20
93.749999975906462
 30
0.0
 40
4.0999999999999996
  0
ARC
  5
220
100
AcDbEntity
  8
0
  6
CONTINUOUS
 62
               7
100
AcDbCircle
 10
6.6000000319289427
 20
94.085786407249088
 30
0.0
 40
0.5
100
AcDbArc
 50
89.999999999999815
 51
179.99999999999963
  0
CIRCLE
  5
221
100
AcDbEntity
  8
0
  6
CONTINUOUS
 62
               7
100
AcDbCircle
 10
25.50000003192892
 20
92.449999976155254
 30
0.0
 40
2.25
  0
ARC
  5
222
100
AcDbEntity
  8
0
  6
CONTINUOUS
 62
               7
100
AcDbCircle
 10
12.600000031928943
 20
97.499999975906462
 30
0.0
 40
0.5
100
AcDbArc
 50
89.999999999999815
 51
179.99999999999963
  0
ARC
  5
223
100
AcDbEntity
  8
0
  6
CONTINUOUS
 62
               7
100
AcDbCircle
 10
11.600000031928943
 20
95.085786407249088
 30
0.0
 40
0.5
100
AcDbArc
 50
269.99999999999937
 51
0.0
  0
LINE
  5
224
100
AcDbEntity
  8
0
  6
CONTINUOUS
 62
               7
100
AcDbLine
 10
11.600000031928943
 20
94.585786407249088
 30
0.0
 11
6.6000000319289427
 21
94.585786407249088
 31
0.0
  0
LINE
  5
225
100
AcDbEntity
  8
0
  6
CONTINUOUS
 62
               7
100
AcDbLine
 10
12.100000031928943
 20
95.085786407249088
 30
0.0
 11
12.100000031928943
 21
97.499999975906462
 31
0.0
  0
ARC
  5
226
100
AcDbEntity
  8
0
  6
CONTINUOUS
 62
               7
100
AcDbCircle
 10
28.900000031928897
 20
96.999999975906462
 30
0.0
 40
1.0
100
AcDbArc
 50
0.0
 51
89.999999999999815
  0
ARC
  5
227
100
AcDbEntity
  8
0
  6
CONTINUOUS
 62
               7
100
AcDbCircle
 10
7.1000000319289427
 20
96.999999975906462
 30
0.0
 40
1.0
100
AcDbArc
 50
89.999999999999815
 51
179.99999999999963
  0
LINE
  5
228
100
AcDbEntity
  8
0
  6
CONTINUOUS
 62
               7
100
AcDbLine
 10
28.900000031928897
 20
97.999999975906462
 30
0.0
 11
7.1000000319289427
 21
97.999999975906462
 31
0.0
  0
CIRCLE
  5
229
100
AcDbEntity
  8
0
  6
CONTINUOUS
 62
               7
100
AcDbCircle
 10
42.000000031930256
 20
93.749999975906462
 30
0.0
 40
4.0
  0
LINE
  5
22A
100
AcDbEntity
  8
0
  6
CONTINUOUS
 62
               7
100
AcDbLine
 10
40.302943912815124
 20
92.052943999842569
 30
0.0
 11
43.697056825395009
 21
95.447056626320091
 31
0.0
  0
LINE
  5
22B
100
AcDbEntity
  8
0
  6
CONTINUOUS
 62
               7
100
AcDbLine
 10
43.697055903686135
 20
92.052943752483202
 30
0.0
 11
40.302943277208499
 21
95.447056665063144
 31
0.0
  0
CIRCLE
  5
22C
100
AcDbEntity
  8
0
  6
CONTINUOUS
 62
               7
100
AcDbCircle
 10
42.000000031930256
 20
93.749999975906462
 30
0.0
 40
4.0999999999999996
  0
CIRCLE
  5
22D
100
AcDbEntity
  8
0
  6
CONTINUOUS
 62
               7
100
AcDbCircle
 10
49.500000031930256
 20
92.449999976155368
 30
0.0
 40
2.25
  0
ARC
  5
22E
100
AcDbEntity
  8
0
  6
CONTINUOUS
 62
               7
100
AcDbCircle
 10
31.100000031930279
 20
96.999999975906519
 30
0.0
 40
1.0
100
AcDbArc
 50
89.999999999999815
 51
179.99999999999963
  0
ARC
  5
22F
100
AcDbEntity
  8
0
  6
CONTINUOUS
 62
               7
100
AcDbCircle
 10
52.900000031930233
 20
96.999999975906519
 30
0.0
 40
1.0
100
AcDbArc
 50
0.0
 51
89.999999999999815
  0
LINE
  5
230
100
AcDbEntity
  8
0
  6
CONTINUOUS
 62
               7
100
AcDbLine
 10
31.100000039594192
 20
97.999999975906519
 30
0.0
 11
52.900000051515121
 21
97.999999975906519
 31
0.0
  0
ENDBLK
  5
231
100
AcDbEntity
  8
0
100
AcDbBlockEnd
  0
BLOCK
  5
232
100
AcDbEntity
  8
0
100
AcDbBlockBegin
  2
PA-H-3
 70
               0
 10
0.0
 20
0.0
 30
0.0
  3
PA-H-3
  1

  0
LINE
  5
233
100
AcDbEntity
  8
0
  6
CONTINUOUS
 62
               7
100
AcDbLine
 10
46.050000027466695
 20
37.000000029055172
 30
0.0
 11
60.000000027466626
 21
37.000000029055172
 31
0.0
  0
LINE
  5
234
100
AcDbEntity
  8
0
  6
CONTINUOUS
 62
               7
100
AcDbLine
 10
95.000000041022304
 20
-38.999999970944607
 30
0.0
 11
98.000000027464296
 21
-38.999999970944607
 31
0.0
  0
LINE
  5
235
100
AcDbEntity
  8
0
  6
CONTINUOUS
 62
               7
100
AcDbLine
 10
95.000000041022304
 20
-46.999999970944607
 30
0.0
 11
98.000000027465319
 21
-46.999999970944607
 31
0.0
  0
LINE
  5
236
100
AcDbEntity
  8
0
  6
CONTINUOUS
 62
               7
100
AcDbLine
 10
98.000000027464466
 20
-40.019615025075048
 30
0.0
 11
97.700000027464398
 21
-39.499999970944494
 31
0.0
  0
LINE
  5
237
100
AcDbEntity
  8
0
  6
CONTINUOUS
 62
               7
100
AcDbLine
 10
98.000000027465205
 20
-45.98038467839536
 30
0.0
 11
97.700000027465251
 21
-46.499999970944494
 31
0.0
  0
LINE
  5
238
100
AcDbEntity
  8
0
  6
CONTINUOUS
 62
               7
100
AcDbLine
 10
97.700000027464398
 20
-39.499999970944494
 30
0.0
 11
97.700000027465251
 21
-46.499999970944494
 31
0.0
  0
LINE
  5
239
100
AcDbEntity
  8
0
  6
CONTINUOUS
 62
               7
100
AcDbLine
 10
95.000000041022304
 20
-39.499999970944494
 30
0.0
 11
97.700000029101375
 21
-39.499999970944494
 31
0.0
  0
LINE
  5
23A
100
AcDbEntity
  8
0
  6
CONTINUOUS
 62
               7
100
AcDbLine
 10
95.000000041022304
 20
-46.499999970944494
 30
0.0
 11
97.700000029101375
 21
-46.499999970944494
 31
0.0
  0
LINE
  5
23B
100
AcDbEntity
  8
0
  6
CONTINUOUS
 62
               7
100
AcDbLine
 10
95.00000002748186
 20
-46.999999970944607
 30
0.0
 11
95.000000027479928
 21
-38.999999970944607
 31
0.0
  0
LINE
  5
23C
100
AcDbEntity
  8
0
  6
DASHED
 62
               4
100
AcDbLine
 10
-28.599999972533396
 20
-43.499999982865859
 30
0.0
 11
-28.599999972533396
 21
-44.499999982865859
 31
0.0
  0
LINE
  5
23D
100
AcDbEntity
  8
0
  6
DASHED
 62
               4
100
AcDbLine
 10
-30.199999972533419
 20
-42.999999982865859
 30
0.0
 11
-30.199999972533419
 21
-39.800000000118416
 31
0.0
  0
LINE
  5
23E
100
AcDbEntity
  8
0
  6
DASHED
 62
             200
100
AcDbLine
 10
-32.299999972533385
 20
-37.092652140483011
 30
0.0
 11
-32.299999972533385
 21
-45.595786045325355
 31
0.0
  0
LINE
  5
23F
100
AcDbEntity
  8
0
  6
DASHED
 62
               4
100
AcDbLine
 10
-35.999999972533374
 20
-43.499999982865859
 30
0.0
 11
-35.999999972533374
 21
-44.499999982865859
 31
0.0
  0
LINE
  5
240
100
AcDbEntity
  8
0
  6
DASHED
 62
               4
100
AcDbLine
 10
-34.399999972533351
 20
-39.800000000118416
 30
0.0
 11
-34.399999972533351
 21
-42.999999982865859
 31
0.0
  0
ARC
  5
241
100
AcDbEntity
  8
0
  6
DASHED
 62
               4
100
AcDbCircle
 10
-35.499999972533374
 20
-43.499999982865859
 30
0.0
 40
0.5
100
AcDbArc
 50
89.999999999999815
 51
179.99999999999963
  0
LINE
  5
242
100
AcDbEntity
  8
0
  6
DASHED
 62
               4
100
AcDbLine
 10
-35.499999972533374
 20
-42.999999982865859
 30
0.0
 11
-29.099999972533396
 21
-42.999999982865859
 31
0.0
  0
ARC
  5
243
100
AcDbEntity
  8
0
  6
DASHED
 62
               4
100
AcDbCircle
 10
-29.099999972533396
 20
-43.499999982865859
 30
0.0
 40
0.5
100
AcDbArc
 50
0.0
 51
89.999999999999815
  0
LINE
  5
244
100
AcDbEntity
  8
0
  6
DASHED
 62
               4
100
AcDbLine
 10
-34.399999972533351
 20
-39.800000000118416
 30
0.0
 11
-33.499999972533374
 21
-39.800000000118416
 31
0.0
  0
LINE
  5
245
100
AcDbEntity
  8
0
  6
DASHED
 62
               4
100
AcDbLine
 10
-34.299999972533385
 20
-40.699999982865847
 30
0.0
 11
-34.299999972533385
 21
-42.899999982865864
 31
0.0
  0
LINE
  5
246
100
AcDbEntity
  8
0
  6
DASHED
 62
               4
100
AcDbLine
 10
-34.299999972533385
 20
-42.899999982865864
 30
0.0
 11
-30.299999972533385
 21
-42.899999982865864
 31
0.0
  0
LINE
  5
247
100
AcDbEntity
  8
0
  6
DASHED
 62
               4
100
AcDbLine
 10
-34.299999972533385
 20
-40.699999982865847
 30
0.0
 11
-30.299999972533385
 21
-40.699999982865847
 31
0.0
  0
LINE
  5
248
100
AcDbEntity
  8
0
  6
DASHED
 62
               4
100
AcDbLine
 10
-30.299999972533385
 20
-40.699999982865847
 30
0.0
 11
-30.299999972533385
 21
-42.899999982865864
 31
0.0
  0
LINE
  5
249
100
AcDbEntity
  8
0
  6
DASHED
 62
               4
100
AcDbLine
 10
-31.099999972533396
 20
-39.800000000118416
 30
0.0
 11
-30.199999972533419
 21
-39.800000000118416
 31
0.0
  0
LINE
  5
24A
100
AcDbEntity
  8
0
  6
DASHED
 62
               4
100
AcDbLine
 10
-31.099999972533396
 20
-37.699999982865876
 30
0.0
 11
-31.099999972533396
 21
-40.699999982865847
 31
0.0
  0
LINE
  5
24B
100
AcDbEntity
  8
0
  6
DASHED
 62
               4
100
AcDbLine
 10
-33.499999972533374
 20
-37.699999982865876
 30
0.0
 11
-33.499999972533374
 21
-40.699999982865847
 31
0.0
  0
LINE
  5
24C
100
AcDbEntity
  8
0
  6
DASHED
 62
               4
100
AcDbLine
 10
-31.099999972533396
 20
-37.699999982865876
 30
0.0
 11
-33.499999972533374
 21
-37.699999982865876
 31
0.0
  0
LINE
  5
24D
100
AcDbEntity
  8
0
  6
CONTINUOUS
 62
               7
100
AcDbLine
 10
25.500000027466683
 20
-42.999999994786833
 30
0.0
 11
25.433586946707976
 21
-42.999999994786833
 31
0.0
  0
CIRCLE
  5
24E
100
AcDbEntity
  8
0
  6
CONTINUOUS
 62
               2
100
AcDbCircle
 10
25.500000027466683
 20
-42.999999994786833
 30
0.0
 40
4.8639999999999999
  0
CIRCLE
  5
24F
100
AcDbEntity
  8
0
  6
CONTINUOUS
 62
               7
100
AcDbCircle
 10
25.500000027466683
 20
-42.999999994786833
 30
0.0
 40
4.2830000000000004
  0
LINE
  5
250
100
AcDbEntity
  8
0
  6
CONTINUOUS
 62
               4
100
AcDbLine
 10
-14.999999942066665
 20
14.500000017134141
 30
0.0
 11
-14.999999942066665
 21
-44.499999982865859
 31
0.0
  0
LINE
  5
251
100
AcDbEntity
  8
0
  6
CONTINUOUS
 62
               4
100
AcDbLine
 10
-36.999999972533374
 20
-24.499999952832411
 30
0.0
 11
10.000000027466569
 21
-24.499999952832411
 31
0.0
  0
LINE
  5
252
100
AcDbEntity
  8
0
  6
CONTINUOUS
 62
               4
100
AcDbLine
 10
-36.999999972533374
 20
-24.699999990915956
 30
0.0
 11
10.000000027466569
 21
-24.699999990915956
 31
0.0
  0
LINE
  5
253
100
AcDbEntity
  8
0
  6
CONTINUOUS
 62
               4
100
AcDbLine
 10
-36.999999972533374
 20
0.5000000919441732
 30
0.0
 11
10.000000027466626
 21
0.5000000919441732
 31
0.0
  0
LINE
  5
254
100
AcDbEntity
  8
0
  6
CONTINUOUS
 62
               4
100
AcDbLine
 10
-36.999999972533374
 20
-5.5000000128991928
 30
0.0
 11
10.000000027466569
 21
-5.5000000128991928
 31
0.0
  0
LINE
  5
255
100
AcDbEntity
  8
0
  6
CONTINUOUS
 62
               4
100
AcDbLine
 10
-36.999999972533374
 20
-5.2999999748156483
 30
0.0
 11
10.000000027466569
 21
-5.2999999748156483
 31
0.0
  0
LINE
  5
256
100
AcDbEntity
  8
0
  6
CONTINUOUS
 62
               4
100
AcDbLine
 10
-36.999999972533374
 20
0.3000000538606287
 30
0.0
 11
10.000000027466626
 21
0.3000000538606287
 31
0.0
  0
LINE
  5
257
100
AcDbEntity
  8
0
  6
CONTINUOUS
 62
               4
100
AcDbLine
 10
-36.999999972533374
 20
14.500000017134141
 30
0.0
 11
10.000000027466626
 21
14.500000017134141
 31
0.0
  0
LINE
  5
258
100
AcDbEntity
  8
0
  6
CONTINUOUS
 62
               4
100
AcDbLine
 10
-36.999999972533487
 20
-30.300000019592233
 30
0.0
 11
10.000000027466513
 21
-30.300000019592233
 31
0.0
  0
LINE
  5
259
100
AcDbEntity
  8
0
  6
CONTINUOUS
 62
               4
100
AcDbLine
 10
-36.999999972533487
 20
-30.500000057675891
 30
0.0
 11
10.000000027466513
 21
-30.500000057675891
 31
0.0
  0
LINE
  5
25A
100
AcDbEntity
  8
0
  6
CONTINUOUS
 62
               4
100
AcDbLine
 10
10.000000027466513
 20
-44.499999982865859
 30
0.0
 11
-36.999999972533487
 21
-44.499999982865859
 31
0.0
  0
LINE
  5
25B
100
AcDbEntity
  8
0
  6
CONTINUOUS
 62
               7
100
AcDbLine
 10
-41.499999972533374
 20
-44.500000017370951
 30
0.0
 11
-36.999999972533374
 21
-44.500000017370951
 31
0.0
  0
ARC
  5
25C
100
AcDbEntity
  8
0
  6
CONTINUOUS
 62
               7
100
AcDbCircle
 10
-41.499999972533374
 20
-44.000000017370951
 30
0.0
 40
0.5
100
AcDbArc
 50
179.99999999999963
 51
269.99999999999937
  0
LINE
  5
25D
100
AcDbEntity
  8
0
  6
CONTINUOUS
 62
               7
100
AcDbLine
 10
-41.999999972533374
 20
14.000000017134141
 30
0.0
 11
-41.999999972533374
 21
-44.000000017370951
 31
0.0
  0
LINE
  5
25E
100
AcDbEntity
  8
0
  6
CONTINUOUS
 62
               7
100
AcDbLine
 10
-48.999999972533374
 20
-38.586465879082539
 30
0.0
 11
-48.999999972533374
 21
-16.413534051920919
 31
0.0
  0
LINE
  5
25F
100
AcDbEntity
  8
0
  6
CONTINUOUS
 62
               7
100
AcDbLine
 10
-48.508726175727247
 20
-39.086389726661196
 30
0.0
 11
-42.491273750499317
 21
-39.191424749146961
 31
0.0
  0
LINE
  5
260
100
AcDbEntity
  8
0
  6
CONTINUOUS
 62
               7
100
AcDbLine
 10
-48.508726175727247
 20
-15.913610204342319
 30
0.0
 11
-42.491273750499317
 21
-15.808575181856554
 31
0.0
  0
ARC
  5
261
100
AcDbEntity
  8
0
  6
CONTINUOUS
 62
               7
100
AcDbCircle
 10
-42.499999972533374
 20
-15.308651334116348
 30
0.0
 40
0.5
100
AcDbArc
 50
271.00000215544117
 51
0.0
  0
ARC
  5
262
100
AcDbEntity
  8
0
  6
CONTINUOUS
 62
               7
100
AcDbCircle
 10
-42.499999972533374
 20
-39.691348596887167
 30
0.0
 40
0.5
100
AcDbArc
 50
0.0
 51
88.99999784455801
  0
ARC
  5
263
100
AcDbEntity
  8
0
  6
CONTINUOUS
 62
               7
100
AcDbCircle
 10
-48.499999972533374
 20
-16.413534051920919
 30
0.0
 40
0.5
100
AcDbArc
 50
90.999999997153211
 51
179.99999999999963
  0
ARC
  5
264
100
AcDbEntity
  8
0
  6
CONTINUOUS
 62
               7
100
AcDbCircle
 10
-48.499999972533374
 20
-38.586465879082539
 30
0.0
 40
0.5
100
AcDbArc
 50
179.99999999999963
 51
269.00000000284598
  0
LINE
  5
265
100
AcDbEntity
  8
0
  6
CONTINUOUS
 62
               7
100
AcDbLine
 10
-36.999999972533374
 20
-44.500000017370951
 30
0.0
 11
-36.999999972533374
 21
14.500000017134141
 31
0.0
  0
ARC
  5
266
100
AcDbEntity
  8
0
  6
CONTINUOUS
 62
               7
100
AcDbCircle
 10
-42.499999972533374
 20
-14.691348666120462
 30
0.0
 40
0.5
100
AcDbArc
 50
0.0
 51
88.99999784455801
  0
ARC
  5
267
100
AcDbEntity
  8
0
  6
CONTINUOUS
 62
               7
100
AcDbCircle
 10
-48.499999972533374
 20
8.5864658788457291
 30
0.0
 40
0.5
100
AcDbArc
 50
90.999999997153211
 51
179.99999999999963
  0
ARC
  5
268
100
AcDbEntity
  8
0
  6
CONTINUOUS
 62
               7
100
AcDbCircle
 10
-48.499999972533374
 20
-13.58646594831589
 30
0.0
 40
0.5
100
AcDbArc
 50
179.99999999999963
 51
269.00000000284598
  0
ARC
  5
269
100
AcDbEntity
  8
0
  6
CONTINUOUS
 62
               7
100
AcDbCircle
 10
-42.499999972533374
 20
9.6913485966503572
 30
0.0
 40
0.5
100
AcDbArc
 50
271.00000215544117
 51
0.0
  0
LINE
  5
26A
100
AcDbEntity
  8
0
  6
CONTINUOUS
 62
               7
100
AcDbLine
 10
-48.508726175727247
 20
-14.086389795894547
 30
0.0
 11
-42.491273750499317
 21
-14.191424818380256
 31
0.0
  0
LINE
  5
26B
100
AcDbEntity
  8
0
  6
CONTINUOUS
 62
               7
100
AcDbLine
 10
-48.508726175727247
 20
9.086389726424386
 30
0.0
 11
-42.491273750499317
 21
9.1914247489100944
 31
0.0
  0
LINE
  5
26C
100
AcDbEntity
  8
0
  6
CONTINUOUS
 62
               7
100
AcDbLine
 10
-48.999999972533374
 20
8.5864658788457291
 30
0.0
 11
-48.999999972533374
 21
-13.58646594831589
 31
0.0
  0
LINE
  5
26D
100
AcDbEntity
  8
0
  6
CONTINUOUS
 62
               7
100
AcDbLine
 10
-41.499999972533374
 20
14.500000017134141
 30
0.0
 11
-36.999999972533374
 21
14.500000017134141
 31
0.0
  0
ARC
  5
26E
100
AcDbEntity
  8
0
  6
CONTINUOUS
 62
               7
100
AcDbCircle
 10
-41.499999972533374
 20
14.000000017134141
 30
0.0
 40
0.5
100
AcDbArc
 50
89.999999999999815
 51
179.99999999999963
  0
LINE
  5
26F
100
AcDbEntity
  8
0
  6
CONTINUOUS
 62
               7
100
AcDbLine
 10
-48.999999972533374
 20
-36.201787370284762
 30
0.0
 11
-41.999999972533374
 21
-36.201787370284762
 31
0.0
  0
LINE
  5
270
100
AcDbEntity
  8
0
  6
CONTINUOUS
 62
               7
100
AcDbLine
 10
-48.999999972533374
 20
-38.486681102227465
 30
0.0
 11
-41.999999972533374
 21
-38.486681102227465
 31
0.0
  0
LINE
  5
271
100
AcDbEntity
  8
0
  6
CONTINUOUS
 62
               7
100
AcDbLine
 10
-41.999999972533374
 20
-24.599999970085094
 30
0.0
 11
-36.999999972533374
 21
-24.599999970085094
 31
0.0
  0
LINE
  5
272
100
AcDbEntity
  8
0
  6
CONTINUOUS
 62
               7
100
AcDbLine
 10
-41.999999972533374
 20
-24.800000008168638
 30
0.0
 11
-36.999999972533374
 21
-24.800000008168638
 31
0.0
  0
LINE
  5
273
100
AcDbEntity
  8
0
  6
CONTINUOUS
 62
               7
100
AcDbLine
 10
-41.999999972533374
 20
-29.600000036844961
 30
0.0
 11
-36.999999972533374
 21
-29.600000036844961
 31
0.0
  0
LINE
  5
274
100
AcDbEntity
  8
0
  6
CONTINUOUS
 62
               7
100
AcDbLine
 10
-41.999999972533374
 20
-29.800000081032351
 30
0.0
 11
-36.999999972533374
 21
-29.800000081032351
 31
0.0
  0
LINE
  5
275
100
AcDbEntity
  8
0
  6
CONTINUOUS
 62
               7
100
AcDbLine
 10
-41.999999972533374
 20
-4.8000000301518071
 30
0.0
 11
-36.999999972533374
 21
-4.8000000301518071
 31
0.0
  0
LINE
  5
276
100
AcDbEntity
  8
0
  6
CONTINUOUS
 62
               7
100
AcDbLine
 10
-41.999999972533374
 20
-4.5999999920682626
 30
0.0
 11
-36.999999972533374
 21
-4.5999999920682626
 31
0.0
  0
LINE
  5
277
100
AcDbEntity
  8
0
  6
CONTINUOUS
 62
               7
100
AcDbLine
 10
-41.999999972533374
 20
0.2000000366080599
 30
0.0
 11
-36.999999972533374
 21
0.2000000366080599
 31
0.0
  0
LINE
  5
278
100
AcDbEntity
  8
0
  6
CONTINUOUS
 62
               7
100
AcDbLine
 10
-41.999999972533374
 20
0.4000000746916044
 30
0.0
 11
-36.999999972533374
 21
0.4000000746916044
 31
0.0
  0
LINE
  5
279
100
AcDbEntity
  8
0
  6
CONTINUOUS
 62
               7
100
AcDbLine
 10
61.000001839832635
 20
17.732050811053568
 30
0.0
 11
98.000001839832635
 21
17.732050811053568
 31
0.0
  0
LINE
  5
27A
100
AcDbEntity
  8
0
  6
CONTINUOUS
 62
               7
100
AcDbLine
 10
61.000001839832635
 20
16.000000031395643
 30
0.0
 11
98.000001839832635
 21
16.000000031395643
 31
0.0
  0
LINE
  5
27B
100
AcDbEntity
  8
0
  6
CONTINUOUS
 62
               7
100
AcDbLine
 10
61.000001839832635
 20
12.000000029055087
 30
0.0
 11
98.000001839832635
 21
12.000000029055087
 31
0.0
  0
LINE
  5
27C
100
AcDbEntity
  8
0
  6
CONTINUOUS
 62
               7
100
AcDbLine
 10
61.000001839832635
 20
10.26794919296907
 30
0.0
 11
98.000001839832635
 21
10.26794919296907
 31
0.0
  0
ARC
  5
27D
100
AcDbEntity
  8
0
  6
CONTINUOUS
 62
               7
100
AcDbCircle
 10
61.500000027469753
 20
-81.49999997093812
 30
0.0
 40
0.5
100
AcDbArc
 50
179.99999999999963
 51
269.99999999999937
  0
ARC
  5
27E
100
AcDbEntity
  8
0
  6
CONTINUOUS
 62
               7
100
AcDbCircle
 10
97.500000027470264
 20
-81.49999997093812
 30
0.0
 40
0.5
100
AcDbArc
 50
270.00000000000023
 51
0.0
  0
LINE
  5
27F
100
AcDbEntity
  8
0
  6
CONTINUOUS
 62
               7
100
AcDbLine
 10
71.400000041029216
 20
-81.599999970938143
 30
0.0
 11
71.000000041029239
 21
-81.99999997093812
 31
0.0
  0
LINE
  5
280
100
AcDbEntity
  8
0
  6
CONTINUOUS
 62
               7
100
AcDbLine
 10
87.600000041029148
 20
-81.599999970938143
 30
0.0
 11
88.000000041029239
 21
-81.99999997093812
 31
0.0
  0
LINE
  5
281
100
AcDbEntity
  8
0
  6
CONTINUOUS
 62
               7
100
AcDbLine
 10
71.400000041029216
 20
-81.599999970938143
 30
0.0
 11
87.600000041029148
 21
-81.599999970938143
 31
0.0
  0
LINE
  5
282
100
AcDbEntity
  8
0
  6
CONTINUOUS
 62
               7
100
AcDbLine
 10
88.000000041029239
 20
-81.99999997093812
 30
0.0
 11
97.500000041029239
 21
-81.99999997093812
 31
0.0
  0
LINE
  5
283
100
AcDbEntity
  8
0
  6
CONTINUOUS
 62
               7
100
AcDbLine
 10
61.500000041029125
 20
-81.99999997093812
 30
0.0
 11
71.000000041029239
 21
-81.99999997093812
 31
0.0
  0
LINE
  5
284
100
AcDbEntity
  8
0
  6
CONTINUOUS
 62
               7
100
AcDbLine
 10
61.000000041015596
 20
-68.499999970941644
 30
0.0
 11
98.000000041015596
 21
-68.499999970941644
 31
0.0
  0
LINE
  5
285
100
AcDbEntity
  8
0
  6
CONTINUOUS
 62
               7
100
AcDbLine
 10
60.000000027466626
 20
-56.999999963071502
 30
0.0
 11
60.000000027466626
 21
37.000000029055172
 31
0.0
  0
LINE
  5
286
100
AcDbEntity
  8
0
  6
CONTINUOUS
 62
               7
100
AcDbLine
 10
45.850000027466706
 20
32.500000029055172
 30
0.0
 11
46.800000027466751
 21
32.500000029055172
 31
0.0
  0
LINE
  5
287
100
AcDbEntity
  8
0
  6
CONTINUOUS
 62
               7
100
AcDbLine
 10
43.550000027466751
 20
30.500000029055172
 30
0.0
 11
44.850000027466706
 21
30.500000029055172
 31
0.0
  0
LINE
  5
288
100
AcDbEntity
  8
0
  6
CONTINUOUS
 62
               7
100
AcDbLine
 10
42.550000027466751
 20
31.500000029055172
 30
0.0
 11
42.550000027466751
 21
32.500000029055172
 31
0.0
  0
LINE
  5
289
100
AcDbEntity
  8
0
  6
CONTINUOUS
 62
               7
100
AcDbLine
 10
45.850000027466706
 20
31.500000029055172
 30
0.0
 11
45.850000027466706
 21
32.500000029055172
 31
0.0
  0
LINE
  5
28A
100
AcDbEntity
  8
0
  6
CONTINUOUS
 62
               7
100
AcDbLine
 10
60.000000027466626
 20
34.000000029055172
 30
0.0
 11
61.000000027455314
 21
34.000000029055172
 31
0.0
  0
LINE
  5
28B
100
AcDbEntity
  8
0
  6
CONTINUOUS
 62
               7
100
AcDbLine
 10
45.850000027466706
 20
35.500000029055172
 30
0.0
 11
46.800000027466751
 21
35.500000029055172
 31
0.0
  0
LINE
  5
28C
100
AcDbEntity
  8
0
  6
CONTINUOUS
 62
               7
100
AcDbLine
 10
41.600000027466763
 20
32.500000029055172
 30
0.0
 11
42.550000027466751
 21
32.500000029055172
 31
0.0
  0
LINE
  5
28D
100
AcDbEntity
  8
0
  6
CONTINUOUS
 62
               7
100
AcDbLine
 10
47.000000027466797
 20
32.700000029055218
 30
0.0
 11
47.000000027466797
 21
35.300000029055354
 31
0.0
  0
LINE
  5
28E
100
AcDbEntity
  8
0
  6
CONTINUOUS
 62
               7
100
AcDbLine
 10
45.850000027466706
 20
35.500000029055172
 30
0.0
 11
45.850000027466706
 21
36.800000029055354
 31
0.0
  0
LINE
  5
28F
100
AcDbEntity
  8
0
  6
CONTINUOUS
 62
               7
100
AcDbLine
 10
41.400000027466717
 20
32.700000029055218
 30
0.0
 11
41.400000027466717
 21
35.300000029055354
 31
0.0
  0
LINE
  5
290
100
AcDbEntity
  8
0
  6
CONTINUOUS
 62
               7
100
AcDbLine
 10
42.550000027466751
 20
35.500000029055172
 30
0.0
 11
42.550000027466751
 21
36.800000029055354
 31
0.0
  0
LINE
  5
291
100
AcDbEntity
  8
0
  6
CONTINUOUS
 62
               7
100
AcDbLine
 10
42.550000027466751
 20
35.500000029055172
 30
0.0
 11
41.600000027466763
 21
35.500000029055172
 31
0.0
  0
LINE
  5
292
100
AcDbEntity
  8
0
  6
CONTINUOUS
 62
               7
100
AcDbLine
 10
39.400000027466717
 20
29.494481737622777
 30
0.0
 11
39.400000027466717
 21
36.500000029055172
 31
0.0
  0
ARC
  5
293
100
AcDbEntity
  8
0
  6
CONTINUOUS
 62
               7
100
AcDbCircle
 10
41.600000027466763
 20
32.700000029055218
 30
0.0
 40
0.2
100
AcDbArc
 50
179.99999999999963
 51
269.99999999999937
  0
ARC
  5
294
100
AcDbEntity
  8
0
  6
CONTINUOUS
 62
               7
100
AcDbCircle
 10
46.800000027466751
 20
32.700000029055218
 30
0.0
 40
0.2
100
AcDbArc
 50
269.99999999999937
 51
0.0
  0
ARC
  5
295
100
AcDbEntity
  8
0
  6
CONTINUOUS
 62
               7
100
AcDbCircle
 10
41.600000027466763
 20
35.300000029055354
 30
0.0
 40
0.2
100
AcDbArc
 50
89.999999999999815
 51
179.99999999999963
  0
ARC
  5
296
100
AcDbEntity
  8
0
  6
CONTINUOUS
 62
               7
100
AcDbCircle
 10
46.800000027466751
 20
35.300000029055354
 30
0.0
 40
0.2
100
AcDbArc
 50
0.0
 51
89.999999999999815
  0
LINE
  5
297
100
AcDbEntity
  8
0
  6
CONTINUOUS
 62
               7
100
AcDbLine
 10
39.900000027466717
 20
37.000000029055172
 30
0.0
 11
42.35000002746682
 21
37.000000029055172
 31
0.0
  0
ARC
  5
298
100
AcDbEntity
  8
0
  6
CONTINUOUS
 62
               7
100
AcDbCircle
 10
39.900000027466717
 20
36.500000029055172
 30
0.0
 40
0.5
100
AcDbArc
 50
89.999999999999815
 51
179.99999999999963
  0
ARC
  5
299
100
AcDbEntity
  8
0
  6
CONTINUOUS
 62
               7
100
AcDbCircle
 10
46.050000027466695
 20
36.800000029055354
 30
0.0
 40
0.2
100
AcDbArc
 50
89.999999999999815
 51
179.99999999999963
  0
ARC
  5
29A
100
AcDbEntity
  8
0
  6
CONTINUOUS
 62
               7
100
AcDbCircle
 10
42.35000002746682
 20
36.800000029055354
 30
0.0
 40
0.2
100
AcDbArc
 50
0.0
 51
89.999999999999815
  0
ARC
  5
29B
100
AcDbEntity
  8
0
  6
CONTINUOUS
 62
               7
100
AcDbCircle
 10
44.850000027466706
 20
31.500000029055172
 30
0.0
 40
1.0
100
AcDbArc
 50
270.00000000000023
 51
0.0
  0
ARC
  5
29C
100
AcDbEntity
  8
0
  6
CONTINUOUS
 62
               7
100
AcDbCircle
 10
43.550000027466751
 20
31.500000029055172
 30
0.0
 40
1.0
100
AcDbArc
 50
179.99999999999963
 51
269.99999999999937
  0
LINE
  5
29D
100
AcDbEntity
  8
0
  6
DASHED
 62
               2
100
AcDbLine
 10
53.000000027466626
 20
33.500000013086549
 30
0.0
 11
53.000000027466626
 21
34.500000013086549
 31
0.0
  0
ARC
  5
29E
100
AcDbEntity
  8
0
  6
CONTINUOUS
 62
               7
100
AcDbCircle
 10
59.000000027466626
 20
-56.999999994786833
 30
0.0
 40
1.0
100
AcDbArc
 50
270.00000000000023
 51
0.0
  0
CIRCLE
  5
29F
100
AcDbEntity
  8
0
  6
CONTINUOUS
 62
               2
100
AcDbCircle
 10
46.100000027466649
 20
-35.999999982865802
 30
0.0
 40
10.477499999999999
  0
CIRCLE
  5
2A0
100
AcDbEntity
  8
0
  6
CONTINUOUS
 62
               7
100
AcDbCircle
 10
46.100000027466649
 20
-35.999999982865802
 30
0.0
 40
9.3155000000000001
  0
CIRCLE
  5
2A1
100
AcDbEntity
  8
0
  6
CONTINUOUS
 62
               2
100
AcDbCircle
 10
53.000000027466626
 20
29.500000017134198
 30
0.0
 40
4.8639999999999999
  0
CIRCLE
  5
2A2
100
AcDbEntity
  8
0
  6
CONTINUOUS
 62
               7
100
AcDbCircle
 10
53.000000027466626
 20
29.500000017134198
 30
0.0
 40
4.2830000000000004
  0
CIRCLE
  5
2A3
100
AcDbEntity
  8
0
  6
CONTINUOUS
 62
               2
100
AcDbCircle
 10
38.000000027466683
 20
15.000000017134198
 30
0.0
 40
10.477499999999999
  0
CIRCLE
  5
2A4
100
AcDbEntity
  8
0
  6
CONTINUOUS
 62
               7
100
AcDbCircle
 10
38.000000027466683
 20
15.000000017134198
 30
0.0
 40
9.3155000000000001
  0
CIRCLE
  5
2A5
100
AcDbEntity
  8
0
  6
CONTINUOUS
 62
               2
100
AcDbCircle
 10
25.500000027466683
 20
-14.999999982865802
 30
0.0
 40
10.477499999999999
  0
CIRCLE
  5
2A6
100
AcDbEntity
  8
0
  6
CONTINUOUS
 62
               7
100
AcDbCircle
 10
25.500000027466683
 20
-14.999999982865802
 30
0.0
 40
9.3155000000000001
  0
LINE
  5
2A8
100
AcDbEntity
  8
0
  6
PHANTOM
 62
               2
100
AcDbLine
 10
60.000000027466626
 20
29.450000017134244
 30
0.0
 11
60.000000027466626
 21
28.500000017134198
 31
0.0
  0
LINE
  5
2A9
100
AcDbEntity
  8
0
  6
CONTINUOUS
 62
               7
100
AcDbLine
 10
60.000000041015596
 20
-51.999999970944771
 30
0.0
 11
61.000000027466626
 21
-51.999999970944771
 31
0.0
  0
LINE
  5
2AA
100
AcDbEntity
  8
0
  6
CONTINUOUS
 62
               7
100
AcDbLine
 10
96.800000027455667
 20
32.000000029061425
 30
0.0
 11
96.800000027455212
 21
38.000000029059152
 31
0.0
  0
LINE
  5
2AB
100
AcDbEntity
  8
0
  6
CONTINUOUS
 62
               4
100
AcDbLine
 10
53.900000027464444
 20
55.600000029057583
 30
0.0
 11
53.900000027464671
 21
59.000000029057674
 31
0.0
  0
LINE
  5
2AC
100
AcDbEntity
  8
0
  6
CONTINUOUS
 62
             200
100
AcDbLine
 10
48.349127418596595
 20
55.700000029057605
 30
0.0
 11
47.489127418596695
 21
58.900000029057651
 31
0.0
  0
LINE
  5
2AD
100
AcDbEntity
  8
0
  6
CONTINUOUS
 62
             200
100
AcDbLine
 10
47.319127418596622
 20
55.700000029057605
 30
0.0
 11
46.459127418596722
 21
58.900000029057651
 31
0.0
  0
LINE
  5
2AE
100
AcDbEntity
  8
0
  6
CONTINUOUS
 62
               4
100
AcDbLine
 10
41.399127418596663
 20
57.550000029057742
 30
0.0
 11
41.399127418596663
 21
57.050000029057742
 31
0.0
  0
LINE
  5
2AF
100
AcDbEntity
  8
0
  6
CONTINUOUS
 62
               4
100
AcDbLine
 10
44.899127418596663
 20
58.050000029057628
 30
0.0
 11
44.899127418596663
 21
56.550000029057742
 31
0.0
  0
LINE
  5
2B0
100
AcDbEntity
  8
0
  6
CONTINUOUS
 62
               4
100
AcDbLine
 10
44.899127418596663
 20
57.550000029057742
 30
0.0
 11
41.399127418596663
 21
57.550000029057742
 31
0.0
  0
LINE
  5
2B1
100
AcDbEntity
  8
0
  6
CONTINUOUS
 62
               4
100
AcDbLine
 10
44.899127418596663
 20
57.050000029057742
 30
0.0
 11
41.399127418596663
 21
57.050000029057742
 31
0.0
  0
LINE
  5
2B2
100
AcDbEntity
  8
0
  6
CONTINUOUS
 62
               4
100
AcDbLine
 10
47.059127418596631
 20
56.550000029057742
 30
0.0
 11
44.899127418596663
 21
56.550000029057742
 31
0.0
  0
LINE
  5
2B3
100
AcDbEntity
  8
0
  6
CONTINUOUS
 62
               4
100
AcDbLine
 10
46.687564918596649
 20
58.050000029057628
 30
0.0
 11
44.899127418596663
 21
58.050000029057628
 31
0.0
  0
ARC
  5
2B4
100
AcDbEntity
  8
0
  6
CONTINUOUS
 62
               4
100
AcDbCircle
 10
54.200000027464625
 20
55.600000029057583
 30
0.0
 40
0.3
100
AcDbArc
 50
179.99999999999963
 51
269.99999999999937
  0
ARC
  5
2B5
100
AcDbEntity
  8
0
  6
CONTINUOUS
 62
               4
100
AcDbCircle
 10
54.200000027464625
 20
59.00000002905756
 30
0.0
 40
0.3
100
AcDbArc
 50
89.999999999999815
 51
179.99999999999963
  0
LINE
  5
2B6
100
AcDbEntity
  8
0
  6
CONTINUOUS
 62
               4
100
AcDbLine
 10
54.200000027464625
 20
55.300000029057628
 30
0.0
 11
54.900000027464671
 21
55.300000029057628
 31
0.0
  0
LINE
  5
2B7
100
AcDbEntity
  8
0
  6
CONTINUOUS
 62
               4
100
AcDbLine
 10
54.200000027464625
 20
59.300000029057628
 30
0.0
 11
54.900000027464671
 21
59.300000029057628
 31
0.0
  0
LINE
  5
2B8
100
AcDbEntity
  8
0
  6
CONTINUOUS
 62
               4
100
AcDbLine
 10
53.900000027464557
 20
56.550000029057628
 30
0.0
 11
48.120689918596668
 21
56.550000029057628
 31
0.0
  0
LINE
  5
2B9
100
AcDbEntity
  8
0
  6
CONTINUOUS
 62
               4
100
AcDbLine
 10
53.900000027464671
 20
58.050000029057628
 30
0.0
 11
47.717564918596622
 21
58.050000029057628
 31
0.0
  0
LINE
  5
2BA
100
AcDbEntity
  8
0
  6
CONTINUOUS
 62
               7
100
AcDbLine
 10
97.707106808653748
 20
-54.292893183465026
 30
0.0
 11
95.292893246507447
 21
-56.707106745611895
 31
0.0
  0
LINE
  5
2BB
100
AcDbEntity
  8
0
  6
CONTINUOUS
 62
               7
100
AcDbLine
 10
95.620607183074867
 20
-56.803656877756509
 30
0.0
 11
95.62060718307464
 21
-56.379392809044589
 31
0.0
  0
LINE
  5
2BC
100
AcDbEntity
  8
0
  6
CONTINUOUS
 62
               7
100
AcDbLine
 10
97.600506172274777
 20
-54.823757888555406
 30
0.0
 11
97.600506172274777
 21
-54.399493819843542
 31
0.0
  0
LINE
  5
2BD
100
AcDbEntity
  8
0
  6
CONTINUOUS
 62
               7
100
AcDbLine
 10
95.620607183074867
 20
-56.803656877756509
 30
0.0
 11
97.600506172274777
 21
-54.823757888555406
 31
0.0
  0
ARC
  5
2BE
100
AcDbEntity
  8
0
  6
CONTINUOUS
 62
               7
100
AcDbCircle
 10
97.000000027466854
 20
-53.585786402278359
 30
0.0
 40
1.0
100
AcDbArc
 50
315.00000000001398
 51
0.0000000000144524
  0
ARC
  5
2BF
100
AcDbEntity
  8
0
  6
CONTINUOUS
 62
               7
100
AcDbCircle
 10
94.585786458810048
 20
-55.999999970936358
 30
0.0
 40
1.0
100
AcDbArc
 50
270.00000000001387
 51
315.00000052756724
  0
ARC
  5
2C0
100
AcDbEntity
  8
0
  6
CONTINUOUS
 62
               7
100
AcDbCircle
 10
97.500432895231711
 20
-56.500432838699965
 30
0.0
 40
0.499567319772501
100
AcDbArc
 50
269.9503540401912
 51
0.0496459598379113
  0
LINE
  5
2C1
100
AcDbEntity
  8
0
  6
CONTINUOUS
 62
               7
100
AcDbLine
 10
61.500000027466626
 20
-56.999999970944714
 30
0.0
 11
97.500000027467536
 21
-56.999999970935619
 31
0.0
  0
LINE
  5
2C2
100
AcDbEntity
  8
0
  6
CONTINUOUS
 62
               7
100
AcDbLine
 10
61.000000027456622
 20
-51.999999970941928
 30
0.0
 11
98.000000027456963
 21
-51.999999970938404
 31
0.0
  0
LINE
  5
2C3
100
AcDbEntity
  8
0
  6
CONTINUOUS
 62
               7
100
AcDbLine
 10
97.900000022922313
 20
32.500000023306256
 30
0.0
 11
97.900000022922143
 21
38.000000029059223
 31
0.0
  0
LINE
  5
2C4
100
AcDbEntity
  8
0
  6
CONTINUOUS
 62
               4
100
AcDbLine
 10
97.900000022921063
 20
76.100000029059629
 30
0.0
 11
96.800000027451802
 21
76.100000029059515
 31
0.0
  0
LINE
  5
2C5
100
AcDbEntity
  8
0
  6
CONTINUOUS
 62
               4
100
AcDbLine
 10
97.90000002292129
 20
72.900000029059584
 30
0.0
 11
96.80000002745237
 21
72.900000029059584
 31
0.0
  0
LINE
  5
2C6
100
AcDbEntity
  8
0
  6
CONTINUOUS
 62
               4
100
AcDbLine
 10
96.800000027452029
 20
78.00000002905756
 30
0.0
 11
97.400000027452165
 21
78.000000029057674
 31
0.0
  0
ARC
  5
2C7
100
AcDbEntity
  8
0
  6
CONTINUOUS
 62
               4
100
AcDbCircle
 10
97.400000027452165
 20
77.500000029057674
 30
0.0
 40
0.5
100
AcDbArc
 50
0.0000000000006361
 51
90.000000000000441
  0
LINE
  5
2C8
100
AcDbEntity
  8
0
  6
CONTINUOUS
 62
               7
100
AcDbLine
 10
93.900000027452734
 20
37.800000029057287
 30
0.0
 11
96.800000027455212
 21
37.800000029057401
 31
0.0
  0
ARC
  5
2C9
100
AcDbEntity
  8
0
  6
CONTINUOUS
 62
               7
100
AcDbCircle
 10
95.400000027452847
 20
28.000000029057333
 30
0.0
 40
2.0
100
AcDbArc
 50
180.00000000000196
 51
0.0000000000015267
  0
LINE
  5
2CA
100
AcDbEntity
  8
0
  6
CONTINUOUS
 62
               7
100
AcDbLine
 10
97.400000027452847
 20
28.000000023306143
 30
0.0
 11
97.400000027452847
 21
32.000000023306143
 31
0.0
  0
ARC
  5
2CB
100
AcDbEntity
  8
0
  6
CONTINUOUS
 62
               7
100
AcDbCircle
 10
97.400000027452847
 20
32.500000029056991
 30
0.0
 40
0.5
100
AcDbArc
 50
270.00000000000091
 51
0.0000000000015267
  0
ARC
  5
2CC
100
AcDbEntity
  8
0
  6
CONTINUOUS
 62
               7
100
AcDbCircle
 10
93.900000027452734
 20
37.300000029057287
 30
0.0
 40
0.5
100
AcDbArc
 50
90.00000000000135
 51
180.00000000000114
  0
LINE
  5
2CD
100
AcDbEntity
  8
0
  6
CONTINUOUS
 62
               4
100
AcDbLine
 10
98.000000022921085
 20
64.600000029057583
 30
0.0
 11
98.000000022920972
 21
71.400000024526776
 31
0.0
  0
LINE
  5
2CE
100
AcDbEntity
  8
0
  6
CONTINUOUS
 62
               4
100
AcDbLine
 10
97.900000018390188
 20
71.50000002905756
 30
0.0
 11
98.000000022920972
 21
71.400000024526776
 31
0.0
  0
LINE
  5
2CF
100
AcDbEntity
  8
0
  6
CONTINUOUS
 62
               4
100
AcDbLine
 10
98.000000022921085
 20
64.600000029057583
 30
0.0
 11
97.900000022921063
 21
64.50000002905756
 31
0.0
  0
LINE
  5
2D0
100
AcDbEntity
  8
0
  6
CONTINUOUS
 62
               4
100
AcDbLine
 10
66.000000027454803
 20
46.200000038450867
 30
0.0
 11
66.000000027454803
 21
46.000000029057333
 31
0.0
  0
LINE
  5
2D1
100
AcDbEntity
  8
0
  6
CONTINUOUS
 62
               4
100
AcDbLine
 10
54.900000027452847
 20
52.065826286638185
 30
0.0
 11
54.900000027451938
 21
74.000000002456886
 31
0.0
  0
ARC
  5
2D2
100
AcDbEntity
  8
0
  6
CONTINUOUS
 62
               4
100
AcDbCircle
 10
68.100000027458123
 20
46.700000038450867
 30
0.0
 40
0.5
100
AcDbArc
 50
270.00000000000267
 51
0.0000000000025444
  0
ARC
  5
2D3
100
AcDbEntity
  8
0
  6
CONTINUOUS
 62
               4
100
AcDbCircle
 10
68.10000002745744
 20
49.500000029057333
 30
0.0
 40
0.5
100
AcDbArc
 50
0.000000000002519
 51
90.000000000002316
  0
LINE
  5
2D4
100
AcDbEntity
  8
0
  6
CONTINUOUS
 62
               4
100
AcDbLine
 10
68.600000027458123
 20
46.70000003845098
 30
0.0
 11
68.60000002745744
 21
49.500000029057446
 31
0.0
  0
LINE
  5
2D5
100
AcDbEntity
  8
0
  6
CONTINUOUS
 62
               4
100
AcDbLine
 10
62.500000027456622
 20
50.000000029057105
 30
0.0
 11
62.500000027456622
 21
51.000000029057105
 31
0.0
  0
LINE
  5
2D6
100
AcDbEntity
  8
0
  6
CONTINUOUS
 62
               4
100
AcDbLine
 10
61.500000027456622
 20
50.000000029057105
 30
0.0
 11
61.500000027456622
 21
51.000000029057105
 31
0.0
  0
LINE
  5
2D7
100
AcDbEntity
  8
0
  6
CONTINUOUS
 62
               4
100
AcDbLine
 10
56.087511101090399
 20
50.000000029056764
 30
0.0
 11
68.10000002745744
 21
50.000000029057333
 31
0.0
  0
LINE
  5
2D8
100
AcDbEntity
  8
0
  6
CONTINUOUS
 62
               4
100
AcDbLine
 10
57.221432325121327
 20
46.200000038450639
 30
0.0
 11
68.100000027458123
 21
46.200000038450867
 31
0.0
  0
ARC
  5
2D9
100
AcDbEntity
  8
0
  6
CONTINUOUS
 62
               4
100
AcDbCircle
 10
68.400000027466831
 20
51.500000029057333
 30
0.0
 40
0.5
100
AcDbArc
 50
270.00000000000193
 51
0.0000000000025444
  0
LINE
  5
2DA
100
AcDbEntity
  8
0
  6
CONTINUOUS
 62
               4
100
AcDbLine
 10
55.167949222238462
 20
51.000000029056764
 30
0.0
 11
68.400000027466945
 21
51.000000029057333
 31
0.0
  0
LINE
  5
2DB
100
AcDbEntity
  8
0
  6
CONTINUOUS
 62
               4
100
AcDbLine
 10
55.900000026167504
 20
75.000000011232714
 30
0.0
 11
64.400000026167504
 21
75.000000011232714
 31
0.0
  0
ARC
  5
2DC
100
AcDbEntity
  8
0
  6
CONTINUOUS
 62
               4
100
AcDbCircle
 10
55.900000027451938
 20
74.000000011232714
 30
0.0
 40
1.0
100
AcDbArc
 50
89.999999999999815
 51
179.99999999999963
  0
LINE
  5
2DD
100
AcDbEntity
  8
0
  6
CONTINUOUS
 62
               4
100
AcDbLine
 10
65.900000027451256
 20
78.000000029057333
 30
0.0
 11
96.800000027452029
 21
78.00000002905756
 31
0.0
  0
ARC
  5
2DE
100
AcDbEntity
  8
0
  6
CONTINUOUS
 62
               4
100
AcDbCircle
 10
65.900000027451256
 20
77.000000029057333
 30
0.0
 40
1.0
100
AcDbArc
 50
89.999999999999815
 51
179.99999999999963
  0
ARC
  5
2DF
100
AcDbEntity
  8
0
  6
CONTINUOUS
 62
               4
100
AcDbCircle
 10
64.400000027451256
 20
75.500000011232714
 30
0.0
 40
0.5
100
AcDbArc
 50
269.99999999999937
 51
0.0
  0
LINE
  5
2E0
100
AcDbEntity
  8
0
  6
CONTINUOUS
 62
               4
100
AcDbLine
 10
64.900000027451256
 20
77.000000029057333
 30
0.0
 11
64.900000027451256
 21
75.500000011232714
 31
0.0
  0
LINE
  5
2E1
100
AcDbEntity
  8
0
  6
CONTINUOUS
 62
               4
100
AcDbLine
 10
56.255506503815013
 20
46.941180998072127
 30
0.0
 11
54.9170371143083
 21
51.936416764086971
 31
0.0
  0
ARC
  5
2E2
100
AcDbEntity
  8
0
  6
CONTINUOUS
 62
               4
100
AcDbCircle
 10
57.221432325120531
 20
47.20000003845314
 30
0.0
 40
1.0
100
AcDbArc
 50
194.99999981259796
 51
269.99999999999937
  0
ARC
  5
2E3
100
AcDbEntity
  8
0
  6
CONTINUOUS
 62
               4
100
AcDbCircle
 10
67.900000027467172
 20
51.300000029057287
 30
0.0
 40
1.0
100
AcDbArc
 50
197.4576031237236
 51
11.309932474184668
  0
ARC
  5
2E4
100
AcDbEntity
  8
0
  6
CONTINUOUS
 62
               4
100
AcDbCircle
 10
56.087511101090399
 20
49.500000029056764
 30
0.0
 40
0.5
100
AcDbArc
 50
89.999999999999815
 51
194.99999999999952
  0
ARC
  5
2E5
100
AcDbEntity
  8
0
  6
CONTINUOUS
 62
               4
100
AcDbCircle
 10
55.400000027452847
 20
52.065826286638298
 30
0.0
 40
0.5
100
AcDbArc
 50
179.99999999999963
 51
194.99999999999918
  0
LINE
  5
2E6
100
AcDbEntity
  8
0
  6
CONTINUOUS
 62
               4
100
AcDbLine
 10
61.750000027454917
 20
44.500000029056309
 30
0.0
 11
66.250000027454917
 21
44.500000029055855
 31
0.0
  0
ARC
  5
2E7
100
AcDbEntity
  8
0
  6
CONTINUOUS
 62
               4
100
AcDbCircle
 10
97.400000027452165
 20
73.500000029059606
 30
0.0
 40
0.5
100
AcDbArc
 50
270.00000000000125
 51
0.000000000001832
  0
ARC
  5
2E8
100
AcDbEntity
  8
0
  6
CONTINUOUS
 62
               4
100
AcDbCircle
 10
97.400000027452165
 20
75.500000029059606
 30
0.0
 40
0.5
100
AcDbArc
 50
0.0000000000018066
 51
90.000000000001606
  0
LINE
  5
2E9
100
AcDbEntity
  8
0
  6
CONTINUOUS
 62
               4
100
AcDbLine
 10
96.800000027452256
 20
76.000000014820216
 30
0.0
 11
96.800000027452029
 21
78.000000014820216
 31
0.0
  0
LINE
  5
2EA
100
AcDbEntity
  8
0
  6
CONTINUOUS
 62
               4
100
AcDbLine
 10
96.800000027452256
 20
76.000000029059606
 30
0.0
 11
97.400000027452165
 21
76.000000029059606
 31
0.0
  0
LINE
  5
2EB
100
AcDbEntity
  8
0
  6
CONTINUOUS
 62
               4
100
AcDbLine
 10
96.800000027452256
 20
73.000000029059606
 30
0.0
 11
97.400000027452393
 21
73.000000029059606
 31
0.0
  0
LINE
  5
2EC
100
AcDbEntity
  8
0
  6
CONTINUOUS
 62
               4
100
AcDbLine
 10
64.100000027461988
 20
50.000000029057105
 30
0.0
 11
64.653553418048773
 21
50.55355341964389
 31
0.0
  0
LINE
  5
2ED
100
AcDbEntity
  8
0
  6
CONTINUOUS
 62
               4
100
AcDbLine
 10
66.800000027454985
 20
50.200000020771085
 30
0.0
 11
66.800000027454985
 21
50.700000029050898
 31
0.0
  0
LINE
  5
2EE
100
AcDbEntity
  8
0
  6
CONTINUOUS
 62
               4
100
AcDbLine
 10
65.007106808641879
 20
50.70000002905067
 30
0.0
 11
66.800000027454985
 21
50.700000029050898
 31
0.0
  0
LINE
  5
2EF
100
AcDbEntity
  8
0
  6
CONTINUOUS
 62
               4
100
AcDbLine
 10
66.800000027454985
 20
50.200000029050898
 30
0.0
 11
68.900000027455008
 21
50.200000029051239
 31
0.0
  0
LINE
  5
2F0
100
AcDbEntity
  8
0
  6
CONTINUOUS
 62
               4
100
AcDbLine
 10
68.900000027456258
 20
46.000000029057446
 30
0.0
 11
68.900000027451938
 21
78.000000029057333
 31
0.0
  0
LINE
  5
2F1
100
AcDbEntity
  8
0
  6
CONTINUOUS
 62
               4
100
AcDbLine
 10
68.90000002745262
 20
72.10000002795789
 30
0.0
 11
68.800000027452711
 21
72.10000002795789
 31
0.0
  0
LINE
  5
2F2
100
AcDbEntity
  8
0
  6
CONTINUOUS
 62
               7
100
AcDbLine
 10
61.000000027455485
 20
38.000000029056991
 30
0.0
 11
96.80000002745544
 21
38.000000029059152
 31
0.0
  0
LINE
  5
2F3
100
AcDbEntity
  8
0
  6
CONTINUOUS
 62
               4
100
AcDbLine
 10
61.000000027454803
 20
38.00000002905665
 30
0.0
 11
61.00000002745503
 21
43.300000029056378
 31
0.0
  0
LINE
  5
2F4
100
AcDbEntity
  8
0
  6
CONTINUOUS
 62
               4
100
AcDbLine
 10
61.75000002745503
 20
45.193745642154227
 30
0.0
 11
61.750000027454917
 21
43.800000029056037
 31
0.0
  0
LINE
  5
2F5
100
AcDbEntity
  8
0
  6
CONTINUOUS
 62
               4
100
AcDbLine
 10
66.25000002745503
 20
45.193745642153772
 30
0.0
 11
66.250000027454917
 21
43.800000029055695
 31
0.0
  0
ARC
  5
2F6
100
AcDbEntity
  8
0
  6
CONTINUOUS
 62
               4
100
AcDbCircle
 10
64.000000027454576
 20
40.199999838320991
 30
0.0
 40
6.0
100
AcDbArc
 50
73.80871737482147
 51
106.19135456952553
  0
ARC
  5
2F7
100
AcDbEntity
  8
0
  6
CONTINUOUS
 62
               4
100
AcDbCircle
 10
62.550000218189894
 20
45.193745642154113
 30
0.0
 40
0.800000011920929
100
AcDbArc
 50
106.19135456952553
 51
180.00001798608395
  0
ARC
  5
2F8
100
AcDbEntity
  8
0
  6
CONTINUOUS
 62
               4
100
AcDbCircle
 10
65.449999836720167
 20
45.193745642153885
 30
0.0
 40
0.800000011920929
100
AcDbArc
 50
359.99998201390565
 51
73.808645430464111
  0
LINE
  5
2F9
100
AcDbEntity
  8
0
  6
CONTINUOUS
 62
               4
100
AcDbLine
 10
63.000000027455599
 20
46.116079621420795
 30
0.0
 11
63.000000027455599
 21
46.200000038450753
 31
0.0
  0
LINE
  5
2FA
100
AcDbEntity
  8
0
  6
CONTINUOUS
 62
               4
100
AcDbLine
 10
61.50000002745503
 20
43.800000029056264
 30
0.0
 11
66.800000027454985
 21
43.800000029055809
 31
0.0
  0
ARC
  5
2FB
100
AcDbEntity
  8
0
  6
CONTINUOUS
 62
               4
100
AcDbCircle
 10
65.007106808642675
 20
50.200000029049875
 30
0.0
 40
0.5
100
AcDbArc
 50
89.999999999994813
 51
134.9999999999944
  0
LINE
  5
2FC
100
AcDbEntity
  8
0
  6
CONTINUOUS
 62
               4
100
AcDbLine
 10
66.000000027455258
 20
50.700000029049875
 30
0.0
 11
66.000000027455258
 21
50.000000029057219
 31
0.0
  0
ARC
  5
2FD
100
AcDbEntity
  8
0
  6
CONTINUOUS
 62
               4
100
AcDbCircle
 10
61.50000002745503
 20
43.300000029056264
 30
0.0
 40
0.5
100
AcDbArc
 50
89.999999999999815
 51
179.99999999999963
  0
LINE
  5
2FE
100
AcDbEntity
  8
0
  6
CONTINUOUS
 62
               4
100
AcDbLine
 10
66.800000027454985
 20
43.800000029055809
 30
0.0
 11
66.800000027455098
 21
45.500000029056764
 31
0.0
  0
ARC
  5
2FF
100
AcDbEntity
  8
0
  6
CONTINUOUS
 62
               4
100
AcDbCircle
 10
67.300000027455098
 20
45.50000002905665
 30
0.0
 40
0.5
100
AcDbArc
 50
89.999999999999815
 51
179.99999999999963
  0
LINE
  5
300
100
AcDbEntity
  8
0
  6
CONTINUOUS
 62
               4
100
AcDbLine
 10
65.536228456909726
 20
46.00000002905665
 30
0.0
 11
68.900000027456485
 21
46.00000002905665
 31
0.0
  0
LINE
  5
301
100
AcDbEntity
  8
0
  6
CONTINUOUS
 62
               7
100
AcDbLine
 10
98.000000027455826
 20
32.000000029061539
 30
0.0
 11
98.000000027470264
 21
-81.499999970944543
 31
0.0
  0
LINE
  5
302
100
AcDbEntity
  8
0
  6
CONTINUOUS
 62
               7
100
AcDbLine
 10
61.000000027456622
 20
23.000000029058015
 30
0.0
 11
98.000000027456963
 21
23.000000029061539
 31
0.0
  0
LINE
  5
303
100
AcDbEntity
  8
0
  6
CONTINUOUS
 62
               7
100
AcDbLine
 10
61.000000027469753
 20
-81.499999970944657
 30
0.0
 11
61.000000027454803
 21
38.000000029056991
 31
0.0
  0
LINE
  5
304
100
AcDbEntity
  8
0
  6
CONTINUOUS
 62
               7
100
AcDbLine
 10
98.000000027455826
 20
32.000000029061539
 30
0.0
 11
96.800000027455667
 21
32.000000029061425
 31
0.0
  0
LINE
  5
305
100
AcDbEntity
  8
0
  6
CONTINUOUS
 62
               7
100
AcDbLine
 10
93.400000027455008
 20
38.000000029060971
 30
0.0
 11
93.400000027456372
 21
27.919155780176197
 31
0.0
  0
LINE
  5
306
100
AcDbEntity
  8
0
  6
CONTINUOUS
 62
               7
100
AcDbLine
 10
98.000000027025067
 20
24.500000029061539
 30
0.0
 11
94.554763582551573
 21
26.106540172551036
 31
0.0
  0
ARC
  5
307
100
AcDbEntity
  8
0
  6
CONTINUOUS
 62
               7
100
AcDbCircle
 10
95.400000027456372
 20
27.919155780176425
 30
0.0
 40
2.0
100
AcDbArc
 50
180.00000000000682
 51
245.00000149217658
  0
ARC
  5
308
100
AcDbEntity
  8
0
  6
CONTINUOUS
 62
               7
100
AcDbCircle
 10
61.500000027466626
 20
-56.499999970944714
 30
0.0
 40
0.5
100
AcDbArc
 50
179.99999999999963
 51
269.99999999999937
  0
LINE
  5
309
100
AcDbEntity
  8
0
  6
CENTER
 62
               2
100
AcDbLine
 10
60.283000027466642
 20
29.500000017134198
 30
0.0
 11
45.717000027466611
 21
29.500000017134198
 31
0.0
  0
LINE
  5
30A
100
AcDbEntity
  8
0
  6
CENTER
 62
               2
100
AcDbLine
 10
53.000000027466626
 20
36.783000017134199
 30
0.0
 11
53.000000027466626
 21
22.217000017134197
 31
0.0
  0
LINE
  5
30B
100
AcDbEntity
  8
0
  6
CENTER
 62
               2
100
AcDbLine
 10
50.315500027466669
 20
15.000000017134198
 30
0.0
 11
25.684500027466697
 21
15.000000017134198
 31
0.0
  0
LINE
  5
30C
100
AcDbEntity
  8
0
  6
CENTER
 62
               2
100
AcDbLine
 10
38.000000027466683
 20
27.315500017134198
 30
0.0
 11
38.000000027466683
 21
2.6845000171341979
 31
0.0
  0
LINE
  5
30D
100
AcDbEntity
  8
0
  6
CENTER
 62
               2
100
AcDbLine
 10
37.815500027466669
 20
-14.999999982865802
 30
0.0
 11
13.184500027466697
 21
-14.999999982865802
 31
0.0
  0
LINE
  5
30E
100
AcDbEntity
  8
0
  6
CENTER
 62
               2
100
AcDbLine
 10
25.500000027466683
 20
-2.6844999828658018
 30
0.0
 11
25.500000027466683
 21
-27.315499982865802
 31
0.0
  0
LINE
  5
30F
100
AcDbEntity
  8
0
  6
CENTER
 62
               2
100
AcDbLine
 10
58.415500027466635
 20
-35.999999982865802
 30
0.0
 11
33.784500027466663
 21
-35.999999982865802
 31
0.0
  0
LINE
  5
310
100
AcDbEntity
  8
0
  6
CENTER
 62
               2
100
AcDbLine
 10
46.100000027466649
 20
-23.684499982865802
 30
0.0
 11
46.100000027466649
 21
-48.315499982865802
 31
0.0
  0
LINE
  5
311
100
AcDbEntity
  8
0
  6
CENTER
 62
               2
100
AcDbLine
 10
32.783000027466699
 20
-42.999999994786833
 30
0.0
 11
18.217000027466668
 21
-42.999999994786833
 31
0.0
  0
LINE
  5
312
100
AcDbEntity
  8
0
  6
CENTER
 62
               2
100
AcDbLine
 10
25.500000027466683
 20
-35.716999994786832
 30
0.0
 11
25.500000027466683
 21
-50.282999994786834
 31
0.0
  0
LINE
  5
313
100
AcDbEntity
  8
0
  6
CONTINUOUS
 62
               4
100
AcDbLine
 10
96.800000027455212
 20
38.000000029059152
 30
0.0
 11
96.80000002745237
 21
73.000000029059606
 31
0.0
  0
LINE
  5
314
100
AcDbEntity
  8
0
  6
CONTINUOUS
 62
               4
100
AcDbLine
 10
97.900000022922143
 20
38.000000029059223
 30
0.0
 11
97.900000022921063
 21
77.500000029057674
 31
0.0
  0
LINE
  5
315
100
AcDbEntity
  8
0
  6
CENTER
 62
               2
100
AcDbLine
 10
38.000000027466683
 20
0.0
 30
0.0
 11
-20.395354807427793
 21
0.0
 31
0.0
  0
LINE
  5
316
100
AcDbEntity
  8
0
  6
CENTER
 62
               2
100
AcDbLine
 10
38.000000027466683
 20
-52.000000000000028
 30
0.0
 11
-20.395354807427793
 21
-52.000000000000028
 31
0.0
  0
LINE
  5
317
100
AcDbEntity
  8
0
  6
CENTER
 62
               2
100
AcDbLine
 10
0.0
 20
8.7867335032919129
 30
0.0
 11
0.0
 21
-54.439874239362169
 31
0.0
  0
ARC
  5
318
100
AcDbEntity
  8
0
  6
CONTINUOUS
 62
               7
100
AcDbCircle
 10
38.400000027466717
 20
29.494481725701803
 30
0.0
 40
1.0
100
AcDbArc
 50
268.4192262343123
 51
0.0
  0
ARC
  5
319
100
AcDbEntity
  8
0
  6
CONTINUOUS
 62
               7
100
AcDbCircle
 10
38.000000027466683
 20
15.000000017134198
 30
0.0
 40
13.5
100
AcDbArc
 50
88.419226234313101
 51
191.94054396060832
  0
LINE
  5
31A
100
AcDbEntity
  8
0
  6
CENTER
 62
               2
100
AcDbLine
 10
44.200000027466757
 20
29.278455062594958
 30
0.0
 11
44.200000027466757
 21
38.909790404450177
 31
0.0
  0
LINE
  5
31B
100
AcDbEntity
  8
0
  6
CONTINUOUS
 62
               7
100
AcDbLine
 10
20.0
 20
11.000000017134198
 30
0.0
 11
23.813739068355574
 21
11.000000017134198
 31
0.0
  0
ARC
  5
31C
100
AcDbEntity
  8
0
  6
CONTINUOUS
 62
               7
100
AcDbCircle
 10
23.813739068355574
 20
12.000000017134198
 30
0.0
 40
1.0
100
AcDbArc
 50
270.00000000000023
 51
11.940543960609043
  0
ARC
  5
31D
100
AcDbEntity
  8
0
  6
CONTINUOUS
 62
               7
100
AcDbCircle
 10
12.0
 20
16.000000005213167
 30
0.0
 40
5.0
100
AcDbArc
 50
0.0
 51
89.999999999999815
  0
ARC
  5
31E
100
AcDbEntity
  8
0
  6
CONTINUOUS
 62
               7
100
AcDbCircle
 10
20.0
 20
14.000000017134198
 30
0.0
 40
3.0
100
AcDbArc
 50
179.99999999999963
 51
269.99999999999937
  0
LINE
  5
31F
100
AcDbEntity
  8
0
  6
CONTINUOUS
 62
               7
100
AcDbLine
 10
17.0
 20
14.000000017134198
 30
0.0
 11
17.0
 21
16.000000005213167
 31
0.0
  0
LINE
  5
320
100
AcDbEntity
  8
0
  6
CONTINUOUS
 62
               7
100
AcDbLine
 10
10.000000027466626
 20
-45.499999963804896
 30
0.0
 11
10.000000027466626
 21
16.000000005213167
 31
0.0
  0
ARC
  5
321
100
AcDbEntity
  8
0
  6
CONTINUOUS
 62
               7
100
AcDbCircle
 10
1.0
 20
17.000000005213167
 30
0.0
 40
1.0
100
AcDbArc
 50
179.99999999999963
 51
269.99999999999937
  0
LINE
  5
322
100
AcDbEntity
  8
0
  6
CONTINUOUS
 62
               7
100
AcDbLine
 10
0.0
 20
17.000000001165631
 30
0.0
 11
0.0
 21
20.000000005213167
 31
0.0
  0
LINE
  5
323
100
AcDbEntity
  8
0
  6
CONTINUOUS
 62
               7
100
AcDbLine
 10
10.000000027466626
 20
16.000000005213167
 30
0.0
 11
1.0
 21
16.000000005213167
 31
0.0
  0
ARC
  5
324
100
AcDbEntity
  8
0
  6
CONTINUOUS
 62
               7
100
AcDbCircle
 10
1.0
 20
20.000000005213167
 30
0.0
 40
1.0
100
AcDbArc
 50
89.999999999999815
 51
179.99999999999963
  0
LINE
  5
325
100
AcDbEntity
  8
0
  6
CONTINUOUS
 62
               7
100
AcDbLine
 10
12.0
 20
21.000000005213167
 30
0.0
 11
1.0
 21
21.000000005213167
 31
0.0
  0
LINE
  5
326
100
AcDbEntity
  8
0
  6
CONTINUOUS
 62
               7
100
AcDbLine
 10
4.7014150337293756
 20
-45.926422187300005
 30
0.0
 11
0.180847983177685
 21
-52.382461009889489
 31
0.0
  0
LINE
  5
327
100
AcDbEntity
  8
0
  6
CONTINUOUS
 62
               7
100
AcDbLine
 10
5.5205670780183738
 20
-45.499998623651052
 30
0.0
 11
10.000000027466626
 21
-45.499998623651052
 31
0.0
  0
ARC
  5
328
100
AcDbEntity
  8
0
  6
CONTINUOUS
 62
               7
100
AcDbCircle
 10
5.5205670780183738
 20
-46.499998623651052
 30
0.0
 40
1.0
100
AcDbArc
 50
89.999999999999815
 51
144.99999999999983
  0
LINE
  5
329
100
AcDbEntity
  8
0
  6
CONTINUOUS
 62
               7
100
AcDbLine
 10
59.0
 20
-57.999999994786833
 30
0.0
 11
1.0000000274666832
 21
-57.999999994786833
 31
0.0
  0
ARC
  5
32A
100
AcDbEntity
  8
0
  6
CONTINUOUS
 62
               7
100
AcDbCircle
 10
1.0000000274666832
 20
-57.000000006707893
 30
0.0
 40
1.0
100
AcDbArc
 50
179.99999999999963
 51
269.99999999999937
  0
LINE
  5
32B
100
AcDbEntity
  8
0
  6
CONTINUOUS
 62
               7
100
AcDbLine
 10
0.0000000274666832
 20
-56.999998654632989
 30
0.0
 11
0.0000000274666832
 21
-52.956037446240536
 31
0.0
  0
ARC
  5
32C
100
AcDbEntity
  8
0
  6
CONTINUOUS
 62
               7
100
AcDbCircle
 10
1.0000000274666832
 20
-52.956037446240536
 30
0.0
 40
1.0
100
AcDbArc
 50
144.99999999999983
 51
179.99999999999963
  0
ENDBLK
  5
32D
100
AcDbEntity
  8
0
100
AcDbBlockEnd
  0
BLOCK
  5
32E
100
AcDbEntity
  8
0
100
AcDbBlockBegin
  2
PA-H-4
 70
               0
 10
0.0
 20
0.0
 30
0.0
  3
PA-H-4
  1

  0
LINE
  5
32F
100
AcDbEntity
  8
0
  6
CONTINUOUS
 62
               7
100
AcDbLine
 10
6.1000000000179568
 20
-57.999999982866115
 30
0.0
 11
6.1000000000180137
 21
-82.500000017133573
 31
0.0
  0
LINE
  5
330
100
AcDbEntity
  8
0
  6
CONTINUOUS
 62
               7
100
AcDbLine
 10
29.90000000001848
 20
-57.999999982866115
 30
0.0
 11
29.900000000017343
 21
-82.500000017146959
 31
0.0
  0
LINE
  5
331
100
AcDbEntity
  8
0
  6
CONTINUOUS
 62
               4
100
AcDbLine
 10
54.100000000008919
 20
36.999999982871309
 30
0.0
 11
54.100000000011647
 21
75.999999982866427
 31
0.0
  0
LINE
  5
332
100
AcDbEntity
  8
0
  6
CONTINUOUS
 62
               4
100
AcDbLine
 10
54.150000000001825
 20
44.193745604873918
 30
0.0
 11
54.150000000001938
 21
42.799999991775785
 31
0.0
  0
LINE
  5
333
100
AcDbEntity
  8
0
  6
CONTINUOUS
 62
               4
100
AcDbLine
 10
60.200000000009112
 20
44.999999982865056
 30
0.0
 11
60.200000000009112
 21
45.199999989060458
 31
0.0
  0
LINE
  5
334
100
AcDbEntity
  8
0
  6
CONTINUOUS
 62
               4
100
AcDbLine
 10
62.249999998087077
 20
44.999999982865042
 30
0.0
 11
57.93622846310339
 21
44.99999998286507
 31
0.0
  0
ARC
  5
335
100
AcDbEntity
  8
0
  6
CONTINUOUS
 62
               4
100
AcDbCircle
 10
54.950000190736688
 20
44.193745604874024
 30
0.0
 40
0.800000011920929
100
AcDbArc
 50
106.19135456953489
 51
180.00001798609333
  0
ARC
  5
336
100
AcDbEntity
  8
0
  6
CONTINUOUS
 62
               4
100
AcDbCircle
 10
56.400000000002223
 20
39.199999801041137
 30
0.0
 40
6.0
100
AcDbArc
 50
73.808645430473405
 51
106.19128262517746
  0
LINE
  5
337
100
AcDbEntity
  8
0
  6
CONTINUOUS
 62
               4
100
AcDbLine
 10
54.863771536901226
 20
44.999999982865127
 30
0.0
 11
54.10000000379884
 21
44.999999982865113
 31
0.0
  0
LINE
  5
338
100
AcDbEntity
  8
0
  6
CONTINUOUS
 62
               4
100
AcDbLine
 10
58.650000000001825
 20
44.193745604874273
 30
0.0
 11
58.650000000001938
 21
42.79999999177614
 31
0.0
  0
LINE
  5
339
100
AcDbEntity
  8
0
  6
CONTINUOUS
 62
               4
100
AcDbLine
 10
59.880000000008948
 20
42.79999998286609
 30
0.0
 11
59.880000000009176
 21
44.999999982865056
 31
0.0
  0
LINE
  5
33A
100
AcDbEntity
  8
0
  6
CONTINUOUS
 62
               4
100
AcDbLine
 10
62.249999998087077
 20
42.799999982865906
 30
0.0
 11
62.249999998087077
 21
44.999999982865042
 31
0.0
  0
LINE
  5
33B
100
AcDbEntity
  8
0
  6
CONTINUOUS
 62
               4
100
AcDbLine
 10
54.100000000008976
 20
42.799999982866488
 30
0.0
 11
62.249999998087077
 21
42.799999982865906
 31
0.0
  0
ARC
  5
33C
100
AcDbEntity
  8
0
  6
CONTINUOUS
 62
               4
100
AcDbCircle
 10
57.849999809266961
 20
44.193745604874231
 30
0.0
 40
0.800000011920929
100
AcDbArc
 50
359.99998201391423
 51
73.808645430473476
  0
LINE
  5
33D
100
AcDbEntity
  8
0
  6
CONTINUOUS
 62
               4
100
AcDbLine
 10
58.650000000001938
 20
43.499999991776356
 30
0.0
 11
54.150000000001938
 21
43.499999991776001
 31
0.0
  0
LINE
  5
33E
100
AcDbEntity
  8
0
  6
CONTINUOUS
 62
               4
100
AcDbLine
 10
54.099999992750867
 20
50.999999988458335
 30
0.0
 11
77.900000004671796
 21
50.999999988445332
 31
0.0
  0
ARC
  5
33F
100
AcDbEntity
  8
0
  6
CONTINUOUS
 62
               4
100
AcDbCircle
 10
76.899999999996993
 20
50.999999979660785
 30
0.0
 40
1.0
100
AcDbArc
 50
269.99999999996811
 51
359.99999999996788
  0
ARC
  5
340
100
AcDbEntity
  8
0
  6
CONTINUOUS
 62
               4
100
AcDbCircle
 10
55.099999999997038
 20
50.999999979672701
 30
0.0
 40
1.0
100
AcDbArc
 50
179.99999999996825
 51
269.99999999996805
  0
LINE
  5
341
100
AcDbEntity
  8
0
  6
CONTINUOUS
 62
               4
100
AcDbLine
 10
71.299999999996118
 20
49.999999979663848
 30
0.0
 11
76.899999999996481
 21
49.999999979660785
 31
0.0
  0
LINE
  5
342
100
AcDbEntity
  8
0
  6
CONTINUOUS
 62
               4
100
AcDbLine
 10
74.299999995321144
 20
49.29999997966307
 30
0.0
 11
72.79999999999572
 21
49.299999979663717
 31
0.0
  0
LINE
  5
343
100
AcDbEntity
  8
0
  6
CONTINUOUS
 62
               4
100
AcDbLine
 10
74.799999999993958
 20
45.69999998905643
 30
0.0
 11
74.799999999995435
 21
48.799999979662793
 31
0.0
  0
ARC
  5
344
100
AcDbEntity
  8
0
  6
CONTINUOUS
 62
               4
100
AcDbCircle
 10
74.299999999993958
 20
45.699999989056707
 30
0.0
 40
0.5
100
AcDbArc
 50
269.99999999997362
 51
359.99999999997351
  0
ARC
  5
345
100
AcDbEntity
  8
0
  6
CONTINUOUS
 62
               4
100
AcDbCircle
 10
74.299999999995435
 20
48.79999997966307
 30
0.0
 40
0.5
100
AcDbArc
 50
359.99999999997431
 51
89.999999999974094
  0
LINE
  5
346
100
AcDbEntity
  8
0
  6
CONTINUOUS
 62
               4
100
AcDbLine
 10
71.29999999999373
 20
45.199999989058121
 30
0.0
 11
71.299999999996118
 21
49.999999979664473
 31
0.0
  0
LINE
  5
347
100
AcDbEntity
  8
0
  6
CONTINUOUS
 62
               4
100
AcDbLine
 10
72.79999999999373
 20
45.19999998905741
 30
0.0
 11
72.799999999996118
 21
49.999999979663762
 31
0.0
  0
LINE
  5
348
100
AcDbEntity
  8
0
  6
CONTINUOUS
 62
               4
100
AcDbLine
 10
60.699999999994276
 20
45.199999989063343
 30
0.0
 11
60.699999999996663
 21
49.999999979669639
 31
0.0
  0
ARC
  5
349
100
AcDbEntity
  8
0
  6
CONTINUOUS
 62
               4
100
AcDbCircle
 10
57.699999999995981
 20
48.799999979671291
 30
0.0
 40
0.5
100
AcDbArc
 50
89.999999999968509
 51
179.99999999996831
  0
ARC
  5
34A
100
AcDbEntity
  8
0
  6
CONTINUOUS
 62
               4
100
AcDbCircle
 10
57.699999999994503
 20
45.699999989064928
 30
0.0
 40
0.5
100
AcDbArc
 50
179.99999999996834
 51
269.99999999996817
  0
LINE
  5
34B
100
AcDbEntity
  8
0
  6
CONTINUOUS
 62
               4
100
AcDbLine
 10
57.199999999994503
 20
45.699999989065198
 30
0.0
 11
57.199999999995981
 21
48.799999979671561
 31
0.0
  0
LINE
  5
34C
100
AcDbEntity
  8
0
  6
CONTINUOUS
 62
               4
100
AcDbLine
 10
74.29999999999373
 20
45.199999989055854
 30
0.0
 11
57.699999999994276
 21
45.199999989064928
 31
0.0
  0
LINE
  5
34D
100
AcDbEntity
  8
0
  6
CONTINUOUS
 62
               4
100
AcDbLine
 10
57.700000004670954
 20
49.299999979671291
 30
0.0
 11
59.199999999996265
 21
49.299999979670467
 31
0.0
  0
LINE
  5
34E
100
AcDbEntity
  8
0
  6
CONTINUOUS
 62
               4
100
AcDbLine
 10
55.099999999996527
 20
49.999999979672701
 30
0.0
 11
60.699999999996663
 21
49.999999979669639
 31
0.0
  0
LINE
  5
34F
100
AcDbEntity
  8
0
  6
CONTINUOUS
 62
               4
100
AcDbLine
 10
54.100000000008464
 20
73.999999973960769
 30
0.0
 11
77.900000004684358
 21
73.999999973947752
 31
0.0
  0
ARC
  5
350
100
AcDbEntity
  8
0
  6
CONTINUOUS
 62
               4
100
AcDbCircle
 10
58.000000000004974
 20
66.999999982871344
 30
0.0
 40
0.5
100
AcDbArc
 50
179.99999999996825
 51
269.99999999996805
  0
ARC
  5
351
100
AcDbEntity
  8
0
  6
CONTINUOUS
 62
               4
100
AcDbCircle
 10
74.000000000004974
 20
66.99999998286259
 30
0.0
 40
0.5
100
AcDbArc
 50
269.99999999996817
 51
359.99999999996794
  0
LINE
  5
352
100
AcDbEntity
  8
0
  6
CONTINUOUS
 62
               4
100
AcDbLine
 10
76.90000000000984
 20
76.999999982860345
 30
0.0
 11
55.100000000009999
 21
76.999999982871117
 31
0.0
  0
ARC
  5
353
100
AcDbEntity
  8
0
  6
CONTINUOUS
 62
               4
100
AcDbCircle
 10
76.900000000009555
 20
75.999999982860345
 30
0.0
 40
1.0
100
AcDbArc
 50
359.99999999997448
 51
89.99999999997425
  0
ARC
  5
354
100
AcDbEntity
  8
0
  6
CONTINUOUS
 62
               4
100
AcDbCircle
 10
55.100000000009601
 20
75.999999982871117
 30
0.0
 40
1.0
100
AcDbArc
 50
89.99999999997425
 51
179.99999999997405
  0
LINE
  5
355
100
AcDbEntity
  8
0
  6
CENTER
 62
             200
100
AcDbLine
 10
62.762727745925559
 20
56.299999982868748
 30
0.0
 11
69.314053010848539
 21
56.299999982865167
 31
0.0
  0
LINE
  5
356
100
AcDbEntity
  8
0
  6
CONTINUOUS
 62
               4
100
AcDbLine
 10
74.500000000004974
 20
66.999999982862334
 30
0.0
 11
74.500000000008555
 21
73.999999973949627
 31
0.0
  0
LINE
  5
357
100
AcDbEntity
  8
0
  6
CONTINUOUS
 62
               4
100
AcDbLine
 10
57.500000000004974
 20
66.999999982871628
 30
0.0
 11
57.500000000008669
 21
73.999999973958921
 31
0.0
  0
LINE
  5
358
100
AcDbEntity
  8
0
  6
CONTINUOUS
 62
               4
100
AcDbLine
 10
58.00000000000469
 20
66.499999982871344
 30
0.0
 11
74.00000000000469
 21
66.49999998286259
 31
0.0
  0
CIRCLE
  5
359
100
AcDbEntity
  8
0
  6
CONTINUOUS
 62
               4
100
AcDbCircle
 10
64.24999999999946
 20
56.299999982868222
 30
0.0
 40
0.8
  0
CIRCLE
  5
35A
100
AcDbEntity
  8
0
  6
CONTINUOUS
 62
               4
100
AcDbCircle
 10
67.74999999999946
 20
56.299999982866254
 30
0.0
 40
0.8
  0
ARC
  5
35B
100
AcDbEntity
  8
0
  6
CONTINUOUS
 62
               4
100
AcDbCircle
 10
64.249999999999801
 20
56.299999982868506
 30
0.0
 40
2.0
100
AcDbArc
 50
89.999999999962654
 51
269.99999999996226
  0
LINE
  5
35C
100
AcDbEntity
  8
0
  6
CONTINUOUS
 62
               4
100
AcDbLine
 10
64.250000011539754
 20
54.299999982868165
 30
0.0
 11
67.750000011539754
 21
54.299999982866254
 31
0.0
  0
LINE
  5
35D
100
AcDbEntity
  8
0
  6
CONTINUOUS
 62
               4
100
AcDbLine
 10
64.250000011541971
 20
58.299999982868165
 30
0.0
 11
67.750000011541971
 21
58.299999982866254
 31
0.0
  0
ARC
  5
35E
100
AcDbEntity
  8
0
  6
CONTINUOUS
 62
               4
100
AcDbCircle
 10
67.74999999999946
 20
56.299999982866254
 30
0.0
 40
2.0
100
AcDbArc
 50
269.99999999996817
 51
89.999999999968551
  0
LINE
  5
35F
100
AcDbEntity
  8
0
  6
CENTER
 62
             200
100
AcDbLine
 10
67.750000000000483
 20
57.529318325654273
 30
0.0
 11
67.749999999998892
 21
54.995604754718087
 31
0.0
  0
LINE
  5
360
100
AcDbEntity
  8
0
  6
CENTER
 62
             200
100
AcDbLine
 10
64.250000000000142
 20
57.529318325656924
 30
0.0
 11
64.249999999998892
 21
54.995604754720681
 31
0.0
  0
LINE
  5
361
100
AcDbEntity
  8
0
  6
CONTINUOUS
 62
               4
100
AcDbLine
 10
75.99999999999747
 20
52.799999982861458
 30
0.0
 11
76.000000000001791
 21
59.899999982861488
 31
0.0
  0
LINE
  5
362
100
AcDbEntity
  8
0
  6
CONTINUOUS
 62
               4
100
AcDbLine
 10
55.999999999997584
 20
52.7999999828725
 30
0.0
 11
56.000000000001791
 21
59.899999982872401
 31
0.0
  0
LINE
  5
363
100
AcDbEntity
  8
0
  6
CONTINUOUS
 62
               4
100
AcDbLine
 10
75.500000000002018
 20
60.299999982861806
 30
0.0
 11
56.500000000002018
 21
60.29999998287218
 31
0.0
  0
LINE
  5
364
100
AcDbEntity
  8
0
  6
CONTINUOUS
 62
               4
100
AcDbLine
 10
75.599999999997209
 20
52.299999982861735
 30
0.0
 11
56.399999999997277
 21
52.29999998287223
 31
0.0
  0
ARC
  5
365
100
AcDbEntity
  8
0
  6
CONTINUOUS
 62
               4
100
AcDbCircle
 10
56.499999999997584
 20
52.799999982872173
 30
0.0
 40
0.5
100
AcDbArc
 50
179.99999999996825
 51
269.99999999996805
  0
ARC
  5
366
100
AcDbEntity
  8
0
  6
CONTINUOUS
 62
               4
100
AcDbCircle
 10
56.500000000001734
 20
59.79999998287218
 30
0.0
 40
0.5
100
AcDbArc
 50
89.999999999968509
 51
179.99999999996831
  0
ARC
  5
367
100
AcDbEntity
  8
0
  6
CONTINUOUS
 62
               4
100
AcDbCircle
 10
75.500000000001734
 20
59.799999982861806
 30
0.0
 40
0.5
100
AcDbArc
 50
359.99999999996868
 51
89.999999999968495
  0
ARC
  5
368
100
AcDbEntity
  8
0
  6
CONTINUOUS
 62
               4
100
AcDbCircle
 10
75.49999999999747
 20
52.799999982861792
 30
0.0
 40
0.5
100
AcDbArc
 50
269.99999999996805
 51
359.99999999996783
  0
LINE
  5
369
100
AcDbEntity
  8
0
  6
CONTINUOUS
 62
               4
100
AcDbLine
 10
77.900000000011374
 20
75.999999991781124
 30
0.0
 11
77.900000000011033
 21
36.999999982859556
 31
0.0
  0
LINE
  5
36A
100
AcDbEntity
  8
0
  6
CONTINUOUS
 62
               4
100
AcDbLine
 10
72.119999999993667
 20
42.799999982862666
 30
0.0
 11
72.11999999999469
 21
44.999999982861631
 31
0.0
  0
LINE
  5
36B
100
AcDbEntity
  8
0
  6
CONTINUOUS
 62
               4
100
AcDbLine
 10
69.750000001915538
 20
42.799999982863795
 30
0.0
 11
69.750000001916789
 21
44.999999982862931
 31
0.0
  0
LINE
  5
36C
100
AcDbEntity
  8
0
  6
CONTINUOUS
 62
               4
100
AcDbLine
 10
60.799999999991911
 20
38.99999998287214
 30
0.0
 11
60.799999999992707
 21
40.899999982872117
 31
0.0
  0
LINE
  5
36D
100
AcDbEntity
  8
0
  6
CONTINUOUS
 62
               4
100
AcDbLine
 10
71.199999999992002
 20
38.999999982867031
 30
0.0
 11
71.199999999992798
 21
40.899999982867008
 31
0.0
  0
LINE
  5
36E
100
AcDbEntity
  8
0
  6
CONTINUOUS
 62
               4
100
AcDbLine
 10
60.799999990242242
 20
40.899999982872686
 30
0.0
 11
71.199999990242333
 21
40.899999982867008
 31
0.0
  0
LINE
  5
36F
100
AcDbEntity
  8
0
  6
CONTINUOUS
 62
               4
100
AcDbLine
 10
60.799999990241218
 20
38.999999982872708
 30
0.0
 11
71.199999990241309
 21
38.999999982867031
 31
0.0
  0
LINE
  5
370
100
AcDbEntity
  8
0
  6
CONTINUOUS
 62
               4
100
AcDbLine
 10
69.750000001916789
 20
44.999999982862931
 30
0.0
 11
74.063771536900475
 21
44.999999982860572
 31
0.0
  0
LINE
  5
371
100
AcDbEntity
  8
0
  6
CONTINUOUS
 62
               4
100
AcDbLine
 10
54.099999992376382
 20
49.699999982871638
 30
0.0
 11
59.199999999996493
 21
49.69999998286908
 31
0.0
  0
LINE
  5
372
100
AcDbEntity
  8
0
  6
CONTINUOUS
 62
               4
100
AcDbLine
 10
77.899999999993639
 20
42.799999982859852
 30
0.0
 11
69.750000001915538
 21
42.799999982863795
 31
0.0
  0
LINE
  5
373
100
AcDbEntity
  8
0
  6
CONTINUOUS
 62
               4
100
AcDbLine
 10
71.799999999994753
 20
44.999999982861809
 30
0.0
 11
71.799999999994867
 21
45.199999989057218
 31
0.0
  0
LINE
  5
374
100
AcDbEntity
  8
0
  6
CONTINUOUS
 62
               4
100
AcDbLine
 10
72.799999999995947
 20
49.699999982862387
 30
0.0
 11
77.900000004297311
 21
49.699999982859829
 31
0.0
  0
LINE
  5
375
100
AcDbEntity
  8
0
  6
CONTINUOUS
 62
               4
100
AcDbLine
 10
59.199999999994901
 20
45.199999989064104
 30
0.0
 11
59.199999999996663
 21
49.999999979670456
 31
0.0
  0
CIRCLE
  5
376
100
AcDbEntity
  8
0
  6
CONTINUOUS
 62
               4
100
AcDbCircle
 10
67.74999999999946
 20
56.299999982866254
 30
0.0
 40
0.25
  0
CIRCLE
  5
377
100
AcDbEntity
  8
0
  6
CONTINUOUS
 62
               4
100
AcDbCircle
 10
64.24999999999946
 20
56.299999982868222
 30
0.0
 40
0.25
  0
ARC
  5
378
100
AcDbEntity
  8
0
  6
CONTINUOUS
 62
               4
100
AcDbCircle
 10
74.150000190736449
 20
44.193745604869669
 30
0.0
 40
0.800000011920929
100
AcDbArc
 50
106.19135456949419
 51
180.0000179860526
  0
LINE
  5
379
100
AcDbEntity
  8
0
  6
CONTINUOUS
 62
               4
100
AcDbLine
 10
73.350000000001586
 20
44.193745604870166
 30
0.0
 11
73.350000000000676
 21
42.799999991772033
 31
0.0
  0
LINE
  5
37A
100
AcDbEntity
  8
0
  6
CONTINUOUS
 62
               4
100
AcDbLine
 10
73.350000000001074
 20
43.499999991772249
 30
0.0
 11
77.850000000001074
 21
43.499999991769393
 31
0.0
  0
ARC
  5
37B
100
AcDbEntity
  8
0
  6
CONTINUOUS
 62
               4
100
AcDbCircle
 10
77.049999809266723
 20
44.193745604867864
 30
0.0
 40
0.800000011920929
100
AcDbArc
 50
359.99998201387439
 51
73.808645430432804
  0
LINE
  5
37C
100
AcDbEntity
  8
0
  6
CONTINUOUS
 62
               4
100
AcDbLine
 10
77.850000000001586
 20
44.19374560486731
 30
0.0
 11
77.850000000000676
 21
42.799999991769177
 31
0.0
  0
ARC
  5
37D
100
AcDbEntity
  8
0
  6
CONTINUOUS
 62
               4
100
AcDbCircle
 10
75.599999999998403
 20
39.199999801035759
 30
0.0
 40
6.0
100
AcDbArc
 50
73.80871737479012
 51
106.19135456949419
  0
LINE
  5
37E
100
AcDbEntity
  8
0
  6
CONTINUOUS
 62
               4
100
AcDbLine
 10
77.13622846310264
 20
44.999999982858895
 30
0.0
 11
77.899999996205025
 21
44.999999982858476
 31
0.0
  0
LINE
  5
37F
100
AcDbEntity
  8
0
  6
CENTER
 62
             200
100
AcDbLine
 10
65.999999999999687
 20
36.99999998286544
 30
0.0
 11
66.000000000011397
 21
78.999318102049784
 31
0.0
  0
LINE
  5
380
100
AcDbEntity
  8
0
  6
CONTINUOUS
 62
               4
100
AcDbLine
 10
30.100000000008919
 20
36.999999982865432
 30
0.0
 11
30.10000000001159
 21
75.999999982860544
 31
0.0
  0
LINE
  5
381
100
AcDbEntity
  8
0
  6
CONTINUOUS
 62
               4
100
AcDbLine
 10
30.150000000001825
 20
44.193745604868042
 30
0.0
 11
30.150000000001938
 21
42.799999991769909
 31
0.0
  0
LINE
  5
382
100
AcDbEntity
  8
0
  6
CONTINUOUS
 62
               4
100
AcDbLine
 10
36.200000000009112
 20
44.99999998285918
 30
0.0
 11
36.200000000009112
 21
45.199999989054582
 31
0.0
  0
LINE
  5
383
100
AcDbEntity
  8
0
  6
CONTINUOUS
 62
               4
100
AcDbLine
 10
38.249999998087077
 20
44.999999982859165
 30
0.0
 11
33.93622846310339
 21
44.999999982859194
 31
0.0
  0
ARC
  5
384
100
AcDbEntity
  8
0
  6
CONTINUOUS
 62
               4
100
AcDbCircle
 10
30.950000190736688
 20
44.193745604868141
 30
0.0
 40
0.800000011920929
100
AcDbArc
 50
106.19135456953489
 51
180.00001798609333
  0
ARC
  5
385
100
AcDbEntity
  8
0
  6
CONTINUOUS
 62
               4
100
AcDbCircle
 10
32.400000000002223
 20
39.199999801035254
 30
0.0
 40
6.0
100
AcDbArc
 50
73.808645430473462
 51
106.19128262517752
  0
LINE
  5
386
100
AcDbEntity
  8
0
  6
CONTINUOUS
 62
               4
100
AcDbLine
 10
30.863771536901226
 20
44.999999982859244
 30
0.0
 11
30.10000000379884
 21
44.999999982859237
 31
0.0
  0
LINE
  5
387
100
AcDbEntity
  8
0
  6
CONTINUOUS
 62
               4
100
AcDbLine
 10
34.650000000001825
 20
44.193745604868397
 30
0.0
 11
34.650000000001938
 21
42.799999991770264
 31
0.0
  0
LINE
  5
388
100
AcDbEntity
  8
0
  6
CONTINUOUS
 62
               4
100
AcDbLine
 10
35.880000000008948
 20
42.799999982860214
 30
0.0
 11
35.880000000009176
 21
44.99999998285918
 31
0.0
  0
LINE
  5
389
100
AcDbEntity
  8
0
  6
CONTINUOUS
 62
               4
100
AcDbLine
 10
38.249999998087077
 20
42.799999982860029
 30
0.0
 11
38.249999998087077
 21
44.999999982859165
 31
0.0
  0
LINE
  5
38A
100
AcDbEntity
  8
0
  6
CONTINUOUS
 62
               4
100
AcDbLine
 10
30.100000000008976
 20
42.799999982860612
 30
0.0
 11
38.249999998087077
 21
42.799999982860029
 31
0.0
  0
ARC
  5
38B
100
AcDbEntity
  8
0
  6
CONTINUOUS
 62
               4
100
AcDbCircle
 10
33.849999809266961
 20
44.193745604868354
 30
0.0
 40
0.800000011920929
100
AcDbArc
 50
359.99998201391423
 51
73.808645430473476
  0
LINE
  5
38C
100
AcDbEntity
  8
0
  6
CONTINUOUS
 62
               4
100
AcDbLine
 10
34.650000000001938
 20
43.49999999177048
 30
0.0
 11
30.150000000001938
 21
43.499999991770125
 31
0.0
  0
LINE
  5
38D
100
AcDbEntity
  8
0
  6
CONTINUOUS
 62
               4
100
AcDbLine
 10
30.099999992750867
 20
50.999999988452458
 30
0.0
 11
53.900000004671796
 21
50.99999998843947
 31
0.0
  0
ARC
  5
38E
100
AcDbEntity
  8
0
  6
CONTINUOUS
 62
               4
100
AcDbCircle
 10
52.899999999996993
 20
50.999999979654923
 30
0.0
 40
1.0
100
AcDbArc
 50
269.99999999996817
 51
359.99999999996794
  0
ARC
  5
38F
100
AcDbEntity
  8
0
  6
CONTINUOUS
 62
               4
100
AcDbCircle
 10
31.099999999997038
 20
50.999999979666818
 30
0.0
 40
1.0
100
AcDbArc
 50
179.99999999996834
 51
269.99999999996817
  0
LINE
  5
390
100
AcDbEntity
  8
0
  6
CONTINUOUS
 62
               4
100
AcDbLine
 10
47.299999999996118
 20
49.999999979657979
 30
0.0
 11
52.899999999996481
 21
49.999999979654923
 31
0.0
  0
LINE
  5
391
100
AcDbEntity
  8
0
  6
CONTINUOUS
 62
               4
100
AcDbLine
 10
50.299999995321144
 20
49.299999979657208
 30
0.0
 11
48.79999999999572
 21
49.299999979657855
 31
0.0
  0
LINE
  5
392
100
AcDbEntity
  8
0
  6
CONTINUOUS
 62
               4
100
AcDbLine
 10
50.799999999993958
 20
45.699999989050568
 30
0.0
 11
50.799999999995435
 21
48.799999979656931
 31
0.0
  0
ARC
  5
393
100
AcDbEntity
  8
0
  6
CONTINUOUS
 62
               4
100
AcDbCircle
 10
50.299999999993958
 20
45.699999989050845
 30
0.0
 40
0.5
100
AcDbArc
 50
269.99999999997374
 51
359.99999999997357
  0
ARC
  5
394
100
AcDbEntity
  8
0
  6
CONTINUOUS
 62
               4
100
AcDbCircle
 10
50.299999999995435
 20
48.799999979657208
 30
0.0
 40
0.5
100
AcDbArc
 50
359.99999999997436
 51
89.99999999997415
  0
LINE
  5
395
100
AcDbEntity
  8
0
  6
CONTINUOUS
 62
               4
100
AcDbLine
 10
47.29999999999373
 20
45.199999989052252
 30
0.0
 11
47.299999999996118
 21
49.999999979658604
 31
0.0
  0
LINE
  5
396
100
AcDbEntity
  8
0
  6
CONTINUOUS
 62
               4
100
AcDbLine
 10
48.79999999999373
 20
45.199999989051548
 30
0.0
 11
48.799999999996118
 21
49.9999999796579
 31
0.0
  0
LINE
  5
397
100
AcDbEntity
  8
0
  6
CONTINUOUS
 62
               4
100
AcDbLine
 10
36.699999999994276
 20
45.199999989057467
 30
0.0
 11
36.699999999996663
 21
49.999999979663762
 31
0.0
  0
ARC
  5
398
100
AcDbEntity
  8
0
  6
CONTINUOUS
 62
               4
100
AcDbCircle
 10
33.699999999995981
 20
48.799999979665408
 30
0.0
 40
0.5
100
AcDbArc
 50
89.999999999968551
 51
179.99999999996834
  0
ARC
  5
399
100
AcDbEntity
  8
0
  6
CONTINUOUS
 62
               4
100
AcDbCircle
 10
33.699999999994503
 20
45.699999989059044
 30
0.0
 40
0.5
100
AcDbArc
 50
179.99999999996834
 51
269.99999999996817
  0
LINE
  5
39A
100
AcDbEntity
  8
0
  6
CONTINUOUS
 62
               4
100
AcDbLine
 10
33.199999999994503
 20
45.699999989059322
 30
0.0
 11
33.199999999995981
 21
48.799999979665685
 31
0.0
  0
LINE
  5
39B
100
AcDbEntity
  8
0
  6
CONTINUOUS
 62
               4
100
AcDbLine
 10
50.29999999999373
 20
45.199999989049992
 30
0.0
 11
33.699999999994276
 21
45.199999989059044
 31
0.0
  0
LINE
  5
39C
100
AcDbEntity
  8
0
  6
CONTINUOUS
 62
               4
100
AcDbLine
 10
33.700000004670954
 20
49.299999979665408
 30
0.0
 11
35.199999999996265
 21
49.299999979664591
 31
0.0
  0
LINE
  5
39D
100
AcDbEntity
  8
0
  6
CONTINUOUS
 62
               4
100
AcDbLine
 10
31.099999999996527
 20
49.999999979666818
 30
0.0
 11
36.699999999996663
 21
49.999999979663762
 31
0.0
  0
LINE
  5
39E
100
AcDbEntity
  8
0
  6
CONTINUOUS
 62
               4
100
AcDbLine
 10
30.100000000008464
 20
73.999999973954885
 30
0.0
 11
53.900000004684358
 21
73.999999973941897
 31
0.0
  0
ARC
  5
39F
100
AcDbEntity
  8
0
  6
CONTINUOUS
 62
               4
100
AcDbCircle
 10
34.000000000004974
 20
66.999999982865461
 30
0.0
 40
0.5
100
AcDbArc
 50
179.99999999996834
 51
269.99999999996817
  0
ARC
  5
3A0
100
AcDbEntity
  8
0
  6
CONTINUOUS
 62
               4
100
AcDbCircle
 10
50.000000000004974
 20
66.999999982856735
 30
0.0
 40
0.5
100
AcDbArc
 50
269.99999999996817
 51
359.99999999996794
  0
LINE
  5
3A1
100
AcDbEntity
  8
0
  6
CONTINUOUS
 62
               4
100
AcDbLine
 10
52.90000000000984
 20
76.999999982854462
 30
0.0
 11
31.100000000009999
 21
76.999999982865234
 31
0.0
  0
ARC
  5
3A2
100
AcDbEntity
  8
0
  6
CONTINUOUS
 62
               4
100
AcDbCircle
 10
52.900000000009499
 20
75.999999982854462
 30
0.0
 40
1.0
100
AcDbArc
 50
359.99999999997448
 51
89.999999999974307
  0
ARC
  5
3A3
100
AcDbEntity
  8
0
  6
CONTINUOUS
 62
               4
100
AcDbCircle
 10
31.100000000009544
 20
75.999999982865234
 30
0.0
 40
1.0
100
AcDbArc
 50
89.999999999974307
 51
179.99999999997414
  0
LINE
  5
3A4
100
AcDbEntity
  8
0
  6
CENTER
 62
             200
100
AcDbLine
 10
37.421001507387473
 20
56.299999982863611
 30
0.0
 11
46.7113469936169
 21
56.299999982858544
 31
0.0
  0
LINE
  5
3A5
100
AcDbEntity
  8
0
  6
CONTINUOUS
 62
               4
100
AcDbLine
 10
50.500000000004974
 20
66.999999982856451
 30
0.0
 11
50.500000000008555
 21
73.999999973943744
 31
0.0
  0
LINE
  5
3A6
100
AcDbEntity
  8
0
  6
CONTINUOUS
 62
               4
100
AcDbLine
 10
33.500000000004974
 20
66.999999982865745
 30
0.0
 11
33.500000000008669
 21
73.999999973953038
 31
0.0
  0
LINE
  5
3A7
100
AcDbEntity
  8
0
  6
CONTINUOUS
 62
               4
100
AcDbLine
 10
34.00000000000469
 20
66.499999982865461
 30
0.0
 11
50.00000000000469
 21
66.499999982856735
 31
0.0
  0
CIRCLE
  5
3A8
100
AcDbEntity
  8
0
  6
CONTINUOUS
 62
               4
100
AcDbCircle
 10
38.49999999999946
 20
56.299999982862346
 30
0.0
 40
0.8
  0
CIRCLE
  5
3A9
100
AcDbEntity
  8
0
  6
CONTINUOUS
 62
               4
100
AcDbCircle
 10
45.49999999999946
 20
56.299999982860385
 30
0.0
 40
0.8
  0
ARC
  5
3AA
100
AcDbEntity
  8
0
  6
CONTINUOUS
 62
               4
100
AcDbCircle
 10
38.499999999999801
 20
56.29999998286263
 30
0.0
 40
2.0
100
AcDbArc
 50
89.999999999962753
 51
269.99999999996237
  0
LINE
  5
3AB
100
AcDbEntity
  8
0
  6
CONTINUOUS
 62
               4
100
AcDbLine
 10
38.499999999998508
 20
54.299999982863241
 30
0.0
 11
45.499999999998366
 21
54.299999982859433
 31
0.0
  0
LINE
  5
3AC
100
AcDbEntity
  8
0
  6
CONTINUOUS
 62
               4
100
AcDbLine
 10
38.500000000000888
 20
58.299999982863241
 30
0.0
 11
45.500000000000554
 21
58.299999982859433
 31
0.0
  0
ARC
  5
3AD
100
AcDbEntity
  8
0
  6
CONTINUOUS
 62
               4
100
AcDbCircle
 10
45.49999999999946
 20
56.299999982860385
 30
0.0
 40
2.0
100
AcDbArc
 50
269.99999999996817
 51
89.999999999968551
  0
LINE
  5
3AE
100
AcDbEntity
  8
0
  6
CENTER
 62
             200
100
AcDbLine
 10
45.500000000000483
 20
57.529318325648404
 30
0.0
 11
45.499999999998892
 21
54.995604754712218
 31
0.0
  0
LINE
  5
3AF
100
AcDbEntity
  8
0
  6
CENTER
 62
             200
100
AcDbLine
 10
38.500000000000142
 20
57.529318325651047
 30
0.0
 11
38.499999999998892
 21
54.995604754714805
 31
0.0
  0
LINE
  5
3B0
100
AcDbEntity
  8
0
  6
CONTINUOUS
 62
               4
100
AcDbLine
 10
51.99999999999747
 20
52.799999982855596
 30
0.0
 11
52.000000000001791
 21
59.899999982855618
 31
0.0
  0
LINE
  5
3B1
100
AcDbEntity
  8
0
  6
CONTINUOUS
 62
               4
100
AcDbLine
 10
31.999999999997527
 20
52.799999982866623
 30
0.0
 11
32.000000000001791
 21
59.899999982866532
 31
0.0
  0
LINE
  5
3B2
100
AcDbEntity
  8
0
  6
CONTINUOUS
 62
               4
100
AcDbLine
 10
51.500000000001961
 20
60.299999982855923
 30
0.0
 11
32.500000000001961
 21
60.299999982866296
 31
0.0
  0
LINE
  5
3B3
100
AcDbEntity
  8
0
  6
CONTINUOUS
 62
               4
100
AcDbLine
 10
51.599999999997209
 20
52.299999982855873
 30
0.0
 11
32.399999999997277
 21
52.299999982866346
 31
0.0
  0
ARC
  5
3B4
100
AcDbEntity
  8
0
  6
CONTINUOUS
 62
               4
100
AcDbCircle
 10
32.499999999997527
 20
52.799999982866296
 30
0.0
 40
0.5
100
AcDbArc
 50
179.99999999996834
 51
269.99999999996817
  0
ARC
  5
3B5
100
AcDbEntity
  8
0
  6
CONTINUOUS
 62
               4
100
AcDbCircle
 10
32.500000000001734
 20
59.799999982866296
 30
0.0
 40
0.5
100
AcDbArc
 50
89.999999999968551
 51
179.99999999996834
  0
ARC
  5
3B6
100
AcDbEntity
  8
0
  6
CONTINUOUS
 62
               4
100
AcDbCircle
 10
51.500000000001734
 20
59.799999982855923
 30
0.0
 40
0.5
100
AcDbArc
 50
359.99999999996874
 51
89.999999999968551
  0
ARC
  5
3B7
100
AcDbEntity
  8
0
  6
CONTINUOUS
 62
               4
100
AcDbCircle
 10
51.49999999999747
 20
52.79999998285593
 30
0.0
 40
0.5
100
AcDbArc
 50
269.99999999996817
 51
359.99999999996794
  0
LINE
  5
3B8
100
AcDbEntity
  8
0
  6
CONTINUOUS
 62
               4
100
AcDbLine
 10
53.900000000011318
 20
75.999999991775269
 30
0.0
 11
53.900000000011033
 21
36.999999982853694
 31
0.0
  0
LINE
  5
3B9
100
AcDbEntity
  8
0
  6
CONTINUOUS
 62
               4
100
AcDbLine
 10
48.119999999993723
 20
42.799999982856804
 30
0.0
 11
48.11999999999469
 21
44.999999982855769
 31
0.0
  0
LINE
  5
3BA
100
AcDbEntity
  8
0
  6
CONTINUOUS
 62
               4
100
AcDbLine
 10
45.750000001915595
 20
42.799999982857926
 30
0.0
 11
45.750000001916789
 21
44.999999982857062
 31
0.0
  0
LINE
  5
3BB
100
AcDbEntity
  8
0
  6
CONTINUOUS
 62
               4
100
AcDbLine
 10
36.799999999991911
 20
38.999999982866271
 30
0.0
 11
36.799999999992707
 21
40.899999982866248
 31
0.0
  0
LINE
  5
3BC
100
AcDbEntity
  8
0
  6
CONTINUOUS
 62
               4
100
AcDbLine
 10
47.199999999992002
 20
38.999999982861162
 30
0.0
 11
47.199999999992798
 21
40.899999982861139
 31
0.0
  0
LINE
  5
3BD
100
AcDbEntity
  8
0
  6
CONTINUOUS
 62
               4
100
AcDbLine
 10
36.799999990242242
 20
40.899999982866817
 30
0.0
 11
47.199999990242333
 21
40.899999982861139
 31
0.0
  0
LINE
  5
3BE
100
AcDbEntity
  8
0
  6
CONTINUOUS
 62
               4
100
AcDbLine
 10
36.799999990241218
 20
38.999999982866839
 30
0.0
 11
47.199999990241309
 21
38.999999982861162
 31
0.0
  0
LINE
  5
3BF
100
AcDbEntity
  8
0
  6
CONTINUOUS
 62
               4
100
AcDbLine
 10
45.750000001916789
 20
44.999999982857062
 30
0.0
 11
50.063771536900475
 21
44.99999998285471
 31
0.0
  0
LINE
  5
3C0
100
AcDbEntity
  8
0
  6
CONTINUOUS
 62
               4
100
AcDbLine
 10
30.099999992376382
 20
49.699999982865762
 30
0.0
 11
35.199999999996493
 21
49.699999982863204
 31
0.0
  0
LINE
  5
3C1
100
AcDbEntity
  8
0
  6
CONTINUOUS
 62
               4
100
AcDbLine
 10
53.899999999993696
 20
42.79999998285399
 30
0.0
 11
45.750000001915595
 21
42.799999982857926
 31
0.0
  0
LINE
  5
3C2
100
AcDbEntity
  8
0
  6
CONTINUOUS
 62
               4
100
AcDbLine
 10
47.799999999994753
 20
44.99999998285594
 30
0.0
 11
47.799999999994867
 21
45.199999989051356
 31
0.0
  0
LINE
  5
3C3
100
AcDbEntity
  8
0
  6
CONTINUOUS
 62
               4
100
AcDbLine
 10
48.799999999995947
 20
49.699999982856525
 30
0.0
 11
53.900000004297311
 21
49.699999982853967
 31
0.0
  0
LINE
  5
3C4
100
AcDbEntity
  8
0
  6
CONTINUOUS
 62
               4
100
AcDbLine
 10
35.199999999994901
 20
45.199999989058227
 30
0.0
 11
35.199999999996663
 21
49.99999997966458
 31
0.0
  0
CIRCLE
  5
3C5
100
AcDbEntity
  8
0
  6
CONTINUOUS
 62
               4
100
AcDbCircle
 10
45.49999999999946
 20
56.299999982860385
 30
0.0
 40
0.25
  0
CIRCLE
  5
3C6
100
AcDbEntity
  8
0
  6
CONTINUOUS
 62
               4
100
AcDbCircle
 10
38.49999999999946
 20
56.299999982862346
 30
0.0
 40
0.25
  0
ARC
  5
3C7
100
AcDbEntity
  8
0
  6
CONTINUOUS
 62
               4
100
AcDbCircle
 10
50.150000190736449
 20
44.193745604863807
 30
0.0
 40
0.800000011920929
100
AcDbArc
 50
106.19135456949428
 51
180.00001798605271
  0
LINE
  5
3C8
100
AcDbEntity
  8
0
  6
CONTINUOUS
 62
               4
100
AcDbLine
 10
49.350000000001586
 20
44.193745604864304
 30
0.0
 11
49.350000000000733
 21
42.799999991766171
 31
0.0
  0
LINE
  5
3C9
100
AcDbEntity
  8
0
  6
CONTINUOUS
 62
               4
100
AcDbLine
 10
49.350000000001074
 20
43.499999991766387
 30
0.0
 11
53.850000000001074
 21
43.499999991763531
 31
0.0
  0
ARC
  5
3CA
100
AcDbEntity
  8
0
  6
CONTINUOUS
 62
               4
100
AcDbCircle
 10
53.049999809266723
 20
44.193745604862002
 30
0.0
 40
0.800000011920929
100
AcDbArc
 50
359.99998201387444
 51
73.808645430432861
  0
LINE
  5
3CB
100
AcDbEntity
  8
0
  6
CONTINUOUS
 62
               4
100
AcDbLine
 10
53.850000000001586
 20
44.193745604861448
 30
0.0
 11
53.850000000000733
 21
42.799999991763315
 31
0.0
  0
ARC
  5
3CC
100
AcDbEntity
  8
0
  6
CONTINUOUS
 62
               4
100
AcDbCircle
 10
51.599999999998403
 20
39.199999801029897
 30
0.0
 40
6.0
100
AcDbArc
 50
73.80871737479022
 51
106.19135456949428
  0
LINE
  5
3CD
100
AcDbEntity
  8
0
  6
CONTINUOUS
 62
               4
100
AcDbLine
 10
53.13622846310264
 20
44.999999982853033
 30
0.0
 11
53.899999996205025
 21
44.999999982852614
 31
0.0
  0
LINE
  5
3CE
100
AcDbEntity
  8
0
  6
CENTER
 62
             200
100
AcDbLine
 10
41.999999999999687
 20
36.999999982859563
 30
0.0
 11
42.000000000011397
 21
78.999318102043915
 31
0.0
  0
LINE
  5
3CF
100
AcDbEntity
  8
0
  6
CONTINUOUS
 62
               7
100
AcDbLine
 10
6.1000000124710994
 20
-69.500000017134028
 30
0.0
 11
29.899999999936171
 21
-69.500000017147016
 31
0.0
  0
ARC
  5
3D0
100
AcDbEntity
  8
0
  6
CONTINUOUS
 62
               7
100
AcDbCircle
 10
6.5999999999279737
 20
-82.500000017133559
 30
0.0
 40
0.5
100
AcDbArc
 50
179.99999999996672
 51
269.99999999996652
  0
ARC
  5
3D1
100
AcDbEntity
  8
0
  6
CONTINUOUS
 62
               7
100
AcDbCircle
 10
29.399999999929292
 20
-82.500000017146689
 30
0.0
 40
0.5
100
AcDbArc
 50
269.99999999996652
 51
359.99999999996635
  0
LINE
  5
3D2
100
AcDbEntity
  8
0
  6
CONTINUOUS
 62
               7
100
AcDbLine
 10
29.399999999928781
 20
-83.000000017146689
 30
0.0
 11
6.5999999999287127
 21
-83.000000017133672
 31
0.0
  0
LINE
  5
3D3
100
AcDbEntity
  8
0
  6
CENTER
 62
               2
100
AcDbLine
 10
17.999999999965695
 20
-85.189318265058105
 30
0.0
 11
17.999999999973255
 21
-57.999999982866115
 31
0.0
  0
LINE
  5
3D4
100
AcDbEntity
  8
0
  6
CONTINUOUS
 62
               7
100
AcDbLine
 10
-13.500000000000284
 20
28.499999982865432
 30
0.0
 11
97.499999999999702
 21
28.499999982865432
 31
0.0
  0
LINE
  5
3D5
100
AcDbEntity
  8
0
  6
CONTINUOUS
 62
               7
100
AcDbLine
 10
-13.500000000000284
 20
21.000000017133885
 30
0.0
 11
97.499999999999673
 21
21.000000017133885
 31
0.0
  0
LINE
  5
3D6
100
AcDbEntity
  8
0
  6
CONTINUOUS
 62
               7
100
AcDbLine
 10
-13.500000000000284
 20
16.000000017133885
 30
0.0
 11
97.499999999999659
 21
16.000000017133885
 31
0.0
  0
CIRCLE
  5
3D7
100
AcDbEntity
  8
0
  6
CONTINUOUS
 62
               7
100
AcDbCircle
 10
83.999999999999375
 20
-0.0000000000002558
 30
0.0
 40
3.2000000000000002
  0
CIRCLE
  5
3D8
100
AcDbEntity
  8
0
  6
CONTINUOUS
 62
               7
100
AcDbCircle
 10
83.999999999999318
 20
-52.000000000000284
 30
0.0
 40
3.2000000000000002
  0
CIRCLE
  5
3D9
100
AcDbEntity
  8
0
  6
CONTINUOUS
 62
               7
100
AcDbCircle
 10
-0.0000000000002274
 20
-52.0
 30
0.0
 40
3.2000000000000002
  0
CIRCLE
  5
3DA
100
AcDbEntity
  8
0
  6
CONTINUOUS
 62
               7
100
AcDbCircle
 10
0.0
 20
0.0
 30
0.0
 40
3.2000000000000002
  0
LINE
  5
3DB
100
AcDbEntity
  8
0
  6
CONTINUOUS
 62
               7
100
AcDbLine
 10
-13.500000000000284
 20
-57.999999982866115
 30
0.0
 11
97.499999999999488
 21
-57.999999982866115
 31
0.0
  0
LINE
  5
3DC
100
AcDbEntity
  8
0
  6
CONTINUOUS
 62
               7
100
AcDbLine
 10
-13.500000000000284
 20
36.999999982865432
 30
0.0
 11
97.499999999999716
 21
36.999999982865432
 31
0.0
  0
LINE
  5
3DD
100
AcDbEntity
  8
0
  6
DASHED
 62
               7
100
AcDbLine
 10
9.7999999999996987
 20
-37.699999982866132
 30
0.0
 11
12.199999999999676
 21
-37.699999982866132
 31
0.0
  0
LINE
  5
3DE
100
AcDbEntity
  8
0
  6
DASHED
 62
               7
100
AcDbLine
 10
12.199999999999676
 20
-37.699999982866132
 30
0.0
 11
12.199999999999676
 21
-40.699999982866103
 31
0.0
  0
LINE
  5
3DF
100
AcDbEntity
  8
0
  6
DASHED
 62
               7
100
AcDbLine
 10
9.7999999999996987
 20
-37.699999982866132
 30
0.0
 11
9.7999999999996987
 21
-40.699999982866103
 31
0.0
  0
LINE
  5
3E0
100
AcDbEntity
  8
0
  6
DASHED
 62
               7
100
AcDbLine
 10
9.7999999999996987
 20
-39.800000000118672
 30
0.0
 11
8.899999999999693
 21
-39.800000000118672
 31
0.0
  0
LINE
  5
3E1
100
AcDbEntity
  8
0
  6
DASHED
 62
               7
100
AcDbLine
 10
8.9999999999996874
 20
-40.699999982866103
 30
0.0
 11
8.9999999999996874
 21
-42.89999998286612
 31
0.0
  0
LINE
  5
3E2
100
AcDbEntity
  8
0
  6
DASHED
 62
               7
100
AcDbLine
 10
12.999999999999687
 20
-40.699999982866103
 30
0.0
 11
8.9999999999996874
 21
-40.699999982866103
 31
0.0
  0
LINE
  5
3E3
100
AcDbEntity
  8
0
  6
DASHED
 62
               7
100
AcDbLine
 10
12.999999999999687
 20
-42.89999998286612
 30
0.0
 11
8.9999999999996874
 21
-42.89999998286612
 31
0.0
  0
LINE
  5
3E4
100
AcDbEntity
  8
0
  6
DASHED
 62
               7
100
AcDbLine
 10
12.999999999999687
 20
-40.699999982866103
 30
0.0
 11
12.999999999999687
 21
-42.89999998286612
 31
0.0
  0
LINE
  5
3E5
100
AcDbEntity
  8
0
  6
DASHED
 62
               7
100
AcDbLine
 10
13.099999999999682
 20
-39.800000000118672
 30
0.0
 11
12.199999999999676
 21
-39.800000000118672
 31
0.0
  0
ARC
  5
3E6
100
AcDbEntity
  8
0
  6
DASHED
 62
               7
100
AcDbCircle
 10
7.7999999999996987
 20
-43.499999982866115
 30
0.0
 40
0.5
100
AcDbArc
 50
89.999999999999815
 51
179.99999999999963
  0
LINE
  5
3E7
100
AcDbEntity
  8
0
  6
DASHED
 62
               7
100
AcDbLine
 10
14.199999999999676
 20
-42.999999982866115
 30
0.0
 11
7.7999999999996987
 21
-42.999999982866115
 31
0.0
  0
ARC
  5
3E8
100
AcDbEntity
  8
0
  6
DASHED
 62
               7
100
AcDbCircle
 10
14.199999999999676
 20
-43.499999982866115
 30
0.0
 40
0.5
100
AcDbArc
 50
0.0
 51
89.999999999999815
  0
LINE
  5
3E9
100
AcDbEntity
  8
0
  6
DASHED
 62
               7
100
AcDbLine
 10
13.099999999999682
 20
-39.800000000118672
 30
0.0
 11
13.099999999999682
 21
-42.999999982866115
 31
0.0
  0
LINE
  5
3EA
100
AcDbEntity
  8
0
  6
DASHED
 62
               7
100
AcDbLine
 10
14.699999999999676
 20
-43.499999982866115
 30
0.0
 11
14.699999999999676
 21
-44.499999982866115
 31
0.0
  0
LINE
  5
3EB
100
AcDbEntity
  8
0
  6
DASHED
 62
               2
100
AcDbLine
 10
10.999999999999687
 20
-37.092652140483267
 30
0.0
 11
10.999999999999687
 21
-45.59578604532561
 31
0.0
  0
LINE
  5
3EC
100
AcDbEntity
  8
0
  6
DASHED
 62
               7
100
AcDbLine
 10
8.899999999999693
 20
-42.999999982866115
 30
0.0
 11
8.899999999999693
 21
-39.800000000118672
 31
0.0
  0
LINE
  5
3ED
100
AcDbEntity
  8
0
  6
DASHED
 62
               7
100
AcDbLine
 10
7.2999999999996987
 20
-43.499999982866115
 30
0.0
 11
7.2999999999996987
 21
-44.499999982866115
 31
0.0
  0
LINE
  5
3EE
100
AcDbEntity
  8
0
  6
DASHED
 62
               7
100
AcDbLine
 10
38.699999999999676
 20
-43.499999982866115
 30
0.0
 11
38.699999999999676
 21
-44.499999982866115
 31
0.0
  0
LINE
  5
3EF
100
AcDbEntity
  8
0
  6
DASHED
 62
               2
100
AcDbLine
 10
34.999999999999687
 20
-37.092652140483267
 30
0.0
 11
34.999999999999687
 21
-45.59578604532561
 31
0.0
  0
LINE
  5
3F0
100
AcDbEntity
  8
0
  6
DASHED
 62
               7
100
AcDbLine
 10
31.299999999999699
 20
-43.499999982866115
 30
0.0
 11
31.299999999999699
 21
-44.499999982866115
 31
0.0
  0
LINE
  5
3F1
100
AcDbEntity
  8
0
  6
DASHED
 62
               7
100
AcDbLine
 10
32.899999999999693
 20
-42.999999982866115
 30
0.0
 11
32.899999999999693
 21
-39.800000000118672
 31
0.0
  0
LINE
  5
3F2
100
AcDbEntity
  8
0
  6
DASHED
 62
               7
100
AcDbLine
 10
37.099999999999682
 20
-39.800000000118672
 30
0.0
 11
37.099999999999682
 21
-42.999999982866115
 31
0.0
  0
ARC
  5
3F3
100
AcDbEntity
  8
0
  6
DASHED
 62
               7
100
AcDbCircle
 10
38.199999999999676
 20
-43.499999982866115
 30
0.0
 40
0.5
100
AcDbArc
 50
0.0
 51
89.999999999999815
  0
LINE
  5
3F4
100
AcDbEntity
  8
0
  6
DASHED
 62
               7
100
AcDbLine
 10
38.199999999999676
 20
-42.999999982866115
 30
0.0
 11
31.799999999999699
 21
-42.999999982866115
 31
0.0
  0
ARC
  5
3F5
100
AcDbEntity
  8
0
  6
DASHED
 62
               7
100
AcDbCircle
 10
31.799999999999699
 20
-43.499999982866115
 30
0.0
 40
0.5
100
AcDbArc
 50
89.999999999999815
 51
179.99999999999963
  0
LINE
  5
3F6
100
AcDbEntity
  8
0
  6
DASHED
 62
               7
100
AcDbLine
 10
37.099999999999682
 20
-39.800000000118672
 30
0.0
 11
36.199999999999676
 21
-39.800000000118672
 31
0.0
  0
LINE
  5
3F7
100
AcDbEntity
  8
0
  6
DASHED
 62
               7
100
AcDbLine
 10
36.999999999999687
 20
-40.699999982866103
 30
0.0
 11
36.999999999999687
 21
-42.89999998286612
 31
0.0
  0
LINE
  5
3F8
100
AcDbEntity
  8
0
  6
DASHED
 62
               7
100
AcDbLine
 10
36.999999999999687
 20
-42.89999998286612
 30
0.0
 11
32.999999999999687
 21
-42.89999998286612
 31
0.0
  0
LINE
  5
3F9
100
AcDbEntity
  8
0
  6
DASHED
 62
               7
100
AcDbLine
 10
36.999999999999687
 20
-40.699999982866103
 30
0.0
 11
32.999999999999687
 21
-40.699999982866103
 31
0.0
  0
LINE
  5
3FA
100
AcDbEntity
  8
0
  6
DASHED
 62
               7
100
AcDbLine
 10
32.999999999999687
 20
-40.699999982866103
 30
0.0
 11
32.999999999999687
 21
-42.89999998286612
 31
0.0
  0
LINE
  5
3FB
100
AcDbEntity
  8
0
  6
DASHED
 62
               7
100
AcDbLine
 10
33.799999999999699
 20
-39.800000000118672
 30
0.0
 11
32.899999999999693
 21
-39.800000000118672
 31
0.0
  0
LINE
  5
3FC
100
AcDbEntity
  8
0
  6
DASHED
 62
               7
100
AcDbLine
 10
33.799999999999699
 20
-37.699999982866132
 30
0.0
 11
33.799999999999699
 21
-40.699999982866103
 31
0.0
  0
LINE
  5
3FD
100
AcDbEntity
  8
0
  6
DASHED
 62
               7
100
AcDbLine
 10
36.199999999999676
 20
-37.699999982866132
 30
0.0
 11
36.199999999999676
 21
-40.699999982866103
 31
0.0
  0
LINE
  5
3FE
100
AcDbEntity
  8
0
  6
DASHED
 62
               7
100
AcDbLine
 10
33.799999999999699
 20
-37.699999982866132
 30
0.0
 11
36.199999999999676
 21
-37.699999982866132
 31
0.0
  0
LINE
  5
3FF
100
AcDbEntity
  8
0
  6
CONTINUOUS
 62
               7
100
AcDbLine
 10
97.499999999999488
 20
-57.999999982866115
 30
0.0
 11
97.499999999999716
 21
36.999999982865432
 31
0.0
  0
LINE
  5
400
100
AcDbEntity
  8
0
  6
CONTINUOUS
 62
               7
100
AcDbLine
 10
-13.500000000000284
 20
-57.999999982866115
 30
0.0
 11
-13.500000000000284
 21
36.999999982865432
 31
0.0
  0
LINE
  5
401
100
AcDbEntity
  8
0
  6
CONTINUOUS
 62
               7
100
AcDbLine
 10
7.0999999847662991
 20
-44.499999982866115
 30
0.0
 11
28.900000035762474
 21
-44.499999982866115
 31
0.0
  0
LINE
  5
402
100
AcDbEntity
  8
0
  6
CENTER
 62
               2
100
AcDbLine
 10
17.999999999999687
 20
-47.280533218963143
 30
0.0
 11
17.999999999999687
 21
16.484601457991559
 31
0.0
  0
ARC
  5
403
100
AcDbEntity
  8
0
  6
CONTINUOUS
 62
               7
100
AcDbCircle
 10
22.399999984766424
 20
13.500000051638992
 30
0.0
 40
2.25
100
AcDbArc
 50
179.99999999999963
 51
0.0
  0
LINE
  5
404
100
AcDbEntity
  8
0
  6
CONTINUOUS
 62
               7
100
AcDbLine
 10
24.649999984766424
 20
14.000000051638992
 30
0.0
 11
24.649999984766424
 21
13.500000051638992
 31
0.0
  0
LINE
  5
405
100
AcDbEntity
  8
0
  6
CONTINUOUS
 62
               7
100
AcDbLine
 10
20.149999984766424
 20
14.000000051638992
 30
0.0
 11
20.149999984766424
 21
13.500000051638992
 31
0.0
  0
ARC
  5
406
100
AcDbEntity
  8
0
  6
CONTINUOUS
 62
               7
100
AcDbCircle
 10
13.600000015232951
 20
-43.499999982866115
 30
0.0
 40
2.25
100
AcDbArc
 50
0.0
 51
179.99999999999963
  0
LINE
  5
407
100
AcDbEntity
  8
0
  6
CONTINUOUS
 62
               7
100
AcDbLine
 10
15.850000015232951
 20
-43.999999982866115
 30
0.0
 11
15.850000015232951
 21
-43.499999982866115
 31
0.0
  0
LINE
  5
408
100
AcDbEntity
  8
0
  6
CONTINUOUS
 62
               7
100
AcDbLine
 10
11.350000015232951
 20
-43.999999982866115
 30
0.0
 11
11.350000015232951
 21
-43.499999982866115
 31
0.0
  0
LINE
  5
409
100
AcDbEntity
  8
0
  6
CONTINUOUS
 62
               7
100
AcDbLine
 10
7.1499999999996646
 20
14.500000051638992
 30
0.0
 11
28.900000015233076
 21
14.500000051638992
 31
0.0
  0
ARC
  5
40A
100
AcDbEntity
  8
0
  6
CONTINUOUS
 62
               7
100
AcDbCircle
 10
10.850000015232951
 20
-43.999999982866115
 30
0.0
 40
0.5
100
AcDbArc
 50
269.99999999999937
 51
0.0
  0
ARC
  5
40B
100
AcDbEntity
  8
0
  6
CONTINUOUS
 62
               7
100
AcDbCircle
 10
16.350000015232951
 20
-43.999999982866115
 30
0.0
 40
0.5
100
AcDbArc
 50
179.99999999999963
 51
269.99999999999937
  0
ARC
  5
40C
100
AcDbEntity
  8
0
  6
CONTINUOUS
 62
               7
100
AcDbCircle
 10
19.649999984766424
 20
14.000000051638992
 30
0.0
 40
0.5
100
AcDbArc
 50
0.0
 51
89.999999999999815
  0
ARC
  5
40D
100
AcDbEntity
  8
0
  6
CONTINUOUS
 62
               7
100
AcDbCircle
 10
25.149999984766424
 20
14.000000051638992
 30
0.0
 40
0.5
100
AcDbArc
 50
89.999999999999815
 51
179.99999999999963
  0
ARC
  5
40E
100
AcDbEntity
  8
0
  6
CONTINUOUS
 62
               7
100
AcDbCircle
 10
17.999999999999687
 20
-2.49999993112705
 30
0.0
 40
11.699999999999999
100
AcDbArc
 50
131.94879674482874
 51
110.11028008888883
  0
ARC
  5
40F
100
AcDbEntity
  8
0
  6
CONTINUOUS
 62
               7
100
AcDbCircle
 10
17.999999999999687
 20
-27.499999931126993
 30
0.0
 40
11.699999999999999
100
AcDbArc
 50
311.94879625562083
 51
290.11028030534595
  0
ARC
  5
410
100
AcDbEntity
  8
0
  6
CONTINUOUS
 62
               7
100
AcDbCircle
 10
7.0999999847662991
 20
13.500000051638992
 30
0.0
 40
1.0
100
AcDbArc
 50
89.999999999999815
 51
179.99999999999963
  0
ARC
  5
411
100
AcDbEntity
  8
0
  6
CONTINUOUS
 62
               7
100
AcDbCircle
 10
28.900000015233076
 20
13.500000051638992
 30
0.0
 40
1.0
100
AcDbArc
 50
0.0
 51
89.999999999999815
  0
ARC
  5
412
100
AcDbEntity
  8
0
  6
CONTINUOUS
 62
               7
100
AcDbCircle
 10
7.0999999847662991
 20
-43.499999982866115
 30
0.0
 40
1.0
100
AcDbArc
 50
179.99999999999963
 51
269.99999999999937
  0
ARC
  5
413
100
AcDbEntity
  8
0
  6
CONTINUOUS
 62
               7
100
AcDbCircle
 10
28.900000015233076
 20
-43.499999982866115
 30
0.0
 40
1.0
100
AcDbArc
 50
270.00000000000023
 51
0.0
  0
CIRCLE
  5
414
100
AcDbEntity
  8
0
  6
CONTINUOUS
 62
               7
100
AcDbCircle
 10
10.299999999999642
 20
10.299999913655299
 30
0.0
 40
4.0999999999999996
  0
CIRCLE
  5
415
100
AcDbEntity
  8
0
  6
CONTINUOUS
 62
               7
100
AcDbCircle
 10
25.699999999999733
 20
-40.299999844882421
 30
0.0
 40
4.0999999999999996
  0
LINE
  5
416
100
AcDbEntity
  8
0
  6
CONTINUOUS
 62
               7
100
AcDbLine
 10
6.099999984766356
 20
-24.299999935580232
 30
0.0
 11
6.099999984766356
 21
-5.0999999956469679
 31
0.0
  0
LINE
  5
417
100
AcDbEntity
  8
0
  6
CONTINUOUS
 62
               7
100
AcDbLine
 10
6.099999984766356
 20
0.7000001091964663
 30
0.0
 11
6.099999984766356
 21
13.500000051638992
 31
0.0
  0
LINE
  5
418
100
AcDbEntity
  8
0
  6
CONTINUOUS
 62
               7
100
AcDbLine
 10
6.099999984766356
 20
0.7000001091964663
 30
0.0
 11
6.3000000228499005
 21
0.5000000711129218
 31
0.0
  0
LINE
  5
419
100
AcDbEntity
  8
0
  6
CONTINUOUS
 62
               7
100
AcDbLine
 10
6.3000000228499005
 20
-4.8999999575634234
 30
0.0
 11
6.099999984766356
 21
-5.0999999956469679
 31
0.0
  0
LINE
  5
41A
100
AcDbEntity
  8
0
  6
CONTINUOUS
 62
               7
100
AcDbLine
 10
6.3000000228499005
 20
-4.8999999575634234
 30
0.0
 11
6.3000000228499005
 21
0.5000000711129218
 31
0.0
  0
LINE
  5
41B
100
AcDbEntity
  8
0
  6
CONTINUOUS
 62
               7
100
AcDbLine
 10
29.900000015233076
 20
-24.299999935580232
 30
0.0
 11
29.900000015233076
 21
-5.0999999956469679
 31
0.0
  0
LINE
  5
41C
100
AcDbEntity
  8
0
  6
CONTINUOUS
 62
               7
100
AcDbLine
 10
29.900000015233076
 20
0.7000001091964663
 30
0.0
 11
29.900000015233076
 21
13.500000051638992
 31
0.0
  0
LINE
  5
41D
100
AcDbEntity
  8
0
  6
CONTINUOUS
 62
               7
100
AcDbLine
 10
29.699999977149531
 20
-4.8999999575634234
 30
0.0
 11
29.699999977149531
 21
0.5000000711129218
 31
0.0
  0
LINE
  5
41E
100
AcDbEntity
  8
0
  6
CONTINUOUS
 62
               7
100
AcDbLine
 10
29.699999977149531
 20
-4.8999999575634234
 30
0.0
 11
29.900000015233076
 21
-5.0999999956469679
 31
0.0
  0
LINE
  5
41F
100
AcDbEntity
  8
0
  6
CONTINUOUS
 62
               7
100
AcDbLine
 10
29.900000015233076
 20
0.7000001091964663
 30
0.0
 11
29.699999977149531
 21
0.5000000711129218
 31
0.0
  0
LINE
  5
420
100
AcDbEntity
  8
0
  6
CONTINUOUS
 62
               7
100
AcDbLine
 10
6.099999984766356
 20
-43.499999975001941
 30
0.0
 11
6.099999984766356
 21
-30.100000046527526
 31
0.0
  0
LINE
  5
421
100
AcDbEntity
  8
0
  6
CONTINUOUS
 62
               7
100
AcDbLine
 10
6.3000000228499005
 20
-24.499999973663776
 30
0.0
 11
6.099999984766356
 21
-24.299999935580232
 31
0.0
  0
LINE
  5
422
100
AcDbEntity
  8
0
  6
CONTINUOUS
 62
               7
100
AcDbLine
 10
6.099999984766356
 20
-30.100000040423623
 30
0.0
 11
6.3000000228499005
 21
-29.900000002340079
 31
0.0
  0
LINE
  5
423
100
AcDbEntity
  8
0
  6
CONTINUOUS
 62
               7
100
AcDbLine
 10
6.3000000228499005
 20
-24.499999973663776
 30
0.0
 11
6.3000000228499005
 21
-29.900000002340079
 31
0.0
  0
LINE
  5
424
100
AcDbEntity
  8
0
  6
CONTINUOUS
 62
               7
100
AcDbLine
 10
29.900000015233076
 20
-43.499999975001941
 30
0.0
 11
29.900000015233076
 21
-30.100000046527526
 31
0.0
  0
LINE
  5
425
100
AcDbEntity
  8
0
  6
CONTINUOUS
 62
               7
100
AcDbLine
 10
29.699999977149531
 20
-24.499999973663776
 30
0.0
 11
29.699999977149531
 21
-29.900000002340079
 31
0.0
  0
LINE
  5
426
100
AcDbEntity
  8
0
  6
CONTINUOUS
 62
               7
100
AcDbLine
 10
29.900000015233076
 20
-30.100000040423623
 30
0.0
 11
29.699999977149531
 21
-29.900000002340079
 31
0.0
  0
LINE
  5
427
100
AcDbEntity
  8
0
  6
CONTINUOUS
 62
               7
100
AcDbLine
 10
29.699999977149531
 20
-24.499999973663776
 30
0.0
 11
29.900000015233076
 21
-24.299999935580232
 31
0.0
  0
LINE
  5
428
100
AcDbEntity
  8
0
  6
CONTINUOUS
 62
               7
100
AcDbLine
 10
24.002943985192672
 20
-41.997055716638414
 30
0.0
 11
27.397056897772558
 21
-38.602943090160835
 31
0.0
  0
LINE
  5
429
100
AcDbEntity
  8
0
  6
CONTINUOUS
 62
               7
100
AcDbLine
 10
24.002944232551926
 20
-38.602943725767403
 30
0.0
 11
27.397056859029504
 21
-41.997056638347289
 31
0.0
  0
CIRCLE
  5
42A
100
AcDbEntity
  8
0
  6
CONTINUOUS
 62
               7
100
AcDbCircle
 10
25.700000208615933
 20
-40.299999844882535
 30
0.0
 40
4.0
  0
LINE
  5
42B
100
AcDbEntity
  8
0
  6
CONTINUOUS
 62
               7
100
AcDbLine
 10
8.6029439851925247
 20
8.6029440418993062
 30
0.0
 11
11.99705689777241
 21
11.997056668376885
 31
0.0
  0
LINE
  5
42C
100
AcDbEntity
  8
0
  6
CONTINUOUS
 62
               7
100
AcDbLine
 10
8.6029442325517778
 20
11.997056032770317
 30
0.0
 11
11.997056859029357
 21
8.6029431201904316
 31
0.0
  0
CIRCLE
  5
42D
100
AcDbEntity
  8
0
  6
CONTINUOUS
 62
               7
100
AcDbCircle
 10
10.300000208615785
 20
10.299999913655185
 30
0.0
 40
4.0
  0
LINE
  5
42E
100
AcDbEntity
  8
0
  6
CONTINUOUS
 62
               7
100
AcDbLine
 10
31.099999984766299
 20
-44.499999982866115
 30
0.0
 11
52.900000035762474
 21
-44.499999982866115
 31
0.0
  0
LINE
  5
42F
100
AcDbEntity
  8
0
  6
CENTER
 62
               2
100
AcDbLine
 10
41.999999999999687
 20
-47.280533218963143
 30
0.0
 11
41.999999999999687
 21
16.484601457991559
 31
0.0
  0
ARC
  5
430
100
AcDbEntity
  8
0
  6
CONTINUOUS
 62
               7
100
AcDbCircle
 10
46.399999984766424
 20
13.500000051638992
 30
0.0
 40
2.25
100
AcDbArc
 50
179.99999999999963
 51
0.0
  0
LINE
  5
431
100
AcDbEntity
  8
0
  6
CONTINUOUS
 62
               7
100
AcDbLine
 10
48.649999984766424
 20
14.000000051638992
 30
0.0
 11
48.649999984766424
 21
13.500000051638992
 31
0.0
  0
LINE
  5
432
100
AcDbEntity
  8
0
  6
CONTINUOUS
 62
               7
100
AcDbLine
 10
44.149999984766424
 20
14.000000051638992
 30
0.0
 11
44.149999984766424
 21
13.500000051638992
 31
0.0
  0
ARC
  5
433
100
AcDbEntity
  8
0
  6
CONTINUOUS
 62
               7
100
AcDbCircle
 10
37.600000015232951
 20
-43.499999982866115
 30
0.0
 40
2.25
100
AcDbArc
 50
0.0
 51
179.99999999999963
  0
LINE
  5
434
100
AcDbEntity
  8
0
  6
CONTINUOUS
 62
               7
100
AcDbLine
 10
39.850000015232951
 20
-43.999999982866115
 30
0.0
 11
39.850000015232951
 21
-43.499999982866115
 31
0.0
  0
LINE
  5
435
100
AcDbEntity
  8
0
  6
CONTINUOUS
 62
               7
100
AcDbLine
 10
35.350000015232951
 20
-43.999999982866115
 30
0.0
 11
35.350000015232951
 21
-43.499999982866115
 31
0.0
  0
LINE
  5
436
100
AcDbEntity
  8
0
  6
CONTINUOUS
 62
               7
100
AcDbLine
 10
31.149999999999665
 20
14.500000051638992
 30
0.0
 11
52.900000015233076
 21
14.500000051638992
 31
0.0
  0
ARC
  5
437
100
AcDbEntity
  8
0
  6
CONTINUOUS
 62
               7
100
AcDbCircle
 10
34.850000015232951
 20
-43.999999982866115
 30
0.0
 40
0.5
100
AcDbArc
 50
269.99999999999937
 51
0.0
  0
ARC
  5
438
100
AcDbEntity
  8
0
  6
CONTINUOUS
 62
               7
100
AcDbCircle
 10
40.350000015232951
 20
-43.999999982866115
 30
0.0
 40
0.5
100
AcDbArc
 50
179.99999999999963
 51
269.99999999999937
  0
ARC
  5
439
100
AcDbEntity
  8
0
  6
CONTINUOUS
 62
               7
100
AcDbCircle
 10
43.649999984766424
 20
14.000000051638992
 30
0.0
 40
0.5
100
AcDbArc
 50
0.0
 51
89.999999999999815
  0
ARC
  5
43A
100
AcDbEntity
  8
0
  6
CONTINUOUS
 62
               7
100
AcDbCircle
 10
49.149999984766424
 20
14.000000051638992
 30
0.0
 40
0.5
100
AcDbArc
 50
89.999999999999815
 51
179.99999999999963
  0
ARC
  5
43B
100
AcDbEntity
  8
0
  6
CONTINUOUS
 62
               7
100
AcDbCircle
 10
41.999999999999687
 20
-2.49999993112705
 30
0.0
 40
11.699999999999999
100
AcDbArc
 50
131.94879674482874
 51
110.11028008888883
  0
ARC
  5
43C
100
AcDbEntity
  8
0
  6
CONTINUOUS
 62
               7
100
AcDbCircle
 10
41.999999999999687
 20
-27.499999931126993
 30
0.0
 40
11.699999999999999
100
AcDbArc
 50
311.94879625562083
 51
290.11028030534595
  0
ARC
  5
43D
100
AcDbEntity
  8
0
  6
CONTINUOUS
 62
               7
100
AcDbCircle
 10
31.099999984766299
 20
13.500000051638992
 30
0.0
 40
1.0
100
AcDbArc
 50
89.999999999999815
 51
179.99999999999963
  0
ARC
  5
43E
100
AcDbEntity
  8
0
  6
CONTINUOUS
 62
               7
100
AcDbCircle
 10
52.900000015233076
 20
13.500000051638992
 30
0.0
 40
1.0
100
AcDbArc
 50
0.0
 51
89.999999999999815
  0
ARC
  5
43F
100
AcDbEntity
  8
0
  6
CONTINUOUS
 62
               7
100
AcDbCircle
 10
31.099999984766299
 20
-43.499999982866115
 30
0.0
 40
1.0
100
AcDbArc
 50
179.99999999999963
 51
269.99999999999937
  0
ARC
  5
440
100
AcDbEntity
  8
0
  6
CONTINUOUS
 62
               7
100
AcDbCircle
 10
52.900000015233076
 20
-43.499999982866115
 30
0.0
 40
1.0
100
AcDbArc
 50
270.00000000000023
 51
0.0
  0
CIRCLE
  5
441
100
AcDbEntity
  8
0
  6
CONTINUOUS
 62
               7
100
AcDbCircle
 10
34.299999999999642
 20
10.299999913655299
 30
0.0
 40
4.0999999999999996
  0
CIRCLE
  5
442
100
AcDbEntity
  8
0
  6
CONTINUOUS
 62
               7
100
AcDbCircle
 10
49.699999999999733
 20
-40.299999844882421
 30
0.0
 40
4.0999999999999996
  0
LINE
  5
443
100
AcDbEntity
  8
0
  6
CONTINUOUS
 62
               7
100
AcDbLine
 10
30.099999984766356
 20
-24.299999935580232
 30
0.0
 11
30.099999984766356
 21
-5.0999999956469679
 31
0.0
  0
LINE
  5
444
100
AcDbEntity
  8
0
  6
CONTINUOUS
 62
               7
100
AcDbLine
 10
30.099999984766356
 20
0.7000001091964663
 30
0.0
 11
30.099999984766356
 21
13.500000051638992
 31
0.0
  0
LINE
  5
445
100
AcDbEntity
  8
0
  6
CONTINUOUS
 62
               7
100
AcDbLine
 10
30.099999984766356
 20
0.7000001091964663
 30
0.0
 11
30.3000000228499
 21
0.5000000711129218
 31
0.0
  0
LINE
  5
446
100
AcDbEntity
  8
0
  6
CONTINUOUS
 62
               7
100
AcDbLine
 10
30.3000000228499
 20
-4.8999999575634234
 30
0.0
 11
30.099999984766356
 21
-5.0999999956469679
 31
0.0
  0
LINE
  5
447
100
AcDbEntity
  8
0
  6
CONTINUOUS
 62
               7
100
AcDbLine
 10
30.3000000228499
 20
-4.8999999575634234
 30
0.0
 11
30.3000000228499
 21
0.5000000711129218
 31
0.0
  0
LINE
  5
448
100
AcDbEntity
  8
0
  6
CONTINUOUS
 62
               7
100
AcDbLine
 10
53.900000015233076
 20
-24.299999935580232
 30
0.0
 11
53.900000015233076
 21
-5.0999999956469679
 31
0.0
  0
LINE
  5
449
100
AcDbEntity
  8
0
  6
CONTINUOUS
 62
               7
100
AcDbLine
 10
53.900000015233076
 20
0.7000001091964663
 30
0.0
 11
53.900000015233076
 21
13.500000051638992
 31
0.0
  0
LINE
  5
44A
100
AcDbEntity
  8
0
  6
CONTINUOUS
 62
               7
100
AcDbLine
 10
53.699999977149531
 20
-4.8999999575634234
 30
0.0
 11
53.699999977149531
 21
0.5000000711129218
 31
0.0
  0
LINE
  5
44B
100
AcDbEntity
  8
0
  6
CONTINUOUS
 62
               7
100
AcDbLine
 10
53.699999977149531
 20
-4.8999999575634234
 30
0.0
 11
53.900000015233076
 21
-5.0999999956469679
 31
0.0
  0
LINE
  5
44C
100
AcDbEntity
  8
0
  6
CONTINUOUS
 62
               7
100
AcDbLine
 10
53.900000015233076
 20
0.7000001091964663
 30
0.0
 11
53.699999977149531
 21
0.5000000711129218
 31
0.0
  0
LINE
  5
44D
100
AcDbEntity
  8
0
  6
CONTINUOUS
 62
               7
100
AcDbLine
 10
30.099999984766356
 20
-43.499999975001941
 30
0.0
 11
30.099999984766356
 21
-30.100000046527526
 31
0.0
  0
LINE
  5
44E
100
AcDbEntity
  8
0
  6
CONTINUOUS
 62
               7
100
AcDbLine
 10
30.3000000228499
 20
-24.499999973663776
 30
0.0
 11
30.099999984766356
 21
-24.299999935580232
 31
0.0
  0
LINE
  5
44F
100
AcDbEntity
  8
0
  6
CONTINUOUS
 62
               7
100
AcDbLine
 10
30.099999984766356
 20
-30.100000040423623
 30
0.0
 11
30.3000000228499
 21
-29.900000002340079
 31
0.0
  0
LINE
  5
450
100
AcDbEntity
  8
0
  6
CONTINUOUS
 62
               7
100
AcDbLine
 10
30.3000000228499
 20
-24.499999973663776
 30
0.0
 11
30.3000000228499
 21
-29.900000002340079
 31
0.0
  0
LINE
  5
451
100
AcDbEntity
  8
0
  6
CONTINUOUS
 62
               7
100
AcDbLine
 10
53.900000015233076
 20
-43.499999975001941
 30
0.0
 11
53.900000015233076
 21
-30.100000046527526
 31
0.0
  0
LINE
  5
452
100
AcDbEntity
  8
0
  6
CONTINUOUS
 62
               7
100
AcDbLine
 10
53.699999977149531
 20
-24.499999973663776
 30
0.0
 11
53.699999977149531
 21
-29.900000002340079
 31
0.0
  0
LINE
  5
453
100
AcDbEntity
  8
0
  6
CONTINUOUS
 62
               7
100
AcDbLine
 10
53.900000015233076
 20
-30.100000040423623
 30
0.0
 11
53.699999977149531
 21
-29.900000002340079
 31
0.0
  0
LINE
  5
454
100
AcDbEntity
  8
0
  6
CONTINUOUS
 62
               7
100
AcDbLine
 10
53.699999977149531
 20
-24.499999973663776
 30
0.0
 11
53.900000015233076
 21
-24.299999935580232
 31
0.0
  0
LINE
  5
455
100
AcDbEntity
  8
0
  6
CONTINUOUS
 62
               7
100
AcDbLine
 10
48.002943985192672
 20
-41.997055716638414
 30
0.0
 11
51.397056897772558
 21
-38.602943090160835
 31
0.0
  0
LINE
  5
456
100
AcDbEntity
  8
0
  6
CONTINUOUS
 62
               7
100
AcDbLine
 10
48.002944232551926
 20
-38.602943725767403
 30
0.0
 11
51.397056859029504
 21
-41.997056638347289
 31
0.0
  0
CIRCLE
  5
457
100
AcDbEntity
  8
0
  6
CONTINUOUS
 62
               7
100
AcDbCircle
 10
49.700000208615933
 20
-40.299999844882535
 30
0.0
 40
4.0
  0
LINE
  5
458
100
AcDbEntity
  8
0
  6
CONTINUOUS
 62
               7
100
AcDbLine
 10
32.602943985192525
 20
8.6029440418993062
 30
0.0
 11
35.99705689777241
 21
11.997056668376885
 31
0.0
  0
LINE
  5
459
100
AcDbEntity
  8
0
  6
CONTINUOUS
 62
               7
100
AcDbLine
 10
32.602944232551778
 20
11.997056032770317
 30
0.0
 11
35.997056859029357
 21
8.6029431201904316
 31
0.0
  0
CIRCLE
  5
45A
100
AcDbEntity
  8
0
  6
CONTINUOUS
 62
               7
100
AcDbCircle
 10
34.300000208615785
 20
10.299999913655185
 30
0.0
 40
4.0
  0
CIRCLE
  5
45B
100
AcDbEntity
  8
0
  6
CONTINUOUS
 62
               7
100
AcDbCircle
 10
41.999999999999716
 20
-2.4999999311270074
 30
0.0
 40
7.4749994277954102
  0
CIRCLE
  5
45C
100
AcDbEntity
  8
0
  6
CONTINUOUS
 62
               2
100
AcDbCircle
 10
41.999999999999716
 20
-2.4999999311270074
 30
0.0
 40
8.3310003280639648
  0
CIRCLE
  5
45D
100
AcDbEntity
  8
0
  6
CONTINUOUS
 62
               7
100
AcDbCircle
 10
41.999999999999716
 20
-27.499999931127007
 30
0.0
 40
7.4749994277954102
  0
CIRCLE
  5
45E
100
AcDbEntity
  8
0
  6
CONTINUOUS
 62
               2
100
AcDbCircle
 10
41.999999999999716
 20
-27.499999931127007
 30
0.0
 40
8.3310003280639648
  0
CIRCLE
  5
45F
100
AcDbEntity
  8
0
  6
CONTINUOUS
 62
               7
100
AcDbCircle
 10
17.999999999999716
 20
-2.4999999311270074
 30
0.0
 40
7.4749994277954102
  0
CIRCLE
  5
460
100
AcDbEntity
  8
0
  6
CONTINUOUS
 62
               2
100
AcDbCircle
 10
17.999999999999716
 20
-2.4999999311270074
 30
0.0
 40
8.3310003280639648
  0
CIRCLE
  5
461
100
AcDbEntity
  8
0
  6
CONTINUOUS
 62
               7
100
AcDbCircle
 10
17.999999999999716
 20
-27.499999931127007
 30
0.0
 40
7.4749994277954102
  0
CIRCLE
  5
462
100
AcDbEntity
  8
0
  6
CONTINUOUS
 62
               2
100
AcDbCircle
 10
17.999999999999716
 20
-27.499999931127007
 30
0.0
 40
8.3310003280639648
  0
LINE
  5
463
100
AcDbEntity
  8
0
  6
CENTER
 62
               2
100
AcDbLine
 10
90.199999999999363
 20
-0.0000000000002558
 30
0.0
 11
77.799999999999386
 21
-0.0000000000002558
 31
0.0
  0
LINE
  5
464
100
AcDbEntity
  8
0
  6
CENTER
 62
               2
100
AcDbLine
 10
83.999999999999375
 20
6.199999999999747
 30
0.0
 11
83.999999999999375
 21
-6.2000000000002586
 31
0.0
  0
LINE
  5
465
100
AcDbEntity
  8
0
  6
CENTER
 62
               2
100
AcDbLine
 10
90.199999999999307
 20
-52.000000000000284
 30
0.0
 11
77.799999999999329
 21
-52.000000000000284
 31
0.0
  0
LINE
  5
466
100
AcDbEntity
  8
0
  6
CENTER
 62
               2
100
AcDbLine
 10
83.999999999999318
 20
-45.800000000000281
 30
0.0
 11
83.999999999999318
 21
-58.200000000000287
 31
0.0
  0
LINE
  5
467
100
AcDbEntity
  8
0
  6
CENTER
 62
               2
100
AcDbLine
 10
6.1999999999997613
 20
-52.0
 30
0.0
 11
-6.200000000000216
 21
-52.0
 31
0.0
  0
LINE
  5
468
100
AcDbEntity
  8
0
  6
CENTER
 62
               2
100
AcDbLine
 10
-0.0000000000002274
 20
-45.799999999999997
 30
0.0
 11
-0.0000000000002274
 21
-58.200000000000003
 31
0.0
  0
LINE
  5
469
100
AcDbEntity
  8
0
  6
CENTER
 62
               2
100
AcDbLine
 10
6.1999999999999886
 20
0.0
 30
0.0
 11
-6.1999999999999886
 21
0.0
 31
0.0
  0
LINE
  5
46A
100
AcDbEntity
  8
0
  6
CENTER
 62
               2
100
AcDbLine
 10
0.0
 20
6.2000000000000028
 30
0.0
 11
0.0
 21
-6.2000000000000028
 31
0.0
  0
CIRCLE
  5
46B
100
AcDbEntity
  8
0
  6
CONTINUOUS
 62
               4
100
AcDbCircle
 10
41.99999999999946
 20
56.299999982862346
 30
0.0
 40
0.8
  0
CIRCLE
  5
46C
100
AcDbEntity
  8
0
  6
CONTINUOUS
 62
               4
100
AcDbCircle
 10
41.99999999999946
 20
56.299999982862346
 30
0.0
 40
0.25
  0
LINE
  5
46D
100
AcDbEntity
  8
0
  6
DASHED
 62
               7
100
AcDbLine
 10
62.699999999999676
 20
-43.499999982866115
 30
0.0
 11
62.699999999999676
 21
-44.499999982866115
 31
0.0
  0
LINE
  5
46E
100
AcDbEntity
  8
0
  6
DASHED
 62
               2
100
AcDbLine
 10
58.999999999999687
 20
-37.092652140483267
 30
0.0
 11
58.999999999999687
 21
-45.59578604532561
 31
0.0
  0
LINE
  5
46F
100
AcDbEntity
  8
0
  6
DASHED
 62
               7
100
AcDbLine
 10
55.299999999999699
 20
-43.499999982866115
 30
0.0
 11
55.299999999999699
 21
-44.499999982866115
 31
0.0
  0
LINE
  5
470
100
AcDbEntity
  8
0
  6
CENTER
 62
               2
100
AcDbLine
 10
65.999999999999687
 20
-47.280533218963143
 30
0.0
 11
65.999999999999687
 21
16.484601457991559
 31
0.0
  0
ARC
  5
471
100
AcDbEntity
  8
0
  6
CONTINUOUS
 62
               7
100
AcDbCircle
 10
58.850000015232951
 20
-43.999999982866115
 30
0.0
 40
0.5
100
AcDbArc
 50
269.99999999999937
 51
0.0
  0
ARC
  5
472
100
AcDbEntity
  8
0
  6
CONTINUOUS
 62
               7
100
AcDbCircle
 10
64.350000015232951
 20
-43.999999982866115
 30
0.0
 40
0.5
100
AcDbArc
 50
179.99999999999963
 51
269.99999999999937
  0
ARC
  5
473
100
AcDbEntity
  8
0
  6
CONTINUOUS
 62
               7
100
AcDbCircle
 10
65.999999999999687
 20
-2.49999993112705
 30
0.0
 40
11.699999999999999
100
AcDbArc
 50
131.94879674482874
 51
110.11028008888883
  0
ARC
  5
474
100
AcDbEntity
  8
0
  6
CONTINUOUS
 62
               7
100
AcDbCircle
 10
65.999999999999687
 20
-27.499999931126993
 30
0.0
 40
11.699999999999999
100
AcDbArc
 50
311.94879625562083
 51
290.11028030534595
  0
ARC
  5
475
100
AcDbEntity
  8
0
  6
CONTINUOUS
 62
               7
100
AcDbCircle
 10
55.099999984766299
 20
13.500000051638992
 30
0.0
 40
1.0
100
AcDbArc
 50
89.999999999999815
 51
179.99999999999963
  0
ARC
  5
476
100
AcDbEntity
  8
0
  6
CONTINUOUS
 62
               7
100
AcDbCircle
 10
55.099999984766299
 20
-43.499999982866115
 30
0.0
 40
1.0
100
AcDbArc
 50
179.99999999999963
 51
269.99999999999937
  0
ARC
  5
477
100
AcDbEntity
  8
0
  6
CONTINUOUS
 62
               7
100
AcDbCircle
 10
76.900000015233076
 20
-43.499999982866115
 30
0.0
 40
1.0
100
AcDbArc
 50
270.00000000000023
 51
0.0
  0
CIRCLE
  5
478
100
AcDbEntity
  8
0
  6
CONTINUOUS
 62
               7
100
AcDbCircle
 10
58.299999999999642
 20
10.299999913655299
 30
0.0
 40
4.0999999999999996
  0
CIRCLE
  5
479
100
AcDbEntity
  8
0
  6
CONTINUOUS
 62
               7
100
AcDbCircle
 10
73.699999999999733
 20
-40.299999844882421
 30
0.0
 40
4.0999999999999996
  0
CIRCLE
  5
47A
100
AcDbEntity
  8
0
  6
CONTINUOUS
 62
               7
100
AcDbCircle
 10
58.300000208615785
 20
10.299999913655185
 30
0.0
 40
4.0
  0
CIRCLE
  5
47B
100
AcDbEntity
  8
0
  6
CONTINUOUS
 62
               2
100
AcDbCircle
 10
65.999999999999716
 20
-27.499999931127007
 30
0.0
 40
8.3310003280639648
  0
CIRCLE
  5
47C
100
AcDbEntity
  8
0
  6
CONTINUOUS
 62
               7
100
AcDbCircle
 10
65.999999999999716
 20
-27.499999931127007
 30
0.0
 40
7.4749994277954102
  0
CIRCLE
  5
47D
100
AcDbEntity
  8
0
  6
CONTINUOUS
 62
               2
100
AcDbCircle
 10
65.999999999999716
 20
-2.4999999311270074
 30
0.0
 40
8.3310003280639648
  0
CIRCLE
  5
47E
100
AcDbEntity
  8
0
  6
CONTINUOUS
 62
               7
100
AcDbCircle
 10
65.999999999999716
 20
-2.4999999311270074
 30
0.0
 40
7.4749994277954102
  0
LINE
  5
47F
100
AcDbEntity
  8
0
  6
CONTINUOUS
 62
               7
100
AcDbLine
 10
56.602944232551778
 20
11.997056032770317
 30
0.0
 11
59.997056859029357
 21
8.6029431201904316
 31
0.0
  0
LINE
  5
480
100
AcDbEntity
  8
0
  6
CONTINUOUS
 62
               7
100
AcDbLine
 10
56.602943985192525
 20
8.6029440418993062
 30
0.0
 11
59.99705689777241
 21
11.997056668376885
 31
0.0
  0
CIRCLE
  5
481
100
AcDbEntity
  8
0
  6
CONTINUOUS
 62
               7
100
AcDbCircle
 10
73.700000208615933
 20
-40.299999844882535
 30
0.0
 40
4.0
  0
LINE
  5
482
100
AcDbEntity
  8
0
  6
CONTINUOUS
 62
               7
100
AcDbLine
 10
72.002944232551926
 20
-38.602943725767403
 30
0.0
 11
75.397056859029504
 21
-41.997056638347289
 31
0.0
  0
LINE
  5
483
100
AcDbEntity
  8
0
  6
CONTINUOUS
 62
               7
100
AcDbLine
 10
72.002943985192672
 20
-41.997055716638414
 30
0.0
 11
75.397056897772558
 21
-38.602943090160835
 31
0.0
  0
LINE
  5
484
100
AcDbEntity
  8
0
  6
CONTINUOUS
 62
               7
100
AcDbLine
 10
77.699999977149531
 20
-24.499999973663776
 30
0.0
 11
77.900000015233076
 21
-24.299999935580232
 31
0.0
  0
LINE
  5
485
100
AcDbEntity
  8
0
  6
CONTINUOUS
 62
               7
100
AcDbLine
 10
77.900000015233076
 20
-30.100000040423623
 30
0.0
 11
77.699999977149531
 21
-29.900000002340079
 31
0.0
  0
LINE
  5
486
100
AcDbEntity
  8
0
  6
CONTINUOUS
 62
               7
100
AcDbLine
 10
77.699999977149531
 20
-24.499999973663776
 30
0.0
 11
77.699999977149531
 21
-29.900000002340079
 31
0.0
  0
LINE
  5
487
100
AcDbEntity
  8
0
  6
CONTINUOUS
 62
               7
100
AcDbLine
 10
77.900000015233076
 20
-43.499999975001941
 30
0.0
 11
77.900000015233076
 21
-30.100000046527526
 31
0.0
  0
LINE
  5
488
100
AcDbEntity
  8
0
  6
CONTINUOUS
 62
               7
100
AcDbLine
 10
77.900000015233076
 20
0.7000001091964663
 30
0.0
 11
77.699999977149531
 21
0.5000000711129218
 31
0.0
  0
LINE
  5
489
100
AcDbEntity
  8
0
  6
CONTINUOUS
 62
               7
100
AcDbLine
 10
77.699999977149531
 20
-4.8999999575634234
 30
0.0
 11
77.900000015233076
 21
-5.0999999956469679
 31
0.0
  0
LINE
  5
48A
100
AcDbEntity
  8
0
  6
CONTINUOUS
 62
               7
100
AcDbLine
 10
77.699999977149531
 20
-4.8999999575634234
 30
0.0
 11
77.699999977149531
 21
0.5000000711129218
 31
0.0
  0
LINE
  5
48B
100
AcDbEntity
  8
0
  6
CONTINUOUS
 62
               7
100
AcDbLine
 10
77.900000015233076
 20
0.7000001091964663
 30
0.0
 11
77.900000015233076
 21
13.500000051638992
 31
0.0
  0
LINE
  5
48C
100
AcDbEntity
  8
0
  6
CONTINUOUS
 62
               7
100
AcDbLine
 10
77.900000015233076
 20
-24.299999935580232
 30
0.0
 11
77.900000015233076
 21
-5.0999999956469679
 31
0.0
  0
ARC
  5
48D
100
AcDbEntity
  8
0
  6
CONTINUOUS
 62
               7
100
AcDbCircle
 10
76.900000015233076
 20
13.500000051638992
 30
0.0
 40
1.0
100
AcDbArc
 50
0.0
 51
89.999999999999815
  0
ARC
  5
48E
100
AcDbEntity
  8
0
  6
CONTINUOUS
 62
               7
100
AcDbCircle
 10
73.149999984766424
 20
14.000000051638992
 30
0.0
 40
0.5
100
AcDbArc
 50
89.999999999999815
 51
179.99999999999963
  0
ARC
  5
48F
100
AcDbEntity
  8
0
  6
CONTINUOUS
 62
               7
100
AcDbCircle
 10
67.649999984766424
 20
14.000000051638992
 30
0.0
 40
0.5
100
AcDbArc
 50
0.0
 51
89.999999999999815
  0
LINE
  5
490
100
AcDbEntity
  8
0
  6
CONTINUOUS
 62
               7
100
AcDbLine
 10
55.149999999999665
 20
14.500000051638992
 30
0.0
 11
76.900000015233076
 21
14.500000051638992
 31
0.0
  0
LINE
  5
491
100
AcDbEntity
  8
0
  6
CONTINUOUS
 62
               7
100
AcDbLine
 10
59.350000015232951
 20
-43.999999982866115
 30
0.0
 11
59.350000015232951
 21
-43.499999982866115
 31
0.0
  0
LINE
  5
492
100
AcDbEntity
  8
0
  6
CONTINUOUS
 62
               7
100
AcDbLine
 10
63.850000015232951
 20
-43.999999982866115
 30
0.0
 11
63.850000015232951
 21
-43.499999982866115
 31
0.0
  0
ARC
  5
493
100
AcDbEntity
  8
0
  6
CONTINUOUS
 62
               7
100
AcDbCircle
 10
61.600000015232951
 20
-43.499999982866115
 30
0.0
 40
2.25
100
AcDbArc
 50
0.0
 51
179.99999999999963
  0
LINE
  5
494
100
AcDbEntity
  8
0
  6
CONTINUOUS
 62
               7
100
AcDbLine
 10
68.149999984766424
 20
14.000000051638992
 30
0.0
 11
68.149999984766424
 21
13.500000051638992
 31
0.0
  0
LINE
  5
495
100
AcDbEntity
  8
0
  6
CONTINUOUS
 62
               7
100
AcDbLine
 10
72.649999984766424
 20
14.000000051638992
 30
0.0
 11
72.649999984766424
 21
13.500000051638992
 31
0.0
  0
ARC
  5
496
100
AcDbEntity
  8
0
  6
CONTINUOUS
 62
               7
100
AcDbCircle
 10
70.399999984766424
 20
13.500000051638992
 30
0.0
 40
2.25
100
AcDbArc
 50
179.99999999999963
 51
0.0
  0
LINE
  5
497
100
AcDbEntity
  8
0
  6
DASHED
 62
               7
100
AcDbLine
 10
57.799999999999699
 20
-37.699999982866132
 30
0.0
 11
60.199999999999676
 21
-37.699999982866132
 31
0.0
  0
LINE
  5
498
100
AcDbEntity
  8
0
  6
DASHED
 62
               7
100
AcDbLine
 10
60.199999999999676
 20
-37.699999982866132
 30
0.0
 11
60.199999999999676
 21
-40.699999982866103
 31
0.0
  0
LINE
  5
499
100
AcDbEntity
  8
0
  6
DASHED
 62
               7
100
AcDbLine
 10
57.799999999999699
 20
-37.699999982866132
 30
0.0
 11
57.799999999999699
 21
-40.699999982866103
 31
0.0
  0
LINE
  5
49A
100
AcDbEntity
  8
0
  6
DASHED
 62
               7
100
AcDbLine
 10
57.799999999999699
 20
-39.800000000118672
 30
0.0
 11
56.899999999999693
 21
-39.800000000118672
 31
0.0
  0
LINE
  5
49B
100
AcDbEntity
  8
0
  6
DASHED
 62
               7
100
AcDbLine
 10
56.999999999999687
 20
-40.699999982866103
 30
0.0
 11
56.999999999999687
 21
-42.89999998286612
 31
0.0
  0
LINE
  5
49C
100
AcDbEntity
  8
0
  6
DASHED
 62
               7
100
AcDbLine
 10
60.999999999999687
 20
-40.699999982866103
 30
0.0
 11
56.999999999999687
 21
-40.699999982866103
 31
0.0
  0
LINE
  5
49D
100
AcDbEntity
  8
0
  6
DASHED
 62
               7
100
AcDbLine
 10
60.999999999999687
 20
-42.89999998286612
 30
0.0
 11
56.999999999999687
 21
-42.89999998286612
 31
0.0
  0
LINE
  5
49E
100
AcDbEntity
  8
0
  6
DASHED
 62
               7
100
AcDbLine
 10
60.999999999999687
 20
-40.699999982866103
 30
0.0
 11
60.999999999999687
 21
-42.89999998286612
 31
0.0
  0
LINE
  5
49F
100
AcDbEntity
  8
0
  6
DASHED
 62
               7
100
AcDbLine
 10
61.099999999999682
 20
-39.800000000118672
 30
0.0
 11
60.199999999999676
 21
-39.800000000118672
 31
0.0
  0
ARC
  5
4A0
100
AcDbEntity
  8
0
  6
DASHED
 62
               7
100
AcDbCircle
 10
55.799999999999699
 20
-43.499999982866115
 30
0.0
 40
0.5
100
AcDbArc
 50
89.999999999999815
 51
179.99999999999963
  0
LINE
  5
4A1
100
AcDbEntity
  8
0
  6
DASHED
 62
               7
100
AcDbLine
 10
62.199999999999676
 20
-42.999999982866115
 30
0.0
 11
55.799999999999699
 21
-42.999999982866115
 31
0.0
  0
ARC
  5
4A2
100
AcDbEntity
  8
0
  6
DASHED
 62
               7
100
AcDbCircle
 10
62.199999999999676
 20
-43.499999982866115
 30
0.0
 40
0.5
100
AcDbArc
 50
0.0
 51
89.999999999999815
  0
LINE
  5
4A3
100
AcDbEntity
  8
0
  6
DASHED
 62
               7
100
AcDbLine
 10
61.099999999999682
 20
-39.800000000118672
 30
0.0
 11
61.099999999999682
 21
-42.999999982866115
 31
0.0
  0
LINE
  5
4A4
100
AcDbEntity
  8
0
  6
DASHED
 62
               7
100
AcDbLine
 10
56.899999999999693
 20
-42.999999982866115
 30
0.0
 11
56.899999999999693
 21
-39.800000000118672
 31
0.0
  0
LINE
  5
4A5
100
AcDbEntity
  8
0
  6
CONTINUOUS
 62
               7
100
AcDbLine
 10
55.099999984766299
 20
-44.499999982866115
 30
0.0
 11
76.900000035762474
 21
-44.499999982866115
 31
0.0
  0
LINE
  5
4A6
100
AcDbEntity
  8
0
  6
CONTINUOUS
 62
               7
100
AcDbLine
 10
54.099999984766356
 20
0.7000001091964663
 30
0.0
 11
54.099999984766356
 21
13.500000051638992
 31
0.0
  0
LINE
  5
4A7
100
AcDbEntity
  8
0
  6
CONTINUOUS
 62
               7
100
AcDbLine
 10
54.099999984766356
 20
-43.499999975001941
 30
0.0
 11
54.099999984766356
 21
-30.100000046527526
 31
0.0
  0
LINE
  5
4A8
100
AcDbEntity
  8
0
  6
CONTINUOUS
 62
               7
100
AcDbLine
 10
54.099999984766356
 20
-24.299999935580232
 30
0.0
 11
54.099999984766356
 21
-5.0999999956469679
 31
0.0
  0
LINE
  5
4A9
100
AcDbEntity
  8
0
  6
CONTINUOUS
 62
               7
100
AcDbLine
 10
54.3000000228499
 20
-4.8999999575634234
 30
0.0
 11
54.3000000228499
 21
0.5000000711129218
 31
0.0
  0
LINE
  5
4AA
100
AcDbEntity
  8
0
  6
CONTINUOUS
 62
               7
100
AcDbLine
 10
54.3000000228499
 20
-24.499999973663776
 30
0.0
 11
54.3000000228499
 21
-29.900000002340079
 31
0.0
  0
LINE
  5
4AB
100
AcDbEntity
  8
0
  6
CONTINUOUS
 62
               7
100
AcDbLine
 10
54.099999984766356
 20
0.7000001091964663
 30
0.0
 11
54.3000000228499
 21
0.5000000711129218
 31
0.0
  0
LINE
  5
4AC
100
AcDbEntity
  8
0
  6
CONTINUOUS
 62
               7
100
AcDbLine
 10
54.3000000228499
 20
-4.8999999575634234
 30
0.0
 11
54.099999984766356
 21
-5.0999999956469679
 31
0.0
  0
LINE
  5
4AD
100
AcDbEntity
  8
0
  6
CONTINUOUS
 62
               7
100
AcDbLine
 10
54.3000000228499
 20
-24.499999973663776
 30
0.0
 11
54.099999984766356
 21
-24.299999935580232
 31
0.0
  0
LINE
  5
4AE
100
AcDbEntity
  8
0
  6
CONTINUOUS
 62
               7
100
AcDbLine
 10
54.099999984766356
 20
-30.100000040423623
 30
0.0
 11
54.3000000228499
 21
-29.900000002340079
 31
0.0
  0
LINE
  5
4AF
100
AcDbEntity
  8
0
  6
CONTINUOUS
 62
               4
100
AcDbLine
 10
6.1000000000089187
 20
36.999999982865432
 30
0.0
 11
6.1000000000115904
 21
75.999999982860544
 31
0.0
  0
LINE
  5
4B0
100
AcDbEntity
  8
0
  6
CONTINUOUS
 62
               4
100
AcDbLine
 10
29.900000000011318
 20
75.999999991775269
 30
0.0
 11
29.900000000011033
 21
36.999999982853694
 31
0.0
  0
LINE
  5
4B1
100
AcDbEntity
  8
0
  6
CENTER
 62
             200
100
AcDbLine
 10
17.999999999999687
 20
36.999999982859563
 30
0.0
 11
18.000000000011397
 21
78.999318102043915
 31
0.0
  0
CIRCLE
  5
4B2
100
AcDbEntity
  8
0
  6
CONTINUOUS
 62
               4
100
AcDbCircle
 10
17.99999999999946
 20
56.299999982862346
 30
0.0
 40
0.25
  0
CIRCLE
  5
4B3
100
AcDbEntity
  8
0
  6
CONTINUOUS
 62
               4
100
AcDbCircle
 10
17.99999999999946
 20
56.299999982862346
 30
0.0
 40
0.8
  0
LINE
  5
4B4
100
AcDbEntity
  8
0
  6
CONTINUOUS
 62
               4
100
AcDbLine
 10
29.13622846310264
 20
44.999999982853033
 30
0.0
 11
29.899999996205025
 21
44.999999982852614
 31
0.0
  0
ARC
  5
4B5
100
AcDbEntity
  8
0
  6
CONTINUOUS
 62
               4
100
AcDbCircle
 10
27.599999999998403
 20
39.199999801029897
 30
0.0
 40
6.0
100
AcDbArc
 50
73.80871737479022
 51
106.19135456949428
  0
LINE
  5
4B6
100
AcDbEntity
  8
0
  6
CONTINUOUS
 62
               4
100
AcDbLine
 10
29.850000000001586
 20
44.193745604861448
 30
0.0
 11
29.850000000000733
 21
42.799999991763315
 31
0.0
  0
ARC
  5
4B7
100
AcDbEntity
  8
0
  6
CONTINUOUS
 62
               4
100
AcDbCircle
 10
29.049999809266723
 20
44.193745604862002
 30
0.0
 40
0.800000011920929
100
AcDbArc
 50
359.99998201387444
 51
73.808645430432861
  0
LINE
  5
4B8
100
AcDbEntity
  8
0
  6
CONTINUOUS
 62
               4
100
AcDbLine
 10
25.350000000001074
 20
43.499999991766387
 30
0.0
 11
29.850000000001074
 21
43.499999991763531
 31
0.0
  0
LINE
  5
4B9
100
AcDbEntity
  8
0
  6
CONTINUOUS
 62
               4
100
AcDbLine
 10
25.350000000001586
 20
44.193745604864304
 30
0.0
 11
25.350000000000733
 21
42.799999991766171
 31
0.0
  0
ARC
  5
4BA
100
AcDbEntity
  8
0
  6
CONTINUOUS
 62
               4
100
AcDbCircle
 10
26.150000190736449
 20
44.193745604863807
 30
0.0
 40
0.800000011920929
100
AcDbArc
 50
106.19135456949428
 51
180.00001798605271
  0
CIRCLE
  5
4BB
100
AcDbEntity
  8
0
  6
CONTINUOUS
 62
               4
100
AcDbCircle
 10
14.49999999999946
 20
56.299999982862346
 30
0.0
 40
0.25
  0
CIRCLE
  5
4BC
100
AcDbEntity
  8
0
  6
CONTINUOUS
 62
               4
100
AcDbCircle
 10
21.49999999999946
 20
56.299999982860385
 30
0.0
 40
0.25
  0
LINE
  5
4BD
100
AcDbEntity
  8
0
  6
CONTINUOUS
 62
               4
100
AcDbLine
 10
11.199999999994901
 20
45.199999989058227
 30
0.0
 11
11.199999999996663
 21
49.99999997966458
 31
0.0
  0
LINE
  5
4BE
100
AcDbEntity
  8
0
  6
CONTINUOUS
 62
               4
100
AcDbLine
 10
24.799999999995947
 20
49.699999982856525
 30
0.0
 11
29.900000004297311
 21
49.699999982853967
 31
0.0
  0
LINE
  5
4BF
100
AcDbEntity
  8
0
  6
CONTINUOUS
 62
               4
100
AcDbLine
 10
23.799999999994753
 20
44.99999998285594
 30
0.0
 11
23.799999999994867
 21
45.199999989051356
 31
0.0
  0
LINE
  5
4C0
100
AcDbEntity
  8
0
  6
CONTINUOUS
 62
               4
100
AcDbLine
 10
29.899999999993696
 20
42.79999998285399
 30
0.0
 11
21.750000001915595
 21
42.799999982857926
 31
0.0
  0
LINE
  5
4C1
100
AcDbEntity
  8
0
  6
CONTINUOUS
 62
               4
100
AcDbLine
 10
6.0999999923763824
 20
49.699999982865762
 30
0.0
 11
11.199999999996493
 21
49.699999982863204
 31
0.0
  0
LINE
  5
4C2
100
AcDbEntity
  8
0
  6
CONTINUOUS
 62
               4
100
AcDbLine
 10
21.750000001916789
 20
44.999999982857062
 30
0.0
 11
26.063771536900475
 21
44.99999998285471
 31
0.0
  0
LINE
  5
4C3
100
AcDbEntity
  8
0
  6
CONTINUOUS
 62
               4
100
AcDbLine
 10
12.799999990241218
 20
38.999999982866839
 30
0.0
 11
23.199999990241309
 21
38.999999982861162
 31
0.0
  0
LINE
  5
4C4
100
AcDbEntity
  8
0
  6
CONTINUOUS
 62
               4
100
AcDbLine
 10
12.799999990242242
 20
40.899999982866817
 30
0.0
 11
23.199999990242333
 21
40.899999982861139
 31
0.0
  0
LINE
  5
4C5
100
AcDbEntity
  8
0
  6
CONTINUOUS
 62
               4
100
AcDbLine
 10
23.199999999992002
 20
38.999999982861162
 30
0.0
 11
23.199999999992798
 21
40.899999982861139
 31
0.0
  0
LINE
  5
4C6
100
AcDbEntity
  8
0
  6
CONTINUOUS
 62
               4
100
AcDbLine
 10
12.799999999991911
 20
38.999999982866271
 30
0.0
 11
12.799999999992707
 21
40.899999982866248
 31
0.0
  0
LINE
  5
4C7
100
AcDbEntity
  8
0
  6
CONTINUOUS
 62
               4
100
AcDbLine
 10
21.750000001915595
 20
42.799999982857926
 30
0.0
 11
21.750000001916789
 21
44.999999982857062
 31
0.0
  0
LINE
  5
4C8
100
AcDbEntity
  8
0
  6
CONTINUOUS
 62
               4
100
AcDbLine
 10
24.119999999993723
 20
42.799999982856804
 30
0.0
 11
24.11999999999469
 21
44.999999982855769
 31
0.0
  0
ARC
  5
4C9
100
AcDbEntity
  8
0
  6
CONTINUOUS
 62
               4
100
AcDbCircle
 10
27.49999999999747
 20
52.79999998285593
 30
0.0
 40
0.5
100
AcDbArc
 50
269.99999999996817
 51
359.99999999996794
  0
ARC
  5
4CA
100
AcDbEntity
  8
0
  6
CONTINUOUS
 62
               4
100
AcDbCircle
 10
27.500000000001734
 20
59.799999982855923
 30
0.0
 40
0.5
100
AcDbArc
 50
359.99999999996874
 51
89.999999999968551
  0
ARC
  5
4CB
100
AcDbEntity
  8
0
  6
CONTINUOUS
 62
               4
100
AcDbCircle
 10
8.5000000000017337
 20
59.799999982866296
 30
0.0
 40
0.5
100
AcDbArc
 50
89.999999999968551
 51
179.99999999996834
  0
ARC
  5
4CC
100
AcDbEntity
  8
0
  6
CONTINUOUS
 62
               4
100
AcDbCircle
 10
8.4999999999975273
 20
52.799999982866296
 30
0.0
 40
0.5
100
AcDbArc
 50
179.99999999996834
 51
269.99999999996817
  0
LINE
  5
4CD
100
AcDbEntity
  8
0
  6
CONTINUOUS
 62
               4
100
AcDbLine
 10
27.599999999997209
 20
52.299999982855873
 30
0.0
 11
8.3999999999972772
 21
52.299999982866346
 31
0.0
  0
LINE
  5
4CE
100
AcDbEntity
  8
0
  6
CONTINUOUS
 62
               4
100
AcDbLine
 10
27.500000000001961
 20
60.299999982855923
 30
0.0
 11
8.5000000000019611
 21
60.299999982866296
 31
0.0
  0
LINE
  5
4CF
100
AcDbEntity
  8
0
  6
CONTINUOUS
 62
               4
100
AcDbLine
 10
7.9999999999975273
 20
52.799999982866623
 30
0.0
 11
8.0000000000017906
 21
59.899999982866532
 31
0.0
  0
LINE
  5
4D0
100
AcDbEntity
  8
0
  6
CONTINUOUS
 62
               4
100
AcDbLine
 10
27.99999999999747
 20
52.799999982855596
 30
0.0
 11
28.000000000001791
 21
59.899999982855618
 31
0.0
  0
LINE
  5
4D1
100
AcDbEntity
  8
0
  6
CENTER
 62
             200
100
AcDbLine
 10
14.500000000000142
 20
57.529318325651047
 30
0.0
 11
14.499999999998892
 21
54.995604754714805
 31
0.0
  0
LINE
  5
4D2
100
AcDbEntity
  8
0
  6
CENTER
 62
             200
100
AcDbLine
 10
21.500000000000483
 20
57.529318325648404
 30
0.0
 11
21.499999999998892
 21
54.995604754712218
 31
0.0
  0
ARC
  5
4D3
100
AcDbEntity
  8
0
  6
CONTINUOUS
 62
               4
100
AcDbCircle
 10
21.49999999999946
 20
56.299999982860385
 30
0.0
 40
2.0
100
AcDbArc
 50
269.99999999996817
 51
89.999999999968551
  0
LINE
  5
4D4
100
AcDbEntity
  8
0
  6
CONTINUOUS
 62
               4
100
AcDbLine
 10
14.500000000000888
 20
58.299999982863241
 30
0.0
 11
21.500000000000554
 21
58.299999982859433
 31
0.0
  0
LINE
  5
4D5
100
AcDbEntity
  8
0
  6
CONTINUOUS
 62
               4
100
AcDbLine
 10
14.499999999998508
 20
54.299999982863241
 30
0.0
 11
21.499999999998366
 21
54.299999982859433
 31
0.0
  0
ARC
  5
4D6
100
AcDbEntity
  8
0
  6
CONTINUOUS
 62
               4
100
AcDbCircle
 10
14.499999999999801
 20
56.29999998286263
 30
0.0
 40
2.0
100
AcDbArc
 50
89.999999999962753
 51
269.99999999996237
  0
CIRCLE
  5
4D7
100
AcDbEntity
  8
0
  6
CONTINUOUS
 62
               4
100
AcDbCircle
 10
21.49999999999946
 20
56.299999982860385
 30
0.0
 40
0.8
  0
CIRCLE
  5
4D8
100
AcDbEntity
  8
0
  6
CONTINUOUS
 62
               4
100
AcDbCircle
 10
14.49999999999946
 20
56.299999982862346
 30
0.0
 40
0.8
  0
LINE
  5
4D9
100
AcDbEntity
  8
0
  6
CONTINUOUS
 62
               4
100
AcDbLine
 10
10.00000000000469
 20
66.499999982865461
 30
0.0
 11
26.00000000000469
 21
66.499999982856735
 31
0.0
  0
LINE
  5
4DA
100
AcDbEntity
  8
0
  6
CONTINUOUS
 62
               4
100
AcDbLine
 10
9.5000000000049738
 20
66.999999982865745
 30
0.0
 11
9.5000000000086686
 21
73.999999973953038
 31
0.0
  0
LINE
  5
4DB
100
AcDbEntity
  8
0
  6
CONTINUOUS
 62
               4
100
AcDbLine
 10
26.500000000004974
 20
66.999999982856451
 30
0.0
 11
26.500000000008555
 21
73.999999973943744
 31
0.0
  0
LINE
  5
4DC
100
AcDbEntity
  8
0
  6
CENTER
 62
             200
100
AcDbLine
 10
13.421001507387473
 20
56.299999982863611
 30
0.0
 11
22.7113469936169
 21
56.299999982858544
 31
0.0
  0
ARC
  5
4DD
100
AcDbEntity
  8
0
  6
CONTINUOUS
 62
               4
100
AcDbCircle
 10
7.100000000009544
 20
75.999999982865234
 30
0.0
 40
1.0
100
AcDbArc
 50
89.999999999974307
 51
179.99999999997414
  0
ARC
  5
4DE
100
AcDbEntity
  8
0
  6
CONTINUOUS
 62
               4
100
AcDbCircle
 10
28.900000000009499
 20
75.999999982854462
 30
0.0
 40
1.0
100
AcDbArc
 50
359.99999999997448
 51
89.999999999974307
  0
LINE
  5
4DF
100
AcDbEntity
  8
0
  6
CONTINUOUS
 62
               4
100
AcDbLine
 10
28.90000000000984
 20
76.999999982854462
 30
0.0
 11
7.1000000000099988
 21
76.999999982865234
 31
0.0
  0
ARC
  5
4E0
100
AcDbEntity
  8
0
  6
CONTINUOUS
 62
               4
100
AcDbCircle
 10
26.000000000004974
 20
66.999999982856735
 30
0.0
 40
0.5
100
AcDbArc
 50
269.99999999996817
 51
359.99999999996794
  0
ARC
  5
4E1
100
AcDbEntity
  8
0
  6
CONTINUOUS
 62
               4
100
AcDbCircle
 10
10.000000000004974
 20
66.999999982865461
 30
0.0
 40
0.5
100
AcDbArc
 50
179.99999999996834
 51
269.99999999996817
  0
LINE
  5
4E2
100
AcDbEntity
  8
0
  6
CONTINUOUS
 62
               4
100
AcDbLine
 10
6.100000000008464
 20
73.999999973954885
 30
0.0
 11
29.900000004684358
 21
73.999999973941897
 31
0.0
  0
LINE
  5
4E3
100
AcDbEntity
  8
0
  6
CONTINUOUS
 62
               4
100
AcDbLine
 10
7.0999999999965269
 20
49.999999979666818
 30
0.0
 11
12.699999999996663
 21
49.999999979663762
 31
0.0
  0
LINE
  5
4E4
100
AcDbEntity
  8
0
  6
CONTINUOUS
 62
               4
100
AcDbLine
 10
9.7000000046709545
 20
49.299999979665408
 30
0.0
 11
11.199999999996265
 21
49.299999979664591
 31
0.0
  0
LINE
  5
4E5
100
AcDbEntity
  8
0
  6
CONTINUOUS
 62
               4
100
AcDbLine
 10
26.29999999999373
 20
45.199999989049992
 30
0.0
 11
9.6999999999942759
 21
45.199999989059044
 31
0.0
  0
LINE
  5
4E6
100
AcDbEntity
  8
0
  6
CONTINUOUS
 62
               4
100
AcDbLine
 10
9.1999999999945032
 20
45.699999989059322
 30
0.0
 11
9.1999999999959812
 21
48.799999979665685
 31
0.0
  0
ARC
  5
4E7
100
AcDbEntity
  8
0
  6
CONTINUOUS
 62
               4
100
AcDbCircle
 10
9.6999999999945032
 20
45.699999989059044
 30
0.0
 40
0.5
100
AcDbArc
 50
179.99999999996834
 51
269.99999999996817
  0
ARC
  5
4E8
100
AcDbEntity
  8
0
  6
CONTINUOUS
 62
               4
100
AcDbCircle
 10
9.6999999999959812
 20
48.799999979665408
 30
0.0
 40
0.5
100
AcDbArc
 50
89.999999999968551
 51
179.99999999996834
  0
LINE
  5
4E9
100
AcDbEntity
  8
0
  6
CONTINUOUS
 62
               4
100
AcDbLine
 10
12.699999999994276
 20
45.199999989057467
 30
0.0
 11
12.699999999996663
 21
49.999999979663762
 31
0.0
  0
LINE
  5
4EA
100
AcDbEntity
  8
0
  6
CONTINUOUS
 62
               4
100
AcDbLine
 10
24.79999999999373
 20
45.199999989051548
 30
0.0
 11
24.799999999996118
 21
49.9999999796579
 31
0.0
  0
LINE
  5
4EB
100
AcDbEntity
  8
0
  6
CONTINUOUS
 62
               4
100
AcDbLine
 10
23.29999999999373
 20
45.199999989052252
 30
0.0
 11
23.299999999996118
 21
49.999999979658604
 31
0.0
  0
ARC
  5
4EC
100
AcDbEntity
  8
0
  6
CONTINUOUS
 62
               4
100
AcDbCircle
 10
26.299999999995435
 20
48.799999979657208
 30
0.0
 40
0.5
100
AcDbArc
 50
359.99999999997436
 51
89.99999999997415
  0
ARC
  5
4ED
100
AcDbEntity
  8
0
  6
CONTINUOUS
 62
               4
100
AcDbCircle
 10
26.299999999993958
 20
45.699999989050845
 30
0.0
 40
0.5
100
AcDbArc
 50
269.99999999997374
 51
359.99999999997357
  0
LINE
  5
4EE
100
AcDbEntity
  8
0
  6
CONTINUOUS
 62
               4
100
AcDbLine
 10
26.799999999993958
 20
45.699999989050568
 30
0.0
 11
26.799999999995435
 21
48.799999979656931
 31
0.0
  0
LINE
  5
4EF
100
AcDbEntity
  8
0
  6
CONTINUOUS
 62
               4
100
AcDbLine
 10
26.299999995321144
 20
49.299999979657208
 30
0.0
 11
24.79999999999572
 21
49.299999979657855
 31
0.0
  0
LINE
  5
4F0
100
AcDbEntity
  8
0
  6
CONTINUOUS
 62
               4
100
AcDbLine
 10
23.299999999996118
 20
49.999999979657979
 30
0.0
 11
28.899999999996481
 21
49.999999979654923
 31
0.0
  0
ARC
  5
4F1
100
AcDbEntity
  8
0
  6
CONTINUOUS
 62
               4
100
AcDbCircle
 10
7.0999999999970385
 20
50.999999979666818
 30
0.0
 40
1.0
100
AcDbArc
 50
179.99999999996834
 51
269.99999999996817
  0
ARC
  5
4F2
100
AcDbEntity
  8
0
  6
CONTINUOUS
 62
               4
100
AcDbCircle
 10
28.899999999996993
 20
50.999999979654923
 30
0.0
 40
1.0
100
AcDbArc
 50
269.99999999996817
 51
359.99999999996794
  0
LINE
  5
4F3
100
AcDbEntity
  8
0
  6
CONTINUOUS
 62
               4
100
AcDbLine
 10
6.0999999927508668
 20
50.999999988452458
 30
0.0
 11
29.900000004671796
 21
50.99999998843947
 31
0.0
  0
LINE
  5
4F4
100
AcDbEntity
  8
0
  6
CONTINUOUS
 62
               4
100
AcDbLine
 10
10.650000000001938
 20
43.49999999177048
 30
0.0
 11
6.1500000000019384
 21
43.499999991770125
 31
0.0
  0
ARC
  5
4F5
100
AcDbEntity
  8
0
  6
CONTINUOUS
 62
               4
100
AcDbCircle
 10
9.8499998092669614
 20
44.193745604868354
 30
0.0
 40
0.800000011920929
100
AcDbArc
 50
359.99998201391423
 51
73.808645430473476
  0
LINE
  5
4F6
100
AcDbEntity
  8
0
  6
CONTINUOUS
 62
               4
100
AcDbLine
 10
6.1000000000089756
 20
42.799999982860612
 30
0.0
 11
14.249999998087077
 21
42.799999982860029
 31
0.0
  0
LINE
  5
4F7
100
AcDbEntity
  8
0
  6
CONTINUOUS
 62
               4
100
AcDbLine
 10
14.249999998087077
 20
42.799999982860029
 30
0.0
 11
14.249999998087077
 21
44.999999982859165
 31
0.0
  0
LINE
  5
4F8
100
AcDbEntity
  8
0
  6
CONTINUOUS
 62
               4
100
AcDbLine
 10
11.880000000008948
 20
42.799999982860214
 30
0.0
 11
11.880000000009176
 21
44.99999998285918
 31
0.0
  0
LINE
  5
4F9
100
AcDbEntity
  8
0
  6
CONTINUOUS
 62
               4
100
AcDbLine
 10
10.650000000001825
 20
44.193745604868397
 30
0.0
 11
10.650000000001938
 21
42.799999991770264
 31
0.0
  0
LINE
  5
4FA
100
AcDbEntity
  8
0
  6
CONTINUOUS
 62
               4
100
AcDbLine
 10
6.8637715369012255
 20
44.999999982859244
 30
0.0
 11
6.10000000379884
 21
44.999999982859237
 31
0.0
  0
ARC
  5
4FB
100
AcDbEntity
  8
0
  6
CONTINUOUS
 62
               4
100
AcDbCircle
 10
8.4000000000022226
 20
39.199999801035254
 30
0.0
 40
6.0
100
AcDbArc
 50
73.808645430473462
 51
106.19128262517752
  0
ARC
  5
4FC
100
AcDbEntity
  8
0
  6
CONTINUOUS
 62
               4
100
AcDbCircle
 10
6.950000190736688
 20
44.193745604868141
 30
0.0
 40
0.800000011920929
100
AcDbArc
 50
106.19135456953489
 51
180.00001798609333
  0
LINE
  5
4FD
100
AcDbEntity
  8
0
  6
CONTINUOUS
 62
               4
100
AcDbLine
 10
14.249999998087077
 20
44.999999982859165
 30
0.0
 11
9.9362284631033901
 21
44.999999982859194
 31
0.0
  0
LINE
  5
4FE
100
AcDbEntity
  8
0
  6
CONTINUOUS
 62
               4
100
AcDbLine
 10
12.200000000009112
 20
44.99999998285918
 30
0.0
 11
12.200000000009112
 21
45.199999989054582
 31
0.0
  0
LINE
  5
4FF
100
AcDbEntity
  8
0
  6
CONTINUOUS
 62
               4
100
AcDbLine
 10
6.1500000000018247
 20
44.193745604868042
 30
0.0
 11
6.1500000000019384
 21
42.799999991769909
 31
0.0
  0
LINE
  5
500
100
AcDbEntity
  8
0
  6
CONTINUOUS
 62
               7
100
AcDbLine
 10
-13.500000000000284
 20
-45.499999982866115
 30
0.0
 11
97.499999999999517
 21
-45.499999982866115
 31
0.0
  0
LINE
  5
501
100
AcDbEntity
  8
0
  6
CONTINUOUS
 62
               7
100
AcDbLine
 10
-13.500000000000284
 20
-52.640739985594678
 30
0.0
 11
-3.135195730869377
 21
-52.640739985594678
 31
0.0
  0
LINE
  5
502
100
AcDbEntity
  8
0
  6
CONTINUOUS
 62
               7
100
AcDbLine
 10
87.135195730868531
 20
-52.640739985594678
 30
0.0
 11
97.499999999999503
 21
-52.640739985594678
 31
0.0
  0
LINE
  5
503
100
AcDbEntity
  8
0
  6
CONTINUOUS
 62
               7
100
AcDbLine
 10
3.1351957308689222
 20
-52.640739985594678
 30
0.0
 11
80.864804269130104
 21
-52.640739985594678
 31
0.0
  0
LINE
  5
504
100
AcDbEntity
  8
0
  6
CENTER
 62
               2
100
AcDbLine
 10
79.2967820746168
 20
-27.499999931126993
 30
0.0
 11
5.335965724180511
 21
-27.499999931126993
 31
0.0
  0
LINE
  5
505
100
AcDbEntity
  8
0
  6
CENTER
 62
               2
100
AcDbLine
 10
79.396782074616937
 20
-2.4999999311269931
 30
0.0
 11
5.335965724180511
 21
-2.4999999311269931
 31
0.0
  0
ENDBLK
  5
506
100
AcDbEntity
  8
0
100
AcDbBlockEnd
  0
BLOCK
  5
511
100
AcDbEntity
  8
0
  6
ByBlock
 62
               0
100
AcDbBlockBegin
  2
_OPEN30
 70
               2
 10
0.0
 20
0.0
 30
0.0
  3
_OPEN30
  1

  0
LINE
  5
512
100
AcDbEntity
  8
0
  6
ByBlock
 62
               0
100
AcDbLine
 10
-1.0
 20
0.267949
 30
0.0
 11
0.0
 21
0.0
 31
0.0
  0
LINE
  5
513
100
AcDbEntity
  8
0
  6
ByBlock
 62
               0
100
AcDbLine
 10
0.0
 20
0.0
 30
0.0
 11
-1.0
 21
-0.267949
 31
0.0
  0
LINE
  5
514
100
AcDbEntity
  8
0
  6
ByBlock
 62
               0
100
AcDbLine
 10
0.0
 20
0.0
 30
0.0
 11
-1.0
 21
0.0
 31
0.0
  0
ENDBLK
  5
515
100
AcDbEntity
  8
0
  6
ByBlock
 62
               0
100
AcDbBlockEnd
  0
ENDSEC
  0
SECTION
  2
ENTITIES
  0
INSERT
  5
507
100
AcDbEntity
  8
0
  6
ByBlock
100
AcDbBlockReference
  2
PA-H-1
 10
-215.67407293702757
 20
71.914082128305267
 30
0.0
  0
INSERT
  5
508
100
AcDbEntity
  8
0
  6
ByBlock
100
AcDbBlockReference
  2
PA-H-2
 10
-215.67407293702757
 20
-166.08591785456082
 30
0.0
  0
INSERT
  5
509
100
AcDbEntity
  8
0
  6
ByBlock
100
AcDbBlockReference
  2
PA-H-3
 10
137.71797861317611
 20
5.2544106443179146
 30
0.0
  0
INSERT
  5
50A
100
AcDbEntity
  8
0
  6
ByBlock
100
AcDbBlockReference
  2
PA-H-4
 10
-25.544485460640971
 20
5.2544106443181704
 30
0.0
  0
MTEXT
  5
50B
100
AcDbEntity
  8
0
  6
CONTINUOUS
 62
               7
100
AcDbMText
 10
-268.29750001356371
 20
160.5
 30
0.0
 40
6.3000001907348633
 41
0.0
 71
               4
 72
               1
  1
\W1.050;\A1;MODEL:PAM2A-B3
  0
LINE
  5
50C
100
AcDbEntity
  8
0
  6
CONTINUOUS
 62
               7
100
AcDbLine
 10
-281.25
 20
-195.0
 30
0.0
 11
282.099853515625
 21
-195.0
 31
0.0
  0
LINE
  5
50D
100
AcDbEntity
  8
0
  6
CONTINUOUS
 62
               7
100
AcDbLine
 10
-281.25
 20
195.5
 30
0.0
 11
-281.25
 21
-195.0
 31
0.0
  0
LINE
  5
50E
100
AcDbEntity
  8
0
  6
CONTINUOUS
 62
               7
100
AcDbLine
 10
-281.25
 20
195.5
 30
0.0
 11
282.099853515625
 21
195.5
 31
0.0
  0
LINE
  5
50F
100
AcDbEntity
  8
0
  6
CONTINUOUS
 62
               7
100
AcDbLine
 10
282.099853515625
 20
195.5
 30
0.0
 11
282.099853515625
 21
-195.0
 31
0.0
  0
LEADER
  5
516
100
AcDbEntity
  8
0
  6
CONTINUOUS
 62
               2
100
AcDbLeader
  3
MXDIMSTYLE
 73
               3
 74
               0
 75
               0
 40
0.0
 76
               3
 10
-197.67407291318645
 20
14.914082156853006
 30
0.0
 10
-215.50142904108202
 20
-6.8150722472191489
 30
0.0
 10
-273.12638493364489
 20
-6.8150722472191489
 30
0.0
 77
               2
1001
ACAD
1000
DSTYLE
1002
{
1070
               6
1000
_OPEN30
1070
               7
1000
_OPEN30
1070
              41
1040
2.77
1070
             173
1070
               1
1070
             341
1005
510
1002
}
  0
LINE
  5
517
100
AcDbEntity
  8
0
  6
CONTINUOUS
 62
               7
100
AcDbLine
 10
-161.25
 20
195.5
 30
0.0
 11
-161.25
 21
175.5
 31
0.0
  0
LINE
  5
518
100
AcDbEntity
  8
0
  6
CONTINUOUS
 62
               7
100
AcDbLine
 10
-281.25
 20
175.5
 30
0.0
 11
-161.25
 21
175.5
 31
0.0
  0
MTEXT
  5
519
100
AcDbEntity
  8
0
  6
CONTINUOUS
 62
               7
100
AcDbMText
 10
-257.93165789425552
 20
189.5
 30
0.0
 40
6.3000001907348633
 41
0.0
 71
               4
 72
               1
  1
\W1.065;\A1;PA/PB SERIES
  0
LINE
  5
51A
100
AcDbEntity
  8
0
  6
CONTINUOUS
 62
               7
100
AcDbLine
 10
162.0999755859375
 20
175.5
 30
0.0
 11
282.099853515625
 21
175.5
 31
0.0
  0
MTEXT
  5
51B
100
AcDbEntity
  8
0
  6
CONTINUOUS
 62
               7
100
AcDbMText
 10
198.27702406779611
 20
185.5
 30
0.0
 40
6.3000001907348633
 41
0.0
 71
               4
 72
               1
  1
\W1.311;\A1;Ver. 1.0
  0
LINE
  5
51C
100
AcDbEntity
  8
0
  6
CONTINUOUS
 62
               7
100
AcDbLine
 10
162.0999755859375
 20
195.5
 30
0.0
 11
162.0999755859375
 21
175.5
 31
0.0
  0
MTEXT
  5
51D
100
AcDbEntity
  8
0
  6
CONTINUOUS
 62
               7
100
AcDbMText
 10
170.28099805280428
 20
-185.0
 30
0.0
 40
9.0
 41
0.0
 71
               4
 72
               1
  1
\W1.121;\A1;KOGANEI CORP.
  0
LINE
  5
51E
100
AcDbEntity
  8
0
  6
CONTINUOUS
 62
               7
100
AcDbLine
 10
162.0999755859375
 20
-175.0
 30
0.0
 11
282.099853515625
 21
-175.0
 31
0.0
  0
LINE
  5
51F
100
AcDbEntity
  8
0
  6
CONTINUOUS
 62
               7
100
AcDbLine
 10
162.0999755859375
 20
-175.0
 30
0.0
 11
162.0999755859375
 21
-195.0
 31
0.0
  0
MTEXT
  5
520
100
AcDbEntity
  8
0
  6
CONTINUOUS
 62
               7
100
AcDbMText
 10
-251.65625088414617
 20
181.5
 30
0.0
 40
6.3000001907348633
 41
0.0
 71
               4
 72
               1
  1
\W1.042;\A1;SAFE BLOCK
  0
LEADER
  5
521
100
AcDbEntity
  8
0
  6
CONTINUOUS
 62
               2
100
AcDbLeader
  3
MXDIMSTYLE
 73
               3
 74
               0
 75
               0
 40
0.0
 76
               3
 10
-173.67407291318804
 20
-10.085917843146994
 30
0.0
 10
-155.36771447791284
 20
-24.937757203629815
 30
0.0
 10
-95.463057590858398
 20
-24.937757203629815
 30
0.0
 77
               2
1001
ACAD
1000
DSTYLE
1002
{
1070
               6
1000
_OPEN30
1070
               7
1000
_OPEN30
1070
              41
1040
2.77
1070
             173
1070
               1
1070
             341
1005
510
1002
}
  0
MTEXT
  5
522
100
AcDbEntity
  8
0
  6
CONTINUOUS
 62
               2
100
AcDbMText
 10
-113.73942600212223
 20
-20.39802880169875
 30
0.0
 40
4.5
 41
0.0
 71
               4
 72
               1
  1
\A1;A9-H
  0
MTEXT
  5
523
100
AcDbEntity
  8
0
  6
CONTINUOUS
 62
               2
100
AcDbMText
 10
-145.19103892302613
 20
-4.3980288016987501
 30
0.0
 40
4.5
 41
0.0
 71
               4
 72
               1
  1
\W1.065;\A1;PA24(H)A7-H
  0
MTEXT
  5
524
100
AcDbEntity
  8
0
  6
CONTINUOUS
 62
               2
100
AcDbMText
 10
-113.73942600212223
 20
-12.39802880169875
 30
0.0
 40
4.5
 41
0.0
 71
               4
 72
               1
  1
\A1;A8-H
  0
MTEXT
  5
525
100
AcDbEntity
  8
0
  6
CONTINUOUS
 62
               2
100
AcDbMText
 10
-270.0779978629626
 20
5.6019711983012499
 30
0.0
 40
4.5
 41
0.0
 71
               4
 72
               1
  1
\W1.065;\A1;PA24(H)A5-H
  0
MTEXT
  5
526
100
AcDbEntity
  8
0
  6
CONTINUOUS
 62
               2
100
AcDbMText
 10
-238.62638494205868
 20
-2.3980288016987501
 30
0.0
 40
4.5
 41
0.0
 71
               4
 72
               1
  1
\A1;A6-H
  0
MTEXT
  5
527
100
AcDbEntity
  8
0
  6
CONTINUOUS
 62
               7
100
AcDbMText
 10
-75.957558607313771
 20
158.840328545071
 30
0.0
 40
6.3000001907348633
 41
0.0
 71
               4
 72
               1
  1
\W1.050;\A1;MODEL:PAM3B-B3
  0
LINE
  5
528
100
AcDbEntity
  8
0
  6
CONTINUOUS
 62
               7
100
AcDbLine
 10
-88.910058593749994
 20
195.5
 30
0.0
 11
-88.910058593749994
 21
-195.0
 31
0.0
  0
LEADER
  5
529
100
AcDbEntity
  8
0
  6
CONTINUOUS
 62
               2
100
AcDbLeader
  3
MXDIMSTYLE
 73
               3
 74
               0
 75
               0
 40
0.0
 76
               3
 10
16.455514539368266
 20
82.25441062718113
 30
0.0
 10
31.770758380456186
 20
111.35277795903812
 30
0.0
 10
94.666529407067515
 20
111.35277795903812
 30
0.0
 77
               2
1001
ACAD
1000
DSTYLE
1002
{
1070
               6
1000
_OPEN30
1070
               7
1000
_OPEN30
1070
              41
1040
2.77
1070
             173
1070
               1
1070
             341
1005
510
1002
}
  0
MTEXT
  5
52A
100
AcDbEntity
  8
0
  6
CONTINUOUS
 62
               2
100
AcDbMText
 10
-42.609838549565922
 20
101.94229966862949
 30
0.0
 40
4.5
 41
0.0
 71
               4
 72
               1
  1
\A1;A9-H
  0
MTEXT
  5
52B
100
AcDbEntity
  8
0
  6
CONTINUOUS
 62
               2
100
AcDbMText
 10
-74.061451470469848
 20
117.94229966862949
 30
0.0
 40
4.5
 41
0.0
 71
               4
 72
               1
  1
\W1.065;\A1;PA24(H)A7-H
  0
MTEXT
  5
52C
100
AcDbEntity
  8
0
  6
CONTINUOUS
 62
               2
100
AcDbMText
 10
-42.609838549565922
 20
109.94229966862949
 30
0.0
 40
4.5
 41
0.0
 71
               4
 72
               1
  1
\A1;A8-H
  0
LEADER
  5
52D
100
AcDbEntity
  8
0
  6
CONTINUOUS
 62
               2
100
AcDbLeader
  3
MXDIMSTYLE
 73
               3
 74
               0
 75
               0
 40
0.0
 76
               3
 10
-7.5444854606301419
 20
82.25441062718113
 30
0.0
 10
-16.204739498474538
 20
97.254410627181187
 30
0.0
 10
-82.99679748950237
 20
97.254410627181187
 30
0.0
 77
               2
1001
ACAD
1000
DSTYLE
1002
{
1070
               6
1000
_OPEN30
1070
               7
1000
_OPEN30
1070
              41
1040
2.77
1070
             173
1070
               1
1070
             341
1005
510
1002
}
  0
MTEXT
  5
52E
100
AcDbEntity
  8
0
  6
CONTINUOUS
 62
               2
100
AcDbMText
 10
53.529524586677937
 20
101.94181755051225
 30
0.0
 40
4.5
 41
0.0
 71
               4
 72
               1
  1
\W1.065;\A1;PA24(H)A5-H
  0
LEADER
  5
52F
100
AcDbEntity
  8
0
  6
CONTINUOUS
 62
               2
100
AcDbLeader
  3
MXDIMSTYLE
 73
               3
 74
               0
 75
               0
 40
0.0
 76
               3
 10
40.455514539368266
 20
82.25441062718113
 30
0.0
 10
49.920467739756077
 20
96.900231617373393
 30
0.0
 10
118.66653001850364
 20
96.900231617373393
 30
0.0
 77
               2
1001
ACAD
1000
DSTYLE
1002
{
1070
               6
1000
_OPEN30
1070
               7
1000
_OPEN30
1070
              41
1040
2.77
1070
             173
1070
               1
1070
             341
1005
510
1002
}
  0
MTEXT
  5
530
100
AcDbEntity
  8
0
  6
CONTINUOUS
 62
               2
100
AcDbMText
 10
36.388132414005824
 20
116.39436389217698
 30
0.0
 40
4.5
 41
0.0
 71
               4
 72
               1
  1
\W1.065;\A1;PA24(H)A6-H
  0
ENDSEC
  0
SECTION
  2
OBJECTS
  0
DICTIONARY
  5
19
100
AcDbDictionary
  3
ACAD_GROUP
350
1A
  3
ACAD_MLINESTYLE
350
1B
  0
DICTIONARY
  5
1A
102
{ACAD_REACTORS
330
19
102
}
100
AcDbDictionary
  0
DICTIONARY
  5
1B
102
{ACAD_REACTORS
330
19
102
}
100
AcDbDictionary
  3
STANDARD
350
1C
  0
MLINESTYLE
  5
1C
102
{ACAD_REACTORS
330
1B
102
}
100
AcDbMlineStyle
  2
Standard
 70
               0
  3

 62
               0
 51
90.0
 52
90.0
 71
               2
 49
0.5
 62
             256
  6
ByLayer
 49
-0.5
 62
             256
  6
ByLayer
  0
ENDSEC
  0
EOF
