  0
SECTION
  2
HEADER
  9
$ACADVER
  1
AC1012
  9
$DWGCODEPAGE
  3
dos932
  9
$INSBASE
 10
0.0
 20
0.0
 30
0.0
  9
$EXTMIN
 10
-399.52490234375
 20
-276.5
 30
0.0
  9
$EXTMAX
 10
403.0569545343663
 20
276.5
 30
0.0
  9
$LIMMIN
 10
-399.52490234375
 20
-276.5
  9
$LIMMAX
 10
403.0569545343663
 20
276.5
  9
$ORTHOMODE
 70
               0
  9
$REGENMODE
 70
               1
  9
$FILLMODE
 70
               1
  9
$QTEXTMODE
 70
               0
  9
$MIRRTEXT
 70
               1
  9
$DRAGMODE
 70
               2
  9
$LTSCALE
 40
1.0
  9
$OSMODE
 70
               0
  9
$ATTMODE
 70
               1
  9
$TEXTSIZE
 40
3.2000000476837158
  9
$TRACEWID
 40
0.05
  9
$TEXTSTYLE
  7
MX_NOTE_STANDARD
  9
$CLAYER
  8
0
  9
$CELTYPE
  6
CONTINUOUS
  9
$CECOLOR
 62
             256
  9
$CELTSCALE
 40
1.0
  9
$DELOBJ
 70
               1
  9
$DISPSILH
 70
               0
  9
$DIMSCALE
 40
1.0
  9
$DIMASZ
 40
2.5
  9
$DIMEXO
 40
1.5
  9
$DIMDLI
 40
3.75
  9
$DIMRND
 40
0.0
  9
$DIMDLE
 40
0.0
  9
$DIMEXE
 40
1.5
  9
$DIMTP
 40
0.0
  9
$DIMTM
 40
0.0
  9
$DIMTXT
 40
3.2000000476837158
  9
$DIMCEN
 40
2.5
  9
$DIMTSZ
 40
0.0
  9
$DIMTOL
 70
               0
  9
$DIMLIM
 70
               0
  9
$DIMTIH
 70
               0
  9
$DIMTOH
 70
               0
  9
$DIMSE1
 70
               0
  9
$DIMSE2
 70
               0
  9
$DIMTAD
 70
               1
  9
$DIMZIN
 70
               8
  9
$DIMBLK
  1

  9
$DIMASO
 70
               1
  9
$DIMSHO
 70
               1
  9
$DIMPOST
  1

  9
$DIMAPOST
  1

  9
$DIMALT
 70
               0
  9
$DIMALTD
 70
               4
  9
$DIMALTF
 40
0.03937007874016
  9
$DIMLFAC
 40
1.0
  9
$DIMTOFL
 70
               1
  9
$DIMTVP
 40
0.0
  9
$DIMTIX
 70
               0
  9
$DIMSOXD
 70
               0
  9
$DIMSAH
 70
               0
  9
$DIMBLK1
  1

  9
$DIMBLK2
  1

  9
$DIMSTYLE
  2
MXDIMSTYLE
  9
$DIMCLRD
 70
               0
  9
$DIMCLRE
 70
               0
  9
$DIMCLRT
 70
               0
  9
$DIMTFAC
 40
1.0
  9
$DIMGAP
 40
1.0
  9
$DIMJUST
 70
               0
  9
$DIMSD1
 70
               0
  9
$DIMSD2
 70
               0
  9
$DIMTOLJ
 70
               1
  9
$DIMTZIN
 70
               0
  9
$DIMALTZ
 70
               0
  9
$DIMALTTZ
 70
               0
  9
$DIMFIT
 70
               3
  9
$DIMUPT
 70
               1
  9
$DIMUNIT
 70
               2
  9
$DIMDEC
 70
               4
  9
$DIMTDEC
 70
               4
  9
$DIMALTU
 70
               2
  9
$DIMALTTD
 70
               4
  9
$DIMTXSTY
  7
MX_NOTE_STANDARD
  9
$DIMAUNIT
 70
               0
  9
$LUNITS
 70
               2
  9
$LUPREC
 70
               4
  9
$SKETCHINC
 40
0.1
  9
$FILLETRAD
 40
0.0
  9
$AUNITS
 70
               0
  9
$AUPREC
 70
               0
  9
$MENU
  1
acad
  9
$ELEVATION
 40
0.0
  9
$PELEVATION
 40
0.0
  9
$THICKNESS
 40
0.0
  9
$LIMCHECK
 70
               0
  9
$BLIPMODE
 70
               1
  9
$CHAMFERA
 40
0.0
  9
$CHAMFERB
 40
0.0
  9
$CHAMFERC
 40
0.0
  9
$CHAMFERD
 40
0.0
  9
$SKPOLY
 70
               0
  9
$TDCREATE
 40
2453378.356782408
  9
$TDUPDATE
 40
2453378.356782408
  9
$TDINDWG
 40
0.0000000000
  9
$TDUSRTIMER
 40
0.0000000000
  9
$USRTIMER
 70
               1
  9
$ANGBASE
 50
0.0
  9
$ANGDIR
 70
               0
  9
$PDMODE
 70
               0
  9
$PDSIZE
 40
0.0
  9
$PLINEWID
 40
0.0
  9
$COORDS
 70
               1
  9
$SPLFRAME
 70
               0
  9
$SPLINETYPE
 70
               6
  9
$SPLINESEGS
 70
               8
  9
$ATTDIA
 70
               0
  9
$ATTREQ
 70
               1
  9
$HANDLING
 70
               1
  9
$HANDSEED
  5
659
  9
$SURFTAB1
 70
               6
  9
$SURFTAB2
 70
               6
  9
$SURFTYPE
 70
               6
  9
$SURFU
 70
               6
  9
$SURFV
 70
               6
  9
$UCSNAME
  2

  9
$UCSORG
 10
0.0
 20
0.0
 30
0.0
  9
$UCSXDIR
 10
1.0
 20
0.0
 30
0.0
  9
$UCSYDIR
 10
0.0
 20
1.0
 30
0.0
  9
$PUCSNAME
  2

  9
$PUCSORG
 10
0.0
 20
0.0
 30
0.0
  9
$PUCSXDIR
 10
1.0
 20
0.0
 30
0.0
  9
$PUCSYDIR
 10
0.0
 20
1.0
 30
0.0
  9
$USERI1
 70
               0
  9
$USERI2
 70
               0
  9
$USERI3
 70
               0
  9
$USERI4
 70
               0
  9
$USERI5
 70
               0
  9
$USERR1
 40
0.0
  9
$USERR2
 40
0.0
  9
$USERR3
 40
0.0
  9
$USERR4
 40
0.0
  9
$USERR5
 40
0.0
  9
$WORLDVIEW
 70
               1
  9
$SHADEDGE
 70
               3
  9
$SHADEDIF
 70
              70
  9
$TILEMODE
 70
               1
  9
$MAXACTVP
 70
              16
  9
$PINSBASE
 10
0.0
 20
0.0
 30
0.0
  9
$PLIMCHECK
 70
               0
  9
$PEXTMIN
 10
1.0000000000000000E+20
 20
1.0000000000000000E+20
 30
1.0000000000000000E+20
  9
$PEXTMAX
 10
-1.0000000000000000E+20
 20
-1.0000000000000000E+20
 30
-1.0000000000000000E+20
  9
$PLIMMIN
 10
0.0
 20
0.0
  9
$PLIMMAX
 10
12.0
 20
9.0
  9
$UNITMODE
 70
               0
  9
$VISRETAIN
 70
               0
  9
$PLINEGEN
 70
               1
  9
$PSLTSCALE
 70
               0
  9
$TREEDEPTH
 70
            3020
  9
$PICKSTYLE
 70
               1
  9
$CMLSTYLE
  2
Standard
  9
$CMLJUST
 70
               0
  9
$CMLSCALE
 40
1.0
  9
$SAVEIMAGES
 70
               0
  0
ENDSEC
  0
SECTION
  2
CLASSES
  0
CLASS
  1
LWPOLYLINE
  2
AcDbPolyline
  3
"AutoCAD"
 90
        0
280
               0
281
               1
  0
CLASS
  1
IMAGE
  2
AcDbRasterImage
  3
ISM
 90
      127
280
               0
281
               1
  0
CLASS
  1
OLE2FRAME
  2
AcDbOle2Frame
  3
""
 90
        0
280
               0
281
               1
  0
CLASS
  1
HATCH
  2
AcDbHatch
  3
"ACAD_SEDONA"
 90
        0
280
               0
281
               1
  0
CLASS
  1
DICTIONARYVAR
  2
AcDbDictionaryVar
  3
"AutoCAD"
 90
        0
280
               0
281
               0
  0
CLASS
  1
RASTERVARIABLES
  2
AcDbRasterVariables
  3
ISM
 90
        0
280
               0
281
               0
  0
CLASS
  1
IMAGEDEF
  2
AcDbRasterImageDef
  3
ISM
 90
        0
280
               0
281
               0
  0
CLASS
  1
IMAGEDEF_REACTOR
  2
AcDbRasterImageDefReactor
  3
ISM
 90
        1
280
               0
281
               0
  0
CLASS
  1
IDBUFFER
  2
AcDbIdBuffer
  3
"Acad"
 90
        0
280
               0
281
               0
  0
CLASS
  1
SPATIAL_FILTER
  2
AcDbSpatialFilter
  3
"Acad"
 90
        0
280
               0
281
               0
  0
CLASS
  1
XRECORD
  2
AcDbXrecord
  3
"<Built In>"
 90
        0
280
               0
281
               0
  0
CLASS
  1
SORTENTSTABLE
  2
AcDbSortentsTable
  3
"AutoCAD"
 90
        0
280
               0
281
               0
  0
CLASS
  1
LAYER_INDEX
  2
AcDbLayerIndex
  3
"Acad"
 90
        0
280
               0
281
               0
  0
CLASS
  1
SPATIAL_INDEX
  2
AcDbSpatialIndex
  3
"Acad"
 90
        0
280
               0
281
               0
  0
CLASS
  1
OBJECT_PTR
  2
CAseDLPNTableRecord
  3
"ASE-LPNTableRecord"
 90
        1
280
               0
281
               0
  0
CLASS
  1
LAYOUT
  2
AcDbLayout
  3
"AutoCAD 2000"
 90
        1
280
               0
281
               0
  0
CLASS
  1
PLOTSETTINGS
  2
AcDbPlotSettings
  3
"AutoCAD 2000"
 90
        1
280
               0
281
               0
  0
CLASS
  1
ACDBDICTIONARYWDFLT
  2
AcDbDictionaryWithDefault
  3
"AutoCAD 2000"
 90
        1
280
               0
281
               0
  0
CLASS
  1
ACDBPLACEHOLDER
  2
AcDbPlaceHolder
  3
"AutoCAD 2000"
 90
        1
280
               0
281
               0
  0
ENDSEC
  0
SECTION
  2
TABLES
  0
TABLE
  2
VPORT
  5
7
100
AcDbSymbolTable
 70
               1
  0
VPORT
  5
15
100
AcDbSymbolTableRecord
100
AcDbViewportTableRecord
  2
*ACTIVE
 70
               0
 10
0.0
 20
0.0
 11
1.0
 21
1.0
 12
1.7660260953081206
 22
0.0
 13
0.0
 23
0.0
 14
1.0
 24
1.0
 15
0.0
 25
0.0
 16
0.0
 26
0.0
 36
1.0
 17
0.0
 27
0.0
 37
0.0
 40
558.52999999999997
 41
1.7320508075688772
 42
50.0
 43
0.0
 44
0.0
 50
0.0
 51
0.0
 71
               0
 72
             100
 73
               1
 74
               1
 75
               0
 76
               0
 77
               0
 78
               0
  0
ENDTAB
  0
TABLE
  2
LTYPE
  5
4
100
AcDbSymbolTable
 70
               6
  0
LTYPE
  5
11
100
AcDbSymbolTableRecord
100
AcDbLinetypeTableRecord
  2
BYBLOCK
 70
              64
  3

 72
              65
 73
               0
 40
0.0
  0
LTYPE
  5
12
100
AcDbSymbolTableRecord
100
AcDbLinetypeTableRecord
  2
BYLAYER
 70
              64
  3

 72
              65
 73
               0
 40
0.0
  0
LTYPE
  5
13
100
AcDbSymbolTableRecord
100
AcDbLinetypeTableRecord
  2
CONTINUOUS
 70
              64
  3
Solid line
 72
              65
 73
               0
 40
0.0
  0
LTYPE
  5
2F
100
AcDbSymbolTableRecord
100
AcDbLinetypeTableRecord
  2
CENTER
 70
              64
  3
Center ____ _ ____ _ ____ _ ____ _ ____ _ ____
 72
              65
 73
               4
 40
26.0
 49
20.0
 74
               0
 49
-2.0
 74
               0
 49
2.0
 74
               0
 49
-2.0
 74
               0
  0
LTYPE
  5
BC
100
AcDbSymbolTableRecord
100
AcDbLinetypeTableRecord
  2
DASHED
 70
              64
  3
Dashed __ __ __ __ __ __ __ __ __ __ __ __ __ _
 72
              65
 73
               2
 40
4.0
 49
2.0
 74
               0
 49
-2.0
 74
               0
  0
LTYPE
  5
362
100
AcDbSymbolTableRecord
100
AcDbLinetypeTableRecord
  2
PHANTOM
 70
              64
  3
Phantom ______  __  __  ______  __  __  ______
 72
              65
 73
               6
 40
30.0
 49
20.0
 74
               0
 49
-2.0
 74
               0
 49
2.0
 74
               0
 49
-2.0
 74
               0
 49
2.0
 74
               0
 49
-2.0
 74
               0
  0
ENDTAB
  0
TABLE
  2
LAYER
  5
2
100
AcDbSymbolTable
 70
               2
  0
LAYER
  5
14
100
AcDbSymbolTableRecord
100
AcDbLayerTableRecord
  2
0
 70
               0
 62
               7
  6
CONTINUOUS
  0
LAYER
  5
1D
100
AcDbSymbolTableRecord
100
AcDbLayerTableRecord
  2
DEFPOINTS
 70
               0
 62
               7
  6
CONTINUOUS
  0
ENDTAB
  0
TABLE
  2
STYLE
  5
3
100
AcDbSymbolTable
 70
               1
  0
STYLE
  5
17
100
AcDbSymbolTableRecord
100
AcDbTextStyleTableRecord
  2
MX_NOTE_STANDARD
 70
               0
 40
0.0
 41
1.0
 50
0.0
 71
               0
 42
3.2000000476837158
  3
txt.shx
  4
extfont.shx
  0
ENDTAB
  0
TABLE
  2
VIEW
  5
5
100
AcDbSymbolTable
 70
               0
  0
ENDTAB
  0
TABLE
  2
UCS
  5
6
100
AcDbSymbolTable
 70
               0
  0
ENDTAB
  0
TABLE
  2
APPID
  5
8
100
AcDbSymbolTable
 70
               1
  0
APPID
  5
16
100
AcDbSymbolTableRecord
100
AcDbRegAppTableRecord
  2
ACAD
 70
               0
  0
ENDTAB
  0
TABLE
  2
DIMSTYLE
  5
9
100
AcDbSymbolTable
 70
               1
  0
DIMSTYLE
105
18
100
AcDbSymbolTableRecord
100
AcDbDimStyleTableRecord
  2
MXDIMSTYLE
 70
               0
  3

  4

  5

  6

  7

 40
1.0
 41
2.5
 42
1.5
 43
3.75
 44
1.5
 45
0.0
 46
0.0
 47
0.0
 48
0.0
 71
               0
 72
               0
 73
               0
 74
               0
 75
               0
 76
               0
 77
               1
 78
               8
140
3.2000000476837158
141
2.5
142
0.0
143
0.03937007874016
144
1.0
145
0.0
146
1.0
147
1.0
170
               0
171
               4
172
               1
173
               0
174
               0
175
               0
176
               0
177
               0
178
               0
270
               2
271
               4
272
               4
273
               2
274
               4
275
               0
280
               0
281
               0
282
               0
283
               1
284
               0
285
               0
286
               0
287
               3
288
               1
340
17
  0
ENDTAB
  0
TABLE
  2
BLOCK_RECORD
  5
1
100
AcDbSymbolTable
 70
              15
  0
BLOCK_RECORD
  5
A
100
AcDbSymbolTableRecord
100
AcDbBlockTableRecord
  2
*MODEL_SPACE
  0
BLOCK_RECORD
  5
B
100
AcDbSymbolTableRecord
100
AcDbBlockTableRecord
  2
*PAPER_SPACE
  0
BLOCK_RECORD
  5
1E
100
AcDbSymbolTableRecord
100
AcDbBlockTableRecord
  2
PA24A7-1
  0
BLOCK_RECORD
  5
1F
100
AcDbSymbolTableRecord
100
AcDbBlockTableRecord
  2
PA24A7-2
  0
BLOCK_RECORD
  5
20
100
AcDbSymbolTableRecord
100
AcDbBlockTableRecord
  2
PA24A7-3
  0
BLOCK_RECORD
  5
21
100
AcDbSymbolTableRecord
100
AcDbBlockTableRecord
  2
PA24A7-4
  0
BLOCK_RECORD
  5
22
100
AcDbSymbolTableRecord
100
AcDbBlockTableRecord
  2
PA24A7-5
  0
BLOCK_RECORD
  5
23
100
AcDbSymbolTableRecord
100
AcDbBlockTableRecord
  2
PA24A7-6
  0
BLOCK_RECORD
  5
24
100
AcDbSymbolTableRecord
100
AcDbBlockTableRecord
  2
PA24A7-7
  0
BLOCK_RECORD
  5
25
100
AcDbSymbolTableRecord
100
AcDbBlockTableRecord
  2
PA24A7-8
  0
BLOCK_RECORD
  5
26
100
AcDbSymbolTableRecord
100
AcDbBlockTableRecord
  2
PA24A7-9
  0
BLOCK_RECORD
  5
27
100
AcDbSymbolTableRecord
100
AcDbBlockTableRecord
  2
PA24A7-10
  0
BLOCK_RECORD
  5
28
100
AcDbSymbolTableRecord
100
AcDbBlockTableRecord
  2
PA24A7-11
  0
BLOCK_RECORD
  5
29
100
AcDbSymbolTableRecord
100
AcDbBlockTableRecord
  2
PA24A7-12
  0
BLOCK_RECORD
  5
2A
100
AcDbSymbolTableRecord
100
AcDbBlockTableRecord
  2
PA24A7-13
  0
BLOCK_RECORD
  5
2B
100
AcDbSymbolTableRecord
100
AcDbBlockTableRecord
  2
PA24A7-14
  0
BLOCK_RECORD
  5
64D
100
AcDbSymbolTableRecord
100
AcDbBlockTableRecord
  2
_OPEN30
  0
ENDTAB
  0
ENDSEC
  0
SECTION
  2
BLOCKS
  0
BLOCK
  5
D
100
AcDbEntity
  8
0
100
AcDbBlockBegin
  2
*MODEL_SPACE
 70
               0
 10
0.0
 20
0.0
 30
0.0
  3
*MODEL_SPACE
  1

  0
ENDBLK
  5
E
100
AcDbEntity
  8
0
100
AcDbBlockEnd
  0
BLOCK
  5
F
100
AcDbEntity
 67
               1
  8
0
100
AcDbBlockBegin
  2
*PAPER_SPACE
 70
               0
 10
0.0
 20
0.0
 30
0.0
  3
*PAPER_SPACE
  1

  0
ENDBLK
  5
10
100
AcDbEntity
 67
               1
  8
0
100
AcDbBlockEnd
  0
BLOCK
  5
2C
100
AcDbEntity
  8
0
100
AcDbBlockBegin
  2
PA24A7-1
 70
               0
 10
0.0
 20
0.0
 30
0.0
  3
PA24A7-1
  1

  0
LINE
  5
2D
100
AcDbEntity
  8
0
  6
CONTINUOUS
 62
               7
100
AcDbLine
 10
4.5999999999984311
 20
-1.3430747835614625
 30
0.0
 11
4.5999999999978627
 21
-37.499999999999773
 31
0.0
  0
LINE
  5
2E
100
AcDbEntity
  8
0
  6
CONTINUOUS
 62
               7
100
AcDbLine
 10
5.699999999999136
 20
0.1339744329459904
 30
0.0
 11
5.699999999999136
 21
1.8660258054740666
 31
0.0
  0
LINE
  5
30
100
AcDbEntity
  8
0
  6
CENTER
 62
               2
100
AcDbLine
 10
3.3533438735590835
 20
1.0000001192100285
 30
0.0
 11
12.563610480615921
 21
1.0000001192096875
 31
0.0
  0
LINE
  5
31
100
AcDbEntity
  8
0
  6
CONTINUOUS
 62
               7
100
AcDbLine
 10
7.1999993574390828
 20
-0.7320498989557223
 30
0.0
 11
8.6999995100709384
 21
0.1339754456514015
 31
0.0
  0
LINE
  5
32
100
AcDbEntity
  8
0
  6
CONTINUOUS
 62
               7
100
AcDbLine
 10
7.1999993574393102
 20
2.7320501373754382
 30
0.0
 11
8.6999995100710521
 21
1.8660247927682008
 31
0.0
  0
LINE
  5
33
100
AcDbEntity
  8
0
  6
CONTINUOUS
 62
               7
100
AcDbLine
 10
8.699999999999136
 20
0.1339747309689869
 30
0.0
 11
8.699999999999136
 21
1.8660255074506154
 31
0.0
  0
LINE
  5
34
100
AcDbEntity
  8
0
  6
CONTINUOUS
 62
               7
100
AcDbLine
 10
7.199999999999136
 20
5.0000001192099148
 30
0.0
 11
4.6000000000001648
 21
5.0000001192099148
 31
0.0
  0
LINE
  5
35
100
AcDbEntity
  8
0
  6
CONTINUOUS
 62
               7
100
AcDbLine
 10
7.1999999999989654
 20
-2.9999998807900852
 30
0.0
 11
4.5999999999998522
 21
-2.9999998807900852
 31
0.0
  0
LINE
  5
36
100
AcDbEntity
  8
0
  6
CENTER
 62
               2
100
AcDbLine
 10
7.1999999999989086
 20
-4.7040875892793679
 30
0.0
 11
7.1999999999993634
 21
6.9844548936382012
 31
0.0
  0
LINE
  5
37
100
AcDbEntity
  8
0
  6
CONTINUOUS
 62
               7
100
AcDbLine
 10
5.6999996001370619
 20
0.133974858163981
 30
0.0
 11
7.1999997527688038
 21
-0.7320504864433701
 31
0.0
  0
LINE
  5
38
100
AcDbEntity
  8
0
  6
CONTINUOUS
 62
               7
100
AcDbLine
 10
5.6999996001370619
 20
1.866025380256076
 30
0.0
 11
7.1999997527690311
 21
2.7320507248630861
 31
0.0
  0
CIRCLE
  5
39
100
AcDbEntity
  8
0
  6
CONTINUOUS
 62
               7
100
AcDbCircle
 10
7.199999999999136
 20
1.0000001192099148
 30
0.0
 40
3.5
  0
CIRCLE
  5
3A
100
AcDbEntity
  8
0
  6
CONTINUOUS
 62
               7
100
AcDbCircle
 10
7.199999999999136
 20
1.0000000000006253
 30
0.0
 40
2.9803848266601563
  0
ARC
  5
3B
100
AcDbEntity
  8
0
  6
CONTINUOUS
 62
               7
100
AcDbCircle
 10
7.199999999999136
 20
1.0000001192099148
 30
0.0
 40
4.0
100
AcDbArc
 50
269.99999999999801
 51
89.999999999997556
  0
LINE
  5
3C
100
AcDbEntity
  8
0
  6
CONTINUOUS
 62
               7
100
AcDbLine
 10
25.800000000001319
 20
53.999999999999602
 30
0.0
 11
28.40000000000029
 21
53.999999999999602
 31
0.0
  0
LINE
  5
3D
100
AcDbEntity
  8
0
  6
CONTINUOUS
 62
               7
100
AcDbLine
 10
25.800000000001489
 20
61.999999999999602
 30
0.0
 11
28.400000000000603
 21
61.999999999999602
 31
0.0
  0
LINE
  5
3E
100
AcDbEntity
  8
0
  6
CONTINUOUS
 62
               7
100
AcDbLine
 10
28.399999999999068
 20
-2.7320505583235786
 30
0.0
 11
28.399999999998272
 21
-37.499999999999773
 31
0.0
  0
LINE
  5
3F
100
AcDbEntity
  8
0
  6
CENTER
 62
               2
100
AcDbLine
 10
16.499999999998636
 20
-40.189318247902861
 30
0.0
 11
16.500000000001592
 21
82.000000000000114
 31
0.0
  0
CIRCLE
  5
40
100
AcDbEntity
  8
0
  6
CONTINUOUS
 62
               7
100
AcDbCircle
 10
0.0
 20
0.0
 30
0.0
 40
2.7000000000000002
  0
CIRCLE
  5
41
100
AcDbEntity
  8
0
  6
CONTINUOUS
 62
               7
100
AcDbCircle
 10
34.0
 20
75.000000000000057
 30
0.0
 40
2.7000000000000002
  0
ARC
  5
42
100
AcDbEntity
  8
0
  6
CONTINUOUS
 62
               7
100
AcDbCircle
 10
-4.0
 20
59.000000000000057
 30
0.0
 40
1.0
100
AcDbArc
 50
89.999999999999815
 51
179.99999999999963
  0
LINE
  5
43
100
AcDbEntity
  8
0
  6
CENTER
 62
               2
100
AcDbLine
 10
30.042568627498895
 20
75.000000000000057
 30
0.0
 11
39.196056725390008
 21
75.000000000000057
 31
0.0
  0
ARC
  5
44
100
AcDbEntity
  8
0
  6
CONTINUOUS
 62
               7
100
AcDbCircle
 10
38.0
 20
-10.0
 30
0.0
 40
1.0
100
AcDbArc
 50
270.00000000000023
 51
0.0
  0
ARC
  5
45
100
AcDbEntity
  8
0
  6
CONTINUOUS
 62
               7
100
AcDbCircle
 10
3.0000000000004547
 20
-6.0
 30
0.0
 40
1.0
100
AcDbArc
 50
0.0
 51
89.999999999999815
  0
LINE
  5
46
100
AcDbEntity
  8
0
  6
CONTINUOUS
 62
               7
100
AcDbLine
 10
3.0000000119212018
 20
-5.0
 30
0.0
 11
0.0
 21
-5.0
 31
0.0
  0
ARC
  5
47
100
AcDbEntity
  8
0
  6
CONTINUOUS
 62
               7
100
AcDbCircle
 10
0.0
 20
0.0
 30
0.0
 40
5.0
100
AcDbArc
 50
179.99999999999963
 51
269.99999999999937
  0
ARC
  5
48
100
AcDbEntity
  8
0
  6
CONTINUOUS
 62
               7
100
AcDbCircle
 10
5.0000000000004547
 20
-10.0
 30
0.0
 40
1.0
100
AcDbArc
 50
179.99999999999963
 51
246.4218215216647
  0
LINE
  5
49
100
AcDbEntity
  8
0
  6
CONTINUOUS
 62
               7
100
AcDbLine
 10
4.0000000000004547
 20
-10.0
 30
0.0
 11
4.0000000000004547
 21
-6.0
 31
0.0
  0
ARC
  5
4A
100
AcDbEntity
  8
0
  6
CONTINUOUS
 62
               7
100
AcDbCircle
 10
3.0
 20
61.000000000000057
 30
0.0
 40
1.0
100
AcDbArc
 50
269.99999999999937
 51
0.0
  0
LINE
  5
4B
100
AcDbEntity
  8
0
  6
CONTINUOUS
 62
               7
100
AcDbLine
 10
-4.0
 20
60.000000000000057
 30
0.0
 11
3.0
 21
60.000000000000057
 31
0.0
  0
LINE
  5
4C
100
AcDbEntity
  8
0
  6
CONTINUOUS
 62
               7
100
AcDbLine
 10
4.0
 20
61.000000000000057
 30
0.0
 11
4.0
 21
75.000000000000057
 31
0.0
  0
LINE
  5
4D
100
AcDbEntity
  8
0
  6
CENTER
 62
               2
100
AcDbLine
 10
6.6782932201736003
 20
0.0
 30
0.0
 11
-4.6277648756251892
 21
0.0
 31
0.0
  0
LINE
  5
4E
100
AcDbEntity
  8
0
  6
CENTER
 62
               2
100
AcDbLine
 10
0.0
 20
-4.240734955477194
 30
0.0
 11
0.0
 21
4.4336281086322629
 31
0.0
  0
LINE
  5
4F
100
AcDbEntity
  8
0
  6
CENTER
 62
               2
100
AcDbLine
 10
34.0
 20
71.269653850984071
 30
0.0
 11
34.0
 21
78.90417721939599
 31
0.0
  0
LINE
  5
50
100
AcDbEntity
  8
0
  6
CONTINUOUS
 62
               7
100
AcDbLine
 10
39.0
 20
-10.0
 30
0.0
 11
39.0
 21
75.000000000000057
 31
0.0
  0
LINE
  5
51
100
AcDbEntity
  8
0
  6
CONTINUOUS
 62
               7
100
AcDbLine
 10
-4.9999999999995453
 20
0.0
 30
0.0
 11
-5.0
 21
59.000000000000057
 31
0.0
  0
LINE
  5
52
100
AcDbEntity
  8
0
  6
CONTINUOUS
 62
               7
100
AcDbLine
 10
38.0
 20
-11.0
 30
0.0
 11
28.399999999998954
 21
-11.0
 31
0.0
  0
LINE
  5
53
100
AcDbEntity
  8
0
  6
CONTINUOUS
 62
               7
100
AcDbLine
 10
28.400000000001
 20
80.000000000000057
 30
0.0
 11
34.0
 21
80.000000000000057
 31
0.0
  0
ARC
  5
54
100
AcDbEntity
  8
0
  6
CONTINUOUS
 62
               7
100
AcDbCircle
 10
34.0
 20
75.000000000000057
 30
0.0
 40
5.0
100
AcDbArc
 50
0.0
 51
89.999999999999815
  0
ARC
  5
55
100
AcDbEntity
  8
0
  6
CONTINUOUS
 62
               7
100
AcDbCircle
 10
9.0
 20
75.000000000000057
 30
0.0
 40
5.0
100
AcDbArc
 50
151.64236342367738
 51
179.99999999999963
  0
LINE
  5
56
100
AcDbEntity
  8
0
  6
CONTINUOUS
 62
               4
100
AcDbLine
 10
25.800000000000118
 20
97.799999999999557
 30
0.0
 11
7.2000000000000455
 21
97.799999999999557
 31
0.0
  0
LINE
  5
57
100
AcDbEntity
  8
0
  6
CONTINUOUS
 62
               4
100
AcDbLine
 10
24.400000000000091
 20
99.899999999999011
 30
0.0
 11
25.800000000000182
 21
99.899999999999011
 31
0.0
  0
LINE
  5
58
100
AcDbEntity
  8
0
  6
CONTINUOUS
 62
               4
100
AcDbLine
 10
24.400000000000091
 20
97.799999999999557
 30
0.0
 11
24.400000000000091
 21
99.899999999999011
 31
0.0
  0
ARC
  5
59
100
AcDbEntity
  8
0
  6
CONTINUOUS
 62
               4
100
AcDbCircle
 10
25.299999999999955
 20
90.499999999999147
 30
0.0
 40
0.5
100
AcDbArc
 50
269.9999999999979
 51
359.99999999999767
  0
LINE
  5
5A
100
AcDbEntity
  8
0
  6
CONTINUOUS
 62
               4
100
AcDbLine
 10
25.299999999999955
 20
89.999999999999375
 30
0.0
 11
7.7000000000000455
 21
89.999999999999375
 31
0.0
  0
ARC
  5
5B
100
AcDbEntity
  8
0
  6
CONTINUOUS
 62
               4
100
AcDbCircle
 10
7.7000000000000455
 20
90.499999999999375
 30
0.0
 40
0.5
100
AcDbArc
 50
179.99999999999963
 51
269.99999999999937
  0
LINE
  5
5C
100
AcDbEntity
  8
0
  6
CONTINUOUS
 62
               4
100
AcDbLine
 10
8.6000000000001364
 20
99.899999999999466
 30
0.0
 11
7.2000000000002728
 21
99.899999999999466
 31
0.0
  0
LINE
  5
5D
100
AcDbEntity
  8
0
  6
CONTINUOUS
 62
               4
100
AcDbLine
 10
8.6000000000001364
 20
97.799999999999557
 30
0.0
 11
8.6000000000001364
 21
99.899999999999466
 31
0.0
  0
LINE
  5
5E
100
AcDbEntity
  8
0
  6
CONTINUOUS
 62
               4
100
AcDbLine
 10
20.017157286864631
 20
91.499999999999375
 30
0.0
 11
12.982842713135369
 21
91.499999999999375
 31
0.0
  0
LINE
  5
5F
100
AcDbEntity
  8
0
  6
CONTINUOUS
 62
               4
100
AcDbLine
 10
16.358578643762712
 20
95.358578643101112
 30
0.0
 11
12.841421356898081
 21
91.841421356236481
 31
0.0
  0
LINE
  5
60
100
AcDbEntity
  8
0
  6
CONTINUOUS
 62
               4
100
AcDbLine
 10
16.641421356237288
 20
95.358578643101112
 30
0.0
 11
20.158578643101919
 21
91.841421356236481
 31
0.0
  0
ARC
  5
61
100
AcDbEntity
  8
0
  6
CONTINUOUS
 62
               4
100
AcDbCircle
 10
16.5
 20
95.217157286863824
 30
0.0
 40
0.2
100
AcDbArc
 50
44.99999999999919
 51
134.99999999999898
  0
ARC
  5
62
100
AcDbEntity
  8
0
  6
CONTINUOUS
 62
               4
100
AcDbCircle
 10
12.982842713135369
 20
91.699999999999193
 30
0.0
 40
0.2
100
AcDbArc
 50
134.99999999999793
 51
269.99999999999937
  0
ARC
  5
63
100
AcDbEntity
  8
0
  6
CONTINUOUS
 62
               4
100
AcDbCircle
 10
20.017157286864631
 20
91.699999999999193
 30
0.0
 40
0.2
100
AcDbArc
 50
269.99999999999937
 51
45.000000000000966
  0
LINE
  5
64
100
AcDbEntity
  8
0
  6
CONTINUOUS
 62
               4
100
AcDbLine
 10
27.199999999373404
 20
116.90000000000151
 30
0.0
 11
28.399999993412848
 21
116.90000000000151
 31
0.0
  0
LINE
  5
65
100
AcDbEntity
  8
0
  6
CONTINUOUS
 62
               4
100
AcDbLine
 10
27.199999999373404
 20
120.10000000000156
 30
0.0
 11
28.399999993413076
 21
120.10000000000156
 31
0.0
  0
ARC
  5
66
100
AcDbEntity
  8
0
  6
CONTINUOUS
 62
               4
100
AcDbCircle
 10
27.400000000000318
 20
120.99999999999915
 30
0.0
 40
1.0
100
AcDbArc
 50
359.99999999999847
 51
89.999999999998266
  0
LINE
  5
67
100
AcDbEntity
  8
0
  6
CONTINUOUS
 62
               4
100
AcDbLine
 10
5.6000000000005912
 20
121.9999999999996
 30
0.0
 11
27.400000000000546
 21
121.99999999999915
 31
0.0
  0
LINE
  5
68
100
AcDbEntity
  8
0
  6
CONTINUOUS
 62
               4
100
AcDbLine
 10
27.200000000000273
 20
116.90000000000151
 30
0.0
 11
27.2000000000005
 21
120.10000000000156
 31
0.0
  0
ARC
  5
69
100
AcDbEntity
  8
0
  6
CONTINUOUS
 62
               4
100
AcDbCircle
 10
5.6000000000005912
 20
120.99999999999937
 30
0.0
 40
1.0
100
AcDbArc
 50
89.999999999999815
 51
179.99999999999963
  0
LINE
  5
6A
100
AcDbEntity
  8
0
  6
CONTINUOUS
 62
               4
100
AcDbLine
 10
5.8000000006275059
 20
120.10000000000178
 30
0.0
 11
4.6000000065878339
 21
120.10000000000178
 31
0.0
  0
LINE
  5
6B
100
AcDbEntity
  8
0
  6
CONTINUOUS
 62
               4
100
AcDbLine
 10
24.500000000000455
 20
115.49999999999915
 30
0.0
 11
24.500000000000227
 21
108.49999999999915
 31
0.0
  0
LINE
  5
6C
100
AcDbEntity
  8
0
  6
CONTINUOUS
 62
               4
100
AcDbLine
 10
18.500000000000455
 20
115.49999999999937
 30
0.0
 11
18.500000000000227
 21
108.49999999999937
 31
0.0
  0
LINE
  5
6D
100
AcDbEntity
  8
0
  6
CONTINUOUS
 62
               4
100
AcDbLine
 10
5.8000000000004093
 20
116.90000000000174
 30
0.0
 11
5.8000000000004093
 21
120.10000000000178
 31
0.0
  0
LINE
  5
6E
100
AcDbEntity
  8
0
  6
CONTINUOUS
 62
               4
100
AcDbLine
 10
5.8000000006275059
 20
116.90000000000174
 30
0.0
 11
4.6000000065878339
 21
116.90000000000174
 31
0.0
  0
LINE
  5
6F
100
AcDbEntity
  8
0
  6
CONTINUOUS
 62
               7
100
AcDbLine
 10
4.5999999999996817
 20
75.999999999999375
 30
0.0
 11
28.399999999999864
 21
75.99999999999892
 31
0.0
  0
LINE
  5
70
100
AcDbEntity
  8
0
  6
CONTINUOUS
 62
               7
100
AcDbLine
 10
5.8999999999994088
 20
68.499999999798376
 30
0.0
 11
5.8999999999998636
 21
75.999999999999375
 31
0.0
  0
LINE
  5
71
100
AcDbEntity
  8
0
  6
CONTINUOUS
 62
               7
100
AcDbLine
 10
5.8999999887064405
 20
69.999999999999602
 30
0.0
 11
5.1000000065878339
 21
69.999999999999602
 31
0.0
  0
ARC
  5
72
100
AcDbEntity
  8
0
  6
CONTINUOUS
 62
               7
100
AcDbCircle
 10
5.0999999999996817
 20
70.499999999999602
 30
0.0
 40
0.5
100
AcDbArc
 50
179.99999999999963
 51
269.99999999999937
  0
LINE
  5
73
100
AcDbEntity
  8
0
  6
CONTINUOUS
 62
               7
100
AcDbLine
 10
27.099999999999909
 20
68.499999999798376
 30
0.0
 11
27.099999999999909
 21
75.99999999999892
 31
0.0
  0
ARC
  5
74
100
AcDbEntity
  8
0
  6
CONTINUOUS
 62
               7
100
AcDbCircle
 10
27.899999999999864
 20
70.499999999999375
 30
0.0
 40
0.5
100
AcDbArc
 50
269.9999999999979
 51
359.99999999999767
  0
LINE
  5
75
100
AcDbEntity
  8
0
  6
CONTINUOUS
 62
               7
100
AcDbLine
 10
27.100000011293105
 20
69.999999999999375
 30
0.0
 11
27.899999993411711
 21
69.999999999999375
 31
0.0
  0
LINE
  5
76
100
AcDbEntity
  8
0
  6
CONTINUOUS
 62
               4
100
AcDbLine
 10
23.100000000000136
 20
97.900000000000603
 30
0.0
 11
9.9000000000000909
 21
97.900000000000603
 31
0.0
  0
LINE
  5
77
100
AcDbEntity
  8
0
  6
CONTINUOUS
 62
               4
100
AcDbLine
 10
25.299999999999955
 20
89.900000000000603
 30
0.0
 11
20.5
 21
89.900000000000603
 31
0.0
  0
ARC
  5
78
100
AcDbEntity
  8
0
  6
CONTINUOUS
 62
               4
100
AcDbCircle
 10
25.299999999999955
 20
90.400000000000603
 30
0.0
 40
0.5
100
AcDbArc
 50
269.99999999999937
 51
0.0
  0
LINE
  5
79
100
AcDbEntity
  8
0
  6
CONTINUOUS
 62
               4
100
AcDbLine
 10
7.2000000000000455
 20
90.40000000000083
 30
0.0
 11
7.2000000000002728
 21
100.70020753607974
 31
0.0
  0
ARC
  5
7A
100
AcDbEntity
  8
0
  6
CONTINUOUS
 62
               4
100
AcDbCircle
 10
7.7000000000000455
 20
90.400000000000603
 30
0.0
 40
0.5
100
AcDbArc
 50
179.99999999999963
 51
269.99999999999937
  0
LINE
  5
7B
100
AcDbEntity
  8
0
  6
CONTINUOUS
 62
               4
100
AcDbLine
 10
9.4000000000000909
 20
98.400000000000603
 30
0.0
 11
9.4000000000000909
 21
99.999999994248412
 31
0.0
  0
ARC
  5
7C
100
AcDbEntity
  8
0
  6
CONTINUOUS
 62
               4
100
AcDbCircle
 10
9.9000000000000909
 20
98.400000000000603
 30
0.0
 40
0.5
100
AcDbArc
 50
179.99999999999963
 51
269.99999999999937
  0
ARC
  5
7D
100
AcDbEntity
  8
0
  6
CONTINUOUS
 62
               4
100
AcDbCircle
 10
23.100000000000136
 20
98.400000000000603
 30
0.0
 40
0.5
100
AcDbArc
 50
269.99999999999937
 51
0.0
  0
LINE
  5
7E
100
AcDbEntity
  8
0
  6
CONTINUOUS
 62
               4
100
AcDbLine
 10
20.0
 20
88.700000000000557
 30
0.0
 11
13.0
 21
88.700000000000557
 31
0.0
  0
LINE
  5
7F
100
AcDbEntity
  8
0
  6
CONTINUOUS
 62
               4
100
AcDbLine
 10
20.5
 20
89.200000000000557
 30
0.0
 11
20.5
 21
89.900000000000603
 31
0.0
  0
ARC
  5
80
100
AcDbEntity
  8
0
  6
CONTINUOUS
 62
               4
100
AcDbCircle
 10
20.0
 20
89.200000000000557
 30
0.0
 40
0.5
100
AcDbArc
 50
269.99999999999937
 51
0.0
  0
LINE
  5
81
100
AcDbEntity
  8
0
  6
CONTINUOUS
 62
               4
100
AcDbLine
 10
12.5
 20
89.200000000000784
 30
0.0
 11
12.5
 21
89.900000000000603
 31
0.0
  0
ARC
  5
82
100
AcDbEntity
  8
0
  6
CONTINUOUS
 62
               4
100
AcDbCircle
 10
13.0
 20
89.200000000000784
 30
0.0
 40
0.5
100
AcDbArc
 50
179.99999999999807
 51
269.9999999999979
  0
LINE
  5
83
100
AcDbEntity
  8
0
  6
CONTINUOUS
 62
               4
100
AcDbLine
 10
25.799999999999955
 20
90.400000000000603
 30
0.0
 11
25.800000000000182
 21
100.70020753607929
 31
0.0
  0
LINE
  5
84
100
AcDbEntity
  8
0
  6
CONTINUOUS
 62
               4
100
AcDbLine
 10
9.4000000000000909
 20
99.999999994248412
 30
0.0
 11
7.2000000000002728
 21
99.999999994248412
 31
0.0
  0
LINE
  5
85
100
AcDbEntity
  8
0
  6
CONTINUOUS
 62
               4
100
AcDbLine
 10
8.6000000000001364
 20
100.70020753607974
 30
0.0
 11
7.2000000125483439
 21
100.70020753607974
 31
0.0
  0
LINE
  5
86
100
AcDbEntity
  8
0
  6
CONTINUOUS
 62
               4
100
AcDbLine
 10
23.600000000000136
 20
99.999999994248185
 30
0.0
 11
25.800000000000182
 21
99.999999994248185
 31
0.0
  0
LINE
  5
87
100
AcDbEntity
  8
0
  6
CONTINUOUS
 62
               4
100
AcDbLine
 10
8.6000000000001364
 20
100.29999999424837
 30
0.0
 11
8.6000000000001364
 21
100.70020753607974
 31
0.0
  0
LINE
  5
88
100
AcDbEntity
  8
0
  6
CONTINUOUS
 62
               4
100
AcDbLine
 10
23.600000000000136
 20
98.400000000000375
 30
0.0
 11
23.600000000000136
 21
99.999999994248185
 31
0.0
  0
ARC
  5
89
100
AcDbEntity
  8
0
  6
CONTINUOUS
 62
               4
100
AcDbCircle
 10
8.9000000000000909
 20
100.29999999424837
 30
0.0
 40
0.3
100
AcDbArc
 50
179.99999999999963
 51
269.99999999999937
  0
LINE
  5
8A
100
AcDbEntity
  8
0
  6
CONTINUOUS
 62
               4
100
AcDbLine
 10
24.400000000000091
 20
100.70020753607952
 30
0.0
 11
25.799999987451883
 21
100.70020753607929
 31
0.0
  0
ARC
  5
8B
100
AcDbEntity
  8
0
  6
CONTINUOUS
 62
               4
100
AcDbCircle
 10
24.100000000000136
 20
100.29999999424814
 30
0.0
 40
0.3
100
AcDbArc
 50
269.9999999999979
 51
359.99999999999767
  0
LINE
  5
8C
100
AcDbEntity
  8
0
  6
CONTINUOUS
 62
               4
100
AcDbLine
 10
24.400000000000091
 20
100.29999999424814
 30
0.0
 11
24.400000000000091
 21
100.70020753607952
 31
0.0
  0
LINE
  5
8D
100
AcDbEntity
  8
0
  6
CONTINUOUS
 62
               4
100
AcDbLine
 10
18.500000000000455
 20
115.49999999999937
 30
0.0
 11
24.500000000000455
 21
115.49999999999915
 31
0.0
  0
LINE
  5
8E
100
AcDbEntity
  8
0
  6
CONTINUOUS
 62
               4
100
AcDbLine
 10
18.500000000000227
 20
108.49999999999937
 30
0.0
 11
24.500000000000227
 21
108.49999999999915
 31
0.0
  0
LINE
  5
8F
100
AcDbEntity
  8
0
  6
CONTINUOUS
 62
               4
100
AcDbLine
 10
14.500000000000227
 20
115.49999999999937
 30
0.0
 11
8.5000000000002274
 21
115.49999999999937
 31
0.0
  0
LINE
  5
90
100
AcDbEntity
  8
0
  6
CONTINUOUS
 62
               4
100
AcDbLine
 10
14.500000000000227
 20
108.49999999999937
 30
0.0
 11
8.5000000000002274
 21
108.49999999999937
 31
0.0
  0
LINE
  5
91
100
AcDbEntity
  8
0
  6
CONTINUOUS
 62
               4
100
AcDbLine
 10
14.500000000000227
 20
115.49999999999937
 30
0.0
 11
14.500000000000227
 21
108.49999999999937
 31
0.0
  0
LINE
  5
92
100
AcDbEntity
  8
0
  6
CONTINUOUS
 62
               4
100
AcDbLine
 10
8.5000000000002274
 20
115.49999999999937
 30
0.0
 11
8.5000000000002274
 21
108.49999999999937
 31
0.0
  0
LINE
  5
93
100
AcDbEntity
  8
0
  6
CONTINUOUS
 62
               4
100
AcDbLine
 10
18.600000000000364
 20
115.39999999999924
 30
0.0
 11
24.400000000000318
 21
115.39999999999924
 31
0.0
  0
LINE
  5
94
100
AcDbEntity
  8
0
  6
CONTINUOUS
 62
               4
100
AcDbLine
 10
24.400000000000318
 20
115.39999999999924
 30
0.0
 11
24.400000000000318
 21
108.59999999999928
 31
0.0
  0
LINE
  5
95
100
AcDbEntity
  8
0
  6
CONTINUOUS
 62
               4
100
AcDbLine
 10
18.600000000000364
 20
115.39999999999924
 30
0.0
 11
18.600000000000364
 21
108.59999999999928
 31
0.0
  0
LINE
  5
96
100
AcDbEntity
  8
0
  6
CONTINUOUS
 62
               4
100
AcDbLine
 10
18.600000000000364
 20
108.59999999999928
 30
0.0
 11
24.400000000000318
 21
108.59999999999928
 31
0.0
  0
LINE
  5
97
100
AcDbEntity
  8
0
  6
CONTINUOUS
 62
               4
100
AcDbLine
 10
14.400000000000318
 20
115.39999999999947
 30
0.0
 11
8.6000000000003638
 21
115.39999999999947
 31
0.0
  0
LINE
  5
98
100
AcDbEntity
  8
0
  6
CONTINUOUS
 62
               4
100
AcDbLine
 10
8.6000000000003638
 20
115.39999999999947
 30
0.0
 11
8.6000000000001364
 21
108.59999999999951
 31
0.0
  0
LINE
  5
99
100
AcDbEntity
  8
0
  6
CONTINUOUS
 62
               4
100
AcDbLine
 10
14.400000000000318
 20
115.39999999999947
 30
0.0
 11
14.400000000000091
 21
108.59999999999951
 31
0.0
  0
LINE
  5
9A
100
AcDbEntity
  8
0
  6
CONTINUOUS
 62
               4
100
AcDbLine
 10
14.400000000000091
 20
108.59999999999951
 30
0.0
 11
8.6000000000001364
 21
108.59999999999951
 31
0.0
  0
LINE
  5
9B
100
AcDbEntity
  8
0
  6
CONTINUOUS
 62
               4
100
AcDbLine
 10
12.5
 20
89.900000000000603
 30
0.0
 11
7.7000000000000455
 21
89.900000000000603
 31
0.0
  0
LINE
  5
9C
100
AcDbEntity
  8
0
  6
CONTINUOUS
 62
               7
100
AcDbLine
 10
4.5999999775428932
 20
66.999999999999829
 30
0.0
 11
28.399999989463822
 21
66.999999999999829
 31
0.0
  0
LINE
  5
9D
100
AcDbEntity
  8
0
  6
CONTINUOUS
 62
               7
100
AcDbLine
 10
27.099999977542893
 20
68.499999999798376
 30
0.0
 11
28.399999999999864
 21
68.499999999798376
 31
0.0
  0
LINE
  5
9E
100
AcDbEntity
  8
0
  6
CONTINUOUS
 62
               7
100
AcDbLine
 10
4.5999999775428932
 20
68.499999999798376
 30
0.0
 11
5.8999999894638222
 21
68.499999999798376
 31
0.0
  0
LINE
  5
9F
100
AcDbEntity
  8
0
  6
CONTINUOUS
 62
               7
100
AcDbLine
 10
4.5999999775428932
 20
-7.9999999999998863
 30
0.0
 11
28.399999989463822
 21
-7.9999999999998863
 31
0.0
  0
LINE
  5
A0
100
AcDbEntity
  8
0
  6
CONTINUOUS
 62
               7
100
AcDbLine
 10
27.400000000000205
 20
3.0000002384190338
 30
0.0
 11
27.400000000000432
 21
-0.9999997615809662
 31
0.0
  0
LINE
  5
A1
100
AcDbEntity
  8
0
  6
CONTINUOUS
 62
               4
100
AcDbLine
 10
28.400000000002137
 20
120.99999999999915
 30
0.0
 11
28.400000000001114
 21
81.999999999999403
 31
0.0
  0
LINE
  5
A2
100
AcDbEntity
  8
0
  6
CONTINUOUS
 62
               4
100
AcDbLine
 10
4.6000000000001364
 20
120.99999999999937
 30
0.0
 11
4.5999999999997669
 21
82.000000000000824
 31
0.0
  0
LINE
  5
A3
100
AcDbEntity
  8
0
  6
CONTINUOUS
 62
               7
100
AcDbLine
 10
5.5999999999980901
 20
60.000000238418522
 30
0.0
 11
5.5999999999983174
 21
56.000000238418522
 31
0.0
  0
LINE
  5
A4
100
AcDbEntity
  8
0
  6
CENTER
 62
               2
100
AcDbLine
 10
25.800000000001546
 20
63.704087708488885
 30
0.0
 11
25.800000000001091
 21
52.015545225571316
 31
0.0
  0
LINE
  5
A5
100
AcDbEntity
  8
0
  6
CENTER
 62
               2
100
AcDbLine
 10
29.646656126441371
 20
57.999999999999488
 30
0.0
 11
20.436389519384534
 21
57.999999999999829
 31
0.0
  0
LINE
  5
A6
100
AcDbEntity
  8
0
  6
CONTINUOUS
 62
               7
100
AcDbLine
 10
27.300000000001319
 20
58.866025686263526
 30
0.0
 11
27.300000000001319
 21
57.13397431373545
 31
0.0
  0
LINE
  5
A7
100
AcDbEntity
  8
0
  6
CONTINUOUS
 62
               7
100
AcDbLine
 10
24.300000000001319
 20
58.86602538824053
 30
0.0
 11
24.300000000001319
 21
57.133974611758902
 31
0.0
  0
LINE
  5
A8
100
AcDbEntity
  8
0
  6
CONTINUOUS
 62
               7
100
AcDbLine
 10
27.300000399863393
 20
58.866025261045536
 30
0.0
 11
25.800000247231651
 21
59.732050605652887
 31
0.0
  0
LINE
  5
A9
100
AcDbEntity
  8
0
  6
CONTINUOUS
 62
               7
100
AcDbLine
 10
25.800000642561145
 20
56.267949981834079
 30
0.0
 11
24.300000489929403
 21
57.133975326441316
 31
0.0
  0
LINE
  5
AA
100
AcDbEntity
  8
0
  6
CONTINUOUS
 62
               7
100
AcDbLine
 10
25.800000642561372
 20
59.732050018165239
 30
0.0
 11
24.300000489929516
 21
58.866024673558115
 31
0.0
  0
LINE
  5
AB
100
AcDbEntity
  8
0
  6
CONTINUOUS
 62
               7
100
AcDbLine
 10
27.300000399863393
 20
57.133974738953441
 30
0.0
 11
25.800000247231424
 21
56.267949394346431
 31
0.0
  0
CIRCLE
  5
AC
100
AcDbEntity
  8
0
  6
CONTINUOUS
 62
               7
100
AcDbCircle
 10
25.800000000001319
 20
57.999999999999602
 30
0.0
 40
3.5
  0
CIRCLE
  5
AD
100
AcDbEntity
  8
0
  6
CONTINUOUS
 62
               7
100
AcDbCircle
 10
25.800000000001319
 20
58.000000119208892
 30
0.0
 40
2.9803848266601563
  0
ARC
  5
AE
100
AcDbEntity
  8
0
  6
CONTINUOUS
 62
               7
100
AcDbCircle
 10
25.800000000001319
 20
57.999999999999602
 30
0.0
 40
4.0
100
AcDbArc
 50
89.999999999997613
 51
269.99999999999716
  0
LINE
  5
AF
100
AcDbEntity
  8
0
  6
CONTINUOUS
 62
               7
100
AcDbLine
 10
4.5999999999994543
 20
54.26794941117015
 30
0.0
 11
4.5999999999989996
 21
3.3430750219817469
 31
0.0
  0
LINE
  5
B0
100
AcDbEntity
  8
0
  6
CONTINUOUS
 62
               7
100
AcDbLine
 10
27.400000000000546
 20
-0.9999997507572402
 30
0.0
 11
28.400000000000546
 21
-2.7320505583261934
 31
0.0
  0
LINE
  5
B1
100
AcDbEntity
  8
0
  6
CONTINUOUS
 62
               7
100
AcDbLine
 10
28.400000029667353
 20
4.732051106095696
 30
0.0
 11
27.400000000000205
 21
3.000000247141827
 31
0.0
  0
LINE
  5
B2
100
AcDbEntity
  8
0
  6
CONTINUOUS
 62
               7
100
AcDbLine
 10
4.5999999581417796
 20
61.732051106095753
 30
0.0
 11
5.5999999999980901
 21
60.000000226029613
 31
0.0
  0
LINE
  5
B3
100
AcDbEntity
  8
0
  6
CONTINUOUS
 62
               7
100
AcDbLine
 10
5.6000000177464244
 20
56.00000027000948
 30
0.0
 11
4.6000000475487468
 21
54.267949493527851
 31
0.0
  0
LINE
  5
B4
100
AcDbEntity
  8
0
  6
CONTINUOUS
 62
               7
100
AcDbLine
 10
28.400000000000318
 20
55.656925097226519
 30
0.0
 11
28.399999999999181
 21
4.7320510547089611
 31
0.0
  0
LINE
  5
B5
100
AcDbEntity
  8
0
  6
CONTINUOUS
 62
               7
100
AcDbLine
 10
4.5999999999980901
 20
-24.499999999996874
 30
0.0
 11
28.399999983505268
 21
-24.499999999996874
 31
0.0
  0
LINE
  5
B6
100
AcDbEntity
  8
0
  6
CONTINUOUS
 62
               7
100
AcDbLine
 10
5.0999999999983174
 20
-37.999999999999886
 30
0.0
 11
27.899999999998272
 21
-37.999999999999886
 31
0.0
  0
ARC
  5
B7
100
AcDbEntity
  8
0
  6
CONTINUOUS
 62
               7
100
AcDbCircle
 10
5.0999999999983174
 20
-37.499999999999886
 30
0.0
 40
0.5
100
AcDbArc
 50
179.99999999999963
 51
269.99999999999937
  0
ARC
  5
B8
100
AcDbEntity
  8
0
  6
CONTINUOUS
 62
               7
100
AcDbCircle
 10
27.899999999998272
 20
-37.499999999999886
 30
0.0
 40
0.5
100
AcDbArc
 50
269.99999999999937
 51
0.0
  0
LINE
  5
B9
100
AcDbEntity
  8
0
  6
CENTER
 62
             200
100
AcDbLine
 10
16.500000000001592
 20
82.000000000000114
 30
0.0
 11
16.500000000002615
 21
124.7686818489471
 31
0.0
  0
LINE
  5
BA
100
AcDbEntity
  8
0
  6
CONTINUOUS
 62
               7
100
AcDbLine
 10
28.400000000001114
 20
81.999999999999403
 30
0.0
 11
28.400000000000546
 21
60.343074902772571
 31
0.0
  0
LINE
  5
BB
100
AcDbEntity
  8
0
  6
CONTINUOUS
 62
               7
100
AcDbLine
 10
4.5999999999997669
 20
82.000000000000824
 30
0.0
 11
4.599999999999568
 21
61.732051033595951
 31
0.0
  0
LINE
  5
BD
100
AcDbEntity
  8
0
  6
DASHED
 62
               2
100
AcDbLine
 10
4.5999999999997669
 20
82.000000000000824
 30
0.0
 11
28.400000000001114
 21
81.999999999999403
 31
0.0
  0
ENDBLK
  5
BE
100
AcDbEntity
  8
0
100
AcDbBlockEnd
  0
BLOCK
  5
BF
100
AcDbEntity
  8
0
100
AcDbBlockBegin
  2
PA24A7-2
 70
               0
 10
0.0
 20
0.0
 30
0.0
  3
PA24A7-2
  1

  0
LINE
  5
C0
100
AcDbEntity
  8
0
  6
CONTINUOUS
 62
               4
100
AcDbLine
 10
7.9999999999999716
 20
40.000000000000028
 30
0.0
 11
4.7999999999998408
 21
40.000000000000028
 31
0.0
  0
LINE
  5
C1
100
AcDbEntity
  8
0
  6
CONTINUOUS
 62
               4
100
AcDbLine
 10
3.0000000100984607
 20
55.500000000000114
 30
0.0
 11
-11.499999989901539
 21
55.500000000002387
 31
0.0
  0
LINE
  5
C2
100
AcDbEntity
  8
0
  6
CONTINUOUS
 62
               4
100
AcDbLine
 10
0.2500000100976649
 20
51.000000000000568
 30
0.0
 11
-8.7499999899023351
 21
51.000000000001933
 31
0.0
  0
LINE
  5
C3
100
AcDbEntity
  8
0
  6
CONTINUOUS
 62
               4
100
AcDbLine
 10
0.2500000100958459
 20
39.000000000000568
 30
0.0
 11
-8.7499999899041541
 21
39.000000000001933
 31
0.0
  0
LINE
  5
C4
100
AcDbEntity
  8
0
  6
CONTINUOUS
 62
               4
100
AcDbLine
 10
-2.2999999999994998
 20
1.9999999915609692
 30
0.0
 11
0.0000000000001137
 21
1.9999999915609692
 31
0.0
  0
LINE
  5
C5
100
AcDbEntity
  8
0
  6
CONTINUOUS
 62
               4
100
AcDbLine
 10
-8.4999999999995453
 20
16.000000000000114
 30
0.0
 11
0.4999999999998863
 21
16.000000000000114
 31
0.0
  0
LINE
  5
C6
100
AcDbEntity
  8
0
  6
DASHED
 62
             200
100
AcDbLine
 10
-9.9999999999995453
 20
15.000000000000114
 30
0.0
 11
1.9999999999998863
 21
15.000000000000114
 31
0.0
  0
LINE
  5
C7
100
AcDbEntity
  8
0
  6
CONTINUOUS
 62
               4
100
AcDbLine
 10
3.7999999999999545
 20
33.000000000000114
 30
0.0
 11
-11.999999999999545
 21
33.000000000000398
 31
0.0
  0
LINE
  5
C8
100
AcDbEntity
  8
0
  6
DASHED
 62
             200
100
AcDbLine
 10
-9.9999999999995453
 20
15.000000000000114
 30
0.0
 11
-9.9999999999995453
 21
33.000000000000398
 31
0.0
  0
LINE
  5
C9
100
AcDbEntity
  8
0
  6
CONTINUOUS
 62
               4
100
AcDbLine
 10
-8.9999999999995453
 20
16.500000000000114
 30
0.0
 11
-8.9999999999995453
 21
32.500000000000341
 31
0.0
  0
LINE
  5
CA
100
AcDbEntity
  8
0
  6
CONTINUOUS
 62
               4
100
AcDbLine
 10
-11.999999999999545
 20
11.999999991558468
 30
0.0
 11
-11.999999999999545
 21
33.000000000007788
 31
0.0
  0
ARC
  5
CB
100
AcDbEntity
  8
0
  6
CONTINUOUS
 62
               4
100
AcDbCircle
 10
-2.4999999999976126
 20
11.499999991558468
 30
0.0
 40
0.5
100
AcDbArc
 50
0.000000000002519
 51
90.000000000002316
  0
LINE
  5
CC
100
AcDbEntity
  8
0
  6
CONTINUOUS
 62
               4
100
AcDbLine
 10
-1.9999999999976126
 20
11.499999991558468
 30
0.0
 11
-1.9999999999976126
 21
2.4999999915609692
 31
0.0
  0
ARC
  5
CD
100
AcDbEntity
  8
0
  6
CONTINUOUS
 62
               4
100
AcDbCircle
 10
-1.9999999999995453
 20
11.999999991558468
 30
0.0
 40
10.0
100
AcDbArc
 50
180.0000000000021
 51
270.00000000000193
  0
LINE
  5
CE
100
AcDbEntity
  8
0
  6
CONTINUOUS
 62
               4
100
AcDbLine
 10
-2.4999999999977263
 20
11.999999991558468
 30
0.0
 11
-11.499999999999545
 21
11.99999999155807
 31
0.0
  0
ARC
  5
CF
100
AcDbEntity
  8
0
  6
CONTINUOUS
 62
               4
100
AcDbCircle
 10
-11.499999999999545
 20
12.49999999155807
 30
0.0
 40
0.5
100
AcDbArc
 50
179.99999999999963
 51
269.99999999999937
  0
ARC
  5
D0
100
AcDbEntity
  8
0
  6
CONTINUOUS
 62
               4
100
AcDbCircle
 10
-1.4999999999976126
 20
2.4999999915609692
 30
0.0
 40
0.5
100
AcDbArc
 50
179.99999999999963
 51
269.99999999999937
  0
ARC
  5
D1
100
AcDbEntity
  8
0
  6
CONTINUOUS
 62
               4
100
AcDbCircle
 10
-8.4999999999995453
 20
16.500000000000114
 30
0.0
 40
0.5
100
AcDbArc
 50
179.99999999999963
 51
269.99999999999937
  0
ARC
  5
D2
100
AcDbEntity
  8
0
  6
CONTINUOUS
 62
               4
100
AcDbCircle
 10
-9.4999999999995453
 20
32.500000000000341
 30
0.0
 40
0.5
100
AcDbArc
 50
0.0
 51
89.999999999999815
  0
ARC
  5
D3
100
AcDbEntity
  8
0
  6
CONTINUOUS
 62
               4
100
AcDbCircle
 10
-8.7499999899040404
 20
39.500000000001933
 30
0.0
 40
0.5
100
AcDbArc
 50
179.99999999999079
 51
269.99999999999056
  0
ARC
  5
D4
100
AcDbEntity
  8
0
  6
CONTINUOUS
 62
               4
100
AcDbCircle
 10
-8.7499999899023351
 20
50.500000000001933
 30
0.0
 40
0.5
100
AcDbArc
 50
89.99999999999099
 51
179.99999999999079
  0
LINE
  5
D5
100
AcDbEntity
  8
0
  6
CONTINUOUS
 62
               4
100
AcDbLine
 10
-9.2499999899040404
 20
39.500000000002046
 30
0.0
 11
-9.2499999899023351
 21
50.500000000002046
 31
0.0
  0
ARC
  5
D6
100
AcDbEntity
  8
0
  6
CONTINUOUS
 62
               4
100
AcDbCircle
 10
-10.999999989903927
 20
40.514702703392345
 30
0.0
 40
1.0
100
AcDbArc
 50
179.99999999999079
 51
181.68468431788708
  0
LINE
  5
D7
100
AcDbEntity
  8
0
  6
CONTINUOUS
 62
               4
100
AcDbLine
 10
-11.999567744368278
 20
40.485303651790559
 30
0.0
 11
-11.779411754610805
 21
33.000000000000398
 31
0.0
  0
ARC
  5
D8
100
AcDbEntity
  8
0
  6
CONTINUOUS
 62
               4
100
AcDbCircle
 10
-11.499999989901653
 20
55.000000000002387
 30
0.0
 40
0.5
100
AcDbArc
 50
89.99999999999099
 51
179.99999999999079
  0
LINE
  5
D9
100
AcDbEntity
  8
0
  6
CONTINUOUS
 62
               4
100
AcDbLine
 10
-11.999999989903927
 20
40.514702703392459
 30
0.0
 11
-11.999999989901653
 21
55.000000000002501
 31
0.0
  0
LINE
  5
DA
100
AcDbEntity
  8
0
  6
CONTINUOUS
 62
               4
100
AcDbLine
 10
36.999999995469125
 20
26.60000000000025
 30
0.0
 11
36.899999995469102
 21
26.500000000000227
 31
0.0
  0
LINE
  5
DB
100
AcDbEntity
  8
0
  6
CONTINUOUS
 62
               4
100
AcDbLine
 10
36.89999999093834
 20
33.500000000000227
 30
0.0
 11
36.999999995469125
 21
33.399999995469443
 31
0.0
  0
LINE
  5
DC
100
AcDbEntity
  8
0
  6
CONTINUOUS
 62
               4
100
AcDbLine
 10
36.999999995469125
 20
26.60000000000025
 30
0.0
 11
36.999999995469125
 21
33.399999995469443
 31
0.0
  0
LINE
  5
DD
100
AcDbEntity
  8
0
  6
CONTINUOUS
 62
               4
100
AcDbLine
 10
35.800000000000523
 20
0.0000000000003411
 30
0.0
 11
35.799999999997681
 21
35.000000000002331
 31
0.0
  0
LINE
  5
DE
100
AcDbEntity
  8
0
  6
CONTINUOUS
 62
               4
100
AcDbLine
 10
0.0000000000004547
 20
5.9999999999979536
 30
0.0
 11
0.0000000000001421
 21
1.9999999915609692
 31
0.0
  0
LINE
  5
DF
100
AcDbEntity
  8
0
  6
CONTINUOUS
 62
               4
100
AcDbLine
 10
7.9999999999999716
 20
40.000000000000028
 30
0.0
 11
35.79999999999734
 21
40.000000000000341
 31
0.0
  0
LINE
  5
E0
100
AcDbEntity
  8
0
  6
CONTINUOUS
 62
               4
100
AcDbLine
 10
8.0
 20
40.0
 30
0.0
 11
8.0
 21
7.99999999999784
 31
0.0
  0
ARC
  5
E1
100
AcDbEntity
  8
0
  6
CONTINUOUS
 62
               4
100
AcDbCircle
 10
4.7999999999998408
 20
39.0
 30
0.0
 40
1.0
100
AcDbArc
 50
89.999999999999815
 51
179.99999999999963
  0
LINE
  5
E2
100
AcDbEntity
  8
0
  6
CONTINUOUS
 62
               4
100
AcDbLine
 10
3.7999999999999545
 20
33.000000000000114
 30
0.0
 11
3.7999999999998408
 21
39.0
 31
0.0
  0
LINE
  5
E3
100
AcDbEntity
  8
0
  6
DASHED
 62
             200
100
AcDbLine
 10
1.9999999999998863
 20
32.999999973150807
 30
0.0
 11
1.9999999999998863
 21
15.000000000000114
 31
0.0
  0
LINE
  5
E4
100
AcDbEntity
  8
0
  6
CONTINUOUS
 62
               4
100
AcDbLine
 10
0.9999999999998863
 20
32.500000000000114
 30
0.0
 11
0.9999999999998863
 21
16.500000000000114
 31
0.0
  0
LINE
  5
E5
100
AcDbEntity
  8
0
  6
CONTINUOUS
 62
               4
100
AcDbLine
 10
2.0000000000004547
 20
7.99999999999784
 30
0.0
 11
7.9999999999994316
 21
7.99999999999784
 31
0.0
  0
ARC
  5
E6
100
AcDbEntity
  8
0
  6
CONTINUOUS
 62
               4
100
AcDbCircle
 10
2.0000000000004547
 20
5.99999999999784
 30
0.0
 40
2.0
100
AcDbArc
 50
89.999999999999815
 51
179.99999999999963
  0
ARC
  5
E7
100
AcDbEntity
  8
0
  6
CONTINUOUS
 62
               4
100
AcDbCircle
 10
0.4999999999998863
 20
16.500000000000114
 30
0.0
 40
0.5
100
AcDbArc
 50
269.99999999999937
 51
0.0
  0
ARC
  5
E8
100
AcDbEntity
  8
0
  6
CONTINUOUS
 62
               4
100
AcDbCircle
 10
1.4999999999998863
 20
32.500000000000114
 30
0.0
 40
0.5
100
AcDbArc
 50
89.999999999999815
 51
179.99999999999963
  0
LINE
  5
E9
100
AcDbEntity
  8
0
  6
CONTINUOUS
 62
               4
100
AcDbLine
 10
36.899999995467397
 20
0.0000000000003411
 30
0.0
 11
36.89999999546626
 21
39.500000000000398
 31
0.0
  0
LINE
  5
EA
100
AcDbEntity
  8
0
  6
CONTINUOUS
 62
               4
100
AcDbLine
 10
35.799999999997567
 20
35.000000000002331
 30
0.0
 11
36.39999999999759
 21
35.000000000002387
 31
0.0
  0
LINE
  5
EB
100
AcDbEntity
  8
0
  6
CONTINUOUS
 62
               4
100
AcDbLine
 10
35.799999999997453
 20
38.000000000002331
 30
0.0
 11
36.399999999997362
 21
38.000000000002387
 31
0.0
  0
LINE
  5
EC
100
AcDbEntity
  8
0
  6
CONTINUOUS
 62
               4
100
AcDbLine
 10
35.799999999997453
 20
37.999999985762997
 30
0.0
 11
35.79999999999734
 21
39.99999998576294
 31
0.0
  0
ARC
  5
ED
100
AcDbEntity
  8
0
  6
CONTINUOUS
 62
               4
100
AcDbCircle
 10
36.399999999997362
 20
37.500000000002387
 30
0.0
 40
0.5
100
AcDbArc
 50
0.0000000000018066
 51
90.000000000001606
  0
ARC
  5
EE
100
AcDbEntity
  8
0
  6
CONTINUOUS
 62
               4
100
AcDbCircle
 10
36.399999999997476
 20
35.500000000002387
 30
0.0
 40
0.5
100
AcDbArc
 50
270.00000000000125
 51
0.000000000001832
  0
ARC
  5
EF
100
AcDbEntity
  8
0
  6
CONTINUOUS
 62
               4
100
AcDbCircle
 10
36.399999999997362
 20
39.500000000000398
 30
0.0
 40
0.5
100
AcDbArc
 50
0.0000000000006361
 51
90.000000000000441
  0
LINE
  5
F0
100
AcDbEntity
  8
0
  6
CONTINUOUS
 62
               4
100
AcDbLine
 10
35.79999999999734
 20
40.000000000000341
 30
0.0
 11
36.399999999997362
 21
40.000000000000398
 31
0.0
  0
LINE
  5
F1
100
AcDbEntity
  8
0
  6
CONTINUOUS
 62
               4
100
AcDbLine
 10
36.899999995466487
 20
34.900000000002365
 30
0.0
 11
35.799999999997681
 21
34.900000000002308
 31
0.0
  0
LINE
  5
F2
100
AcDbEntity
  8
0
  6
CONTINUOUS
 62
               4
100
AcDbLine
 10
36.899999995466374
 20
38.100000000002353
 30
0.0
 11
35.799999999996999
 21
38.100000000002296
 31
0.0
  0
LINE
  5
F3
100
AcDbEntity
  8
0
  6
CONTINUOUS
 62
               4
100
AcDbLine
 10
0.0
 20
0.0
 30
0.0
 11
35.800000000000523
 21
0.0000000000003411
 31
0.0
  0
ARC
  5
F4
100
AcDbEntity
  8
0
  6
CONTINUOUS
 62
               4
100
AcDbCircle
 10
6.3000000000002956
 20
7.5000000000001137
 30
0.0
 40
0.5
100
AcDbArc
 50
89.999999999999815
 51
179.99999999999963
  0
LINE
  5
F5
100
AcDbEntity
  8
0
  6
CONTINUOUS
 62
               4
100
AcDbLine
 10
0.5000000000002274
 20
5.7999999999997272
 30
0.0
 11
5.8000000000001819
 21
5.7999999999992724
 31
0.0
  0
LINE
  5
F6
100
AcDbEntity
  8
0
  6
CONTINUOUS
 62
               4
100
AcDbLine
 10
5.8000000000001819
 20
5.7999999999992724
 30
0.0
 11
5.8000000000002956
 21
7.5000000000001137
 31
0.0
  0
ARC
  5
F7
100
AcDbEntity
  8
0
  6
CONTINUOUS
 62
               4
100
AcDbCircle
 10
4.4499997929606252
 20
7.5937456130977807
 30
0.0
 40
0.800000011920929
100
AcDbArc
 50
359.99998201390565
 51
30.518595218099186
  0
LINE
  5
F8
100
AcDbEntity
  8
0
  6
CONTINUOUS
 62
               4
100
AcDbLine
 10
5.2499999836954885
 20
7.593745613097667
 30
0.0
 11
5.2499999836952611
 21
6.1999999999995907
 31
0.0
  0
LINE
  5
F9
100
AcDbEntity
  8
0
  6
CONTINUOUS
 62
               4
100
AcDbLine
 10
0.7499999836954885
 20
7.5612494865430335
 30
0.0
 11
0.7499999836952611
 21
6.1999999999995907
 31
0.0
  0
LINE
  5
FA
100
AcDbEntity
  8
0
  6
CONTINUOUS
 62
               4
100
AcDbLine
 10
0.7500000000001137
 20
6.8999999999995225
 30
0.0
 11
5.2500000000001137
 21
6.8999999999995225
 31
0.0
  0
LINE
  5
FB
100
AcDbEntity
  8
0
  6
CONTINUOUS
 62
               4
100
AcDbLine
 10
0.5000000000001137
 20
6.5499999999994998
 30
0.0
 11
0.0771115476978821
 21
6.5499999999994998
 31
0.0
  0
LINE
  5
FC
100
AcDbEntity
  8
0
  6
CONTINUOUS
 62
               4
100
AcDbLine
 10
0.5000000000001137
 20
4.7499999999995453
 30
0.0
 11
0.0
 21
4.7499999999995453
 31
0.0
  0
LINE
  5
FD
100
AcDbEntity
  8
0
  6
CONTINUOUS
 62
               4
100
AcDbLine
 10
0.5000000000001137
 20
6.5499999999994998
 30
0.0
 11
0.5000000000001137
 21
6.199999999999477
 31
0.0
  0
LINE
  5
FE
100
AcDbEntity
  8
0
  6
CONTINUOUS
 62
               4
100
AcDbLine
 10
0.5000000000001137
 20
4.7499999999995453
 30
0.0
 11
0.5000000000001137
 21
5.7999999999994998
 31
0.0
  0
LINE
  5
FF
100
AcDbEntity
  8
0
  6
CONTINUOUS
 62
               4
100
AcDbLine
 10
5.5000000000001137
 20
5.7999999999994998
 30
0.0
 11
5.5000000000001137
 21
6.199999999999477
 31
0.0
  0
LINE
  5
100
100
AcDbEntity
  8
0
  6
CONTINUOUS
 62
               4
100
AcDbLine
 10
5.5000000000001137
 20
6.199999999999477
 30
0.0
 11
0.5000000000001137
 21
6.199999999999477
 31
0.0
  0
LINE
  5
101
100
AcDbEntity
  8
0
  6
CONTINUOUS
 62
               4
100
AcDbLine
 10
16.000000010098461
 20
55.552999999998065
 30
0.0
 11
15.053000010098572
 21
56.499999999998295
 31
0.0
  0
LINE
  5
102
100
AcDbEntity
  8
0
  6
CONTINUOUS
 62
               4
100
AcDbLine
 10
16.000000010096869
 20
45.44699999999807
 30
0.0
 11
15.053000010096753
 21
44.499999999998295
 31
0.0
  0
LINE
  5
103
100
AcDbEntity
  8
0
  6
CONTINUOUS
 62
               4
100
AcDbLine
 10
22.000000010096528
 20
43.499999999997158
 30
0.0
 11
21.500000010096528
 21
42.999999999997272
 31
0.0
  0
LINE
  5
104
100
AcDbEntity
  8
0
  6
CONTINUOUS
 62
               4
100
AcDbLine
 10
22.000000010098802
 20
57.499999999997272
 30
0.0
 11
21.500000010098802
 21
57.999999999997272
 31
0.0
  0
LINE
  5
105
100
AcDbEntity
  8
0
  6
CONTINUOUS
 62
             200
100
AcDbLine
 10
16.000000010096869
 20
45.44699999999807
 30
0.0
 11
14.000000010096869
 21
45.446999999998525
 31
0.0
  0
LINE
  5
106
100
AcDbEntity
  8
0
  6
CONTINUOUS
 62
               4
100
AcDbLine
 10
16.000000010098461
 20
55.552999999998065
 30
0.0
 11
17.000000010098461
 21
55.552999999997951
 31
0.0
  0
LINE
  5
107
100
AcDbEntity
  8
0
  6
CONTINUOUS
 62
               4
100
AcDbLine
 10
3.0124882441414229
 20
57.357492927820431
 30
0.0
 11
0.7500000100984607
 21
55.500000000000455
 31
0.0
  0
LINE
  5
108
100
AcDbEntity
  8
0
  6
CONTINUOUS
 62
               4
100
AcDbLine
 10
10.500000010097438
 20
48.499999999998977
 30
0.0
 11
5.5000000100974376
 21
48.499999999999773
 31
0.0
  0
LINE
  5
109
100
AcDbEntity
  8
0
  6
CONTINUOUS
 62
               4
100
AcDbLine
 10
10.500000010097892
 20
52.499999999998977
 30
0.0
 11
5.5000000100978923
 21
52.499999999999773
 31
0.0
  0
ARC
  5
10A
100
AcDbEntity
  8
0
  6
CONTINUOUS
 62
               4
100
AcDbCircle
 10
5.5000000100972102
 20
47.999999999999773
 30
0.0
 40
1.0
100
AcDbArc
 50
179.99999999999079
 51
269.99999999999056
  0
ARC
  5
10B
100
AcDbEntity
  8
0
  6
CONTINUOUS
 62
               4
100
AcDbCircle
 10
5.5000000100981197
 20
52.999999999999773
 30
0.0
 40
1.0
100
AcDbArc
 50
89.99999999999099
 51
179.99999999999079
  0
ARC
  5
10C
100
AcDbEntity
  8
0
  6
CONTINUOUS
 62
               4
100
AcDbCircle
 10
10.50000001009721
 20
47.999999999998977
 30
0.0
 40
1.0
100
AcDbArc
 50
269.99999999999056
 51
359.99999999999039
  0
ARC
  5
10D
100
AcDbEntity
  8
0
  6
CONTINUOUS
 62
               4
100
AcDbCircle
 10
10.50000001009812
 20
52.999999999998977
 30
0.0
 40
1.0
100
AcDbArc
 50
359.99999999999039
 51
89.99999999999099
  0
LINE
  5
10E
100
AcDbEntity
  8
0
  6
CONTINUOUS
 62
               4
100
AcDbLine
 10
4.5000000100972102
 20
47.999999999999886
 30
0.0
 11
4.5000000100981197
 21
52.999999999999886
 31
0.0
  0
LINE
  5
10F
100
AcDbEntity
  8
0
  6
CONTINUOUS
 62
               4
100
AcDbLine
 10
11.50000001009721
 20
47.999999999998863
 30
0.0
 11
11.50000001009812
 21
52.999999999998863
 31
0.0
  0
LINE
  5
110
100
AcDbEntity
  8
0
  6
CONTINUOUS
 62
               4
100
AcDbLine
 10
10.50000001009721
 20
46.999999999998977
 30
0.0
 11
5.5000000100972102
 21
46.999999999999773
 31
0.0
  0
LINE
  5
111
100
AcDbEntity
  8
0
  6
CONTINUOUS
 62
               4
100
AcDbLine
 10
10.500000010098233
 20
53.999999999998977
 30
0.0
 11
5.5000000100982334
 21
53.999999999999773
 31
0.0
  0
ARC
  5
112
100
AcDbEntity
  8
0
  6
CONTINUOUS
 62
               4
100
AcDbCircle
 10
0.2500000100959596
 20
39.500000000000568
 30
0.0
 40
0.5
100
AcDbArc
 50
269.99999999999056
 51
359.99999999999039
  0
ARC
  5
113
100
AcDbEntity
  8
0
  6
CONTINUOUS
 62
               4
100
AcDbCircle
 10
0.2500000100976649
 20
50.500000000000568
 30
0.0
 40
0.5
100
AcDbArc
 50
359.99999999999039
 51
89.99999999999099
  0
LINE
  5
114
100
AcDbEntity
  8
0
  6
CONTINUOUS
 62
               4
100
AcDbLine
 10
0.7500000100959596
 20
39.500000000000455
 30
0.0
 11
0.7500000100976649
 21
50.500000000000455
 31
0.0
  0
LINE
  5
115
100
AcDbEntity
  8
0
  6
CONTINUOUS
 62
               4
100
AcDbLine
 10
22.000000022859354
 20
43.999999999997272
 30
0.0
 11
17.000000010096642
 21
43.999999999997954
 31
0.0
  0
LINE
  5
116
100
AcDbEntity
  8
0
  6
CONTINUOUS
 62
               4
100
AcDbLine
 10
22.000000010096983
 20
45.749999999997272
 30
0.0
 11
17.000000010096983
 21
45.749999999997954
 31
0.0
  0
LINE
  5
117
100
AcDbEntity
  8
0
  6
CONTINUOUS
 62
               4
100
AcDbLine
 10
21.544286638977837
 20
46.749999999997272
 30
0.0
 11
17.349826797637434
 21
46.749999999997954
 31
0.0
  0
LINE
  5
118
100
AcDbEntity
  8
0
  6
CONTINUOUS
 62
               4
100
AcDbLine
 10
22.000000022860149
 20
48.749999999997272
 30
0.0
 11
17.000000010097438
 21
48.749999999997954
 31
0.0
  0
LINE
  5
119
100
AcDbEntity
  8
0
  6
CONTINUOUS
 62
               4
100
AcDbLine
 10
22.000000022860604
 20
52.249999999997272
 30
0.0
 11
17.000000010097892
 21
52.249999999997954
 31
0.0
  0
LINE
  5
11A
100
AcDbEntity
  8
0
  6
CONTINUOUS
 62
               4
100
AcDbLine
 10
21.544286638978974
 20
54.249999999997272
 30
0.0
 11
17.349826797638684
 21
54.249999999997954
 31
0.0
  0
LINE
  5
11B
100
AcDbEntity
  8
0
  6
CONTINUOUS
 62
               4
100
AcDbLine
 10
22.000000022861059
 20
55.249999999997272
 30
0.0
 11
17.000000010098347
 21
55.249999999997954
 31
0.0
  0
LINE
  5
11C
100
AcDbEntity
  8
0
  6
CONTINUOUS
 62
               4
100
AcDbLine
 10
22.0000000228614
 20
56.999999999997272
 30
0.0
 11
17.000000010098688
 21
56.999999999997954
 31
0.0
  0
ARC
  5
11D
100
AcDbEntity
  8
0
  6
CONTINUOUS
 62
               4
100
AcDbCircle
 10
2.5000000100960733
 20
40.514702703390299
 30
0.0
 40
1.0
100
AcDbArc
 50
358.31531568209414
 51
359.99999999999039
  0
LINE
  5
11E
100
AcDbEntity
  8
0
  6
CONTINUOUS
 62
               4
100
AcDbLine
 10
3.4995677645604246
 20
40.485303651788172
 30
0.0
 11
3.2794117748009057
 21
33.000000000000114
 31
0.0
  0
ARC
  5
11F
100
AcDbEntity
  8
0
  6
CONTINUOUS
 62
               4
100
AcDbCircle
 10
3.000000010098347
 20
55.000000000000114
 30
0.0
 40
0.5
100
AcDbArc
 50
359.99999999999039
 51
89.99999999999099
  0
LINE
  5
120
100
AcDbEntity
  8
0
  6
CONTINUOUS
 62
               4
100
AcDbLine
 10
3.5000000100960733
 20
40.514702703390071
 30
0.0
 11
3.500000010098347
 21
55.0
 31
0.0
  0
LINE
  5
121
100
AcDbEntity
  8
0
  6
CENTER
 62
             200
100
AcDbLine
 10
25.733153595186309
 20
50.499999999996589
 30
0.0
 11
11.96018732608411
 21
50.499999999998749
 31
0.0
  0
LINE
  5
122
100
AcDbEntity
  8
0
  6
CONTINUOUS
 62
               4
100
AcDbLine
 10
17.000000010096869
 20
45.446999999997956
 30
0.0
 11
16.000000010096869
 21
45.44699999999807
 31
0.0
  0
LINE
  5
123
100
AcDbEntity
  8
0
  6
CONTINUOUS
 62
             200
100
AcDbLine
 10
14.000000010098461
 20
55.552999999998519
 30
0.0
 11
16.000000010098461
 21
55.552999999998065
 31
0.0
  0
LINE
  5
124
100
AcDbEntity
  8
0
  6
CONTINUOUS
 62
               4
100
AcDbLine
 10
15.053000010096753
 20
44.499999999998295
 30
0.0
 11
14.000000010096755
 21
44.499999999998408
 31
0.0
  0
LINE
  5
125
100
AcDbEntity
  8
0
  6
CONTINUOUS
 62
               4
100
AcDbLine
 10
15.053000010098572
 20
56.499999999998295
 30
0.0
 11
14.000000010098574
 21
56.499999999998408
 31
0.0
  0
LINE
  5
126
100
AcDbEntity
  8
0
  6
CONTINUOUS
 62
               4
100
AcDbLine
 10
16.000000010098461
 20
55.552999999998065
 30
0.0
 11
16.000000010096869
 21
45.44699999999807
 31
0.0
  0
LINE
  5
127
100
AcDbEntity
  8
0
  6
CONTINUOUS
 62
               4
100
AcDbLine
 10
17.000000010096528
 20
42.99999998606927
 30
0.0
 11
17.000000010098802
 21
57.99999998606927
 31
0.0
  0
LINE
  5
128
100
AcDbEntity
  8
0
  6
CONTINUOUS
 62
               4
100
AcDbLine
 10
21.500000010096528
 20
42.999999999997272
 30
0.0
 11
17.000000010096528
 21
42.999999999997954
 31
0.0
  0
LINE
  5
129
100
AcDbEntity
  8
0
  6
CONTINUOUS
 62
               4
100
AcDbLine
 10
22.000000010096528
 20
43.499999999997158
 30
0.0
 11
22.000000010098802
 21
57.499999999997272
 31
0.0
  0
ARC
  5
12A
100
AcDbEntity
  8
0
  6
CONTINUOUS
 62
               4
100
AcDbCircle
 10
3.5269839960560603
 20
56.5
 30
0.0
 40
1.0
100
AcDbArc
 50
89.99999999999099
 51
120.96375629734288
  0
ARC
  5
12B
100
AcDbEntity
  8
0
  6
CONTINUOUS
 62
               4
100
AcDbCircle
 10
13.000000010098574
 20
56.499999999998636
 30
0.0
 40
1.0
100
AcDbArc
 50
359.99999999999119
 51
89.99999999999099
  0
ARC
  5
12C
100
AcDbEntity
  8
0
  6
CONTINUOUS
 62
               4
100
AcDbCircle
 10
13.000000010096755
 20
44.499999999998636
 30
0.0
 40
1.0
100
AcDbArc
 50
269.99999999999056
 51
359.99999999999039
  0
LINE
  5
12D
100
AcDbEntity
  8
0
  6
CONTINUOUS
 62
               4
100
AcDbLine
 10
13.000000010096528
 20
43.499999999998636
 30
0.0
 11
3.5000000100965281
 21
43.5
 31
0.0
  0
LINE
  5
12E
100
AcDbEntity
  8
0
  6
CONTINUOUS
 62
               4
100
AcDbLine
 10
13.000000010098802
 20
57.499999999998636
 30
0.0
 11
3.526983996056174
 21
57.5
 31
0.0
  0
LINE
  5
12F
100
AcDbEntity
  8
0
  6
CONTINUOUS
 62
               4
100
AcDbLine
 10
14.000000010096755
 20
44.499999986069724
 30
0.0
 11
14.000000010098574
 21
56.499999999998408
 31
0.0
  0
LINE
  5
130
100
AcDbEntity
  8
0
  6
CONTINUOUS
 62
               4
100
AcDbLine
 10
21.500000010098802
 20
57.999999999997272
 30
0.0
 11
17.000000010098802
 21
57.999999999997954
 31
0.0
  0
LINE
  5
131
100
AcDbEntity
  8
0
  6
CONTINUOUS
 62
               4
100
AcDbLine
 10
0.0000000000001421
 20
1.9999999915609692
 30
0.0
 11
0.0
 21
0.0
 31
0.0
  0
ENDBLK
  5
132
100
AcDbEntity
  8
0
100
AcDbBlockEnd
  0
BLOCK
  5
133
100
AcDbEntity
  8
0
100
AcDbBlockBegin
  2
PA24A7-3
 70
               0
 10
0.0
 20
0.0
 30
0.0
  3
PA24A7-3
  1

  0
LINE
  5
134
100
AcDbEntity
  8
0
  6
CONTINUOUS
 62
               4
100
AcDbLine
 10
-11.900000021647884
 20
0.0
 30
0.0
 11
11.899999999998272
 21
0.0
 31
0.0
  0
LINE
  5
135
100
AcDbEntity
  8
0
  6
DASHED
 62
             200
100
AcDbLine
 10
-9.9000000129383352
 20
15.00000000000432
 30
0.0
 11
-10.899999999999409
 21
15.00000000000432
 31
0.0
  0
LINE
  5
136
100
AcDbEntity
  8
0
  6
DASHED
 62
             200
100
AcDbLine
 10
-9.8999999999994088
 20
15.00000000000432
 30
0.0
 11
-9.9000000000003183
 21
33.000000000010004
 31
0.0
  0
LINE
  5
137
100
AcDbEntity
  8
0
  6
DASHED
 62
             200
100
AcDbLine
 10
-10.899999999999409
 20
15.00000000000432
 30
0.0
 11
-10.900000000000318
 21
33.000000000009948
 31
0.0
  0
LINE
  5
138
100
AcDbEntity
  8
0
  6
DASHED
 62
             200
100
AcDbLine
 10
-10.899999999999409
 20
16.00000000000432
 30
0.0
 11
-11.900000012938335
 21
16.00000000000432
 31
0.0
  0
LINE
  5
139
100
AcDbEntity
  8
0
  6
CONTINUOUS
 62
               4
100
AcDbLine
 10
7.75
 20
39.999999991574441
 30
0.0
 11
10.900000000000546
 21
39.999999991574271
 31
0.0
  0
LINE
  5
13A
100
AcDbEntity
  8
0
  6
CONTINUOUS
 62
               4
100
AcDbLine
 10
-8.1000000000015007
 20
3.000000000013415
 30
0.0
 11
-8.1000000000010459
 21
11.499999991562447
 31
0.0
  0
ARC
  5
13B
100
AcDbEntity
  8
0
  6
CONTINUOUS
 62
               4
100
AcDbCircle
 10
-7.1000000000015007
 20
3.0000000000133014
 30
0.0
 40
1.0
100
AcDbArc
 50
179.99999999999653
 51
269.99999999999636
  0
LINE
  5
13C
100
AcDbEntity
  8
0
  6
CONTINUOUS
 62
               4
100
AcDbLine
 10
-11.900000000001683
 20
0.0
 30
0.0
 11
-11.900000000001569
 21
3.0000000000135287
 31
0.0
  0
LINE
  5
13D
100
AcDbEntity
  8
0
  6
CONTINUOUS
 62
               4
100
AcDbLine
 10
11.899999999998272
 20
0.0
 30
0.0
 11
11.899999999998442
 21
3.0000000000122782
 31
0.0
  0
LINE
  5
13E
100
AcDbEntity
  8
0
  6
CONTINUOUS
 62
               4
100
AcDbLine
 10
-10.900000000001683
 20
2.0000000000134719
 30
0.0
 11
10.899999999998272
 21
2.000000000012335
 31
0.0
  0
LINE
  5
13F
100
AcDbEntity
  8
0
  6
CONTINUOUS
 62
               4
100
AcDbLine
 10
-7.7000000000000455
 20
31.000000000010971
 30
0.0
 11
7.7000000000000455
 21
31.000000000010175
 31
0.0
  0
LINE
  5
140
100
AcDbEntity
  8
0
  6
CONTINUOUS
 62
               4
100
AcDbLine
 10
-10.899999999999636
 20
39.999999991575351
 30
0.0
 11
-7.75
 21
39.99999999157518
 31
0.0
  0
ARC
  5
141
100
AcDbEntity
  8
0
  6
CONTINUOUS
 62
               4
100
AcDbCircle
 10
-10.899999999999636
 20
38.999999991575351
 30
0.0
 40
1.0
100
AcDbArc
 50
90.000000000002316
 51
180.0000000000021
  0
ARC
  5
142
100
AcDbEntity
  8
0
  6
CONTINUOUS
 62
               4
100
AcDbCircle
 10
10.900000000000318
 20
38.999999991574271
 30
0.0
 40
1.0
100
AcDbArc
 50
0.000000000002519
 51
90.000000000002316
  0
ARC
  5
143
100
AcDbEntity
  8
0
  6
CONTINUOUS
 62
               4
100
AcDbCircle
 10
-10.900000000001455
 20
3.0000000000134719
 30
0.0
 40
1.0
100
AcDbArc
 50
180.0000000000021
 51
270.00000000000193
  0
ARC
  5
144
100
AcDbEntity
  8
0
  6
CONTINUOUS
 62
               4
100
AcDbCircle
 10
10.899999999998499
 20
3.000000000012335
 30
0.0
 40
1.0
100
AcDbArc
 50
270.00000000000193
 51
0.0000000000025444
  0
LINE
  5
145
100
AcDbEntity
  8
0
  6
CONTINUOUS
 62
               4
100
AcDbLine
 10
7.0999999953266979
 20
12.000000000001876
 30
0.0
 11
-7.1000000000019554
 21
12.000000000001307
 31
0.0
  0
LINE
  5
146
100
AcDbEntity
  8
0
  6
CONTINUOUS
 62
               4
100
AcDbLine
 10
-7.7000000000000455
 20
31.000000000010971
 30
0.0
 11
-7.7000000000000455
 21
33.000000000010971
 31
0.0
  0
LINE
  5
147
100
AcDbEntity
  8
0
  6
CONTINUOUS
 62
               4
100
AcDbLine
 10
-11.400000000000091
 20
33.000000000011084
 30
0.0
 11
-7.7000000000000455
 21
33.000000000010971
 31
0.0
  0
ARC
  5
148
100
AcDbEntity
  8
0
  6
CONTINUOUS
 62
               4
100
AcDbCircle
 10
-11.399999999999864
 20
32.500000000011084
 30
0.0
 40
0.5
100
AcDbArc
 50
90.000000000002316
 51
180.0000000000021
  0
LINE
  5
149
100
AcDbEntity
  8
0
  6
CONTINUOUS
 62
               4
100
AcDbLine
 10
11.400000000000091
 20
33.000000000009891
 30
0.0
 11
7.7000000000000455
 21
33.000000000010118
 31
0.0
  0
LINE
  5
14A
100
AcDbEntity
  8
0
  6
CONTINUOUS
 62
               4
100
AcDbLine
 10
7.7000000000000455
 20
31.000000000010118
 30
0.0
 11
7.7000000000000455
 21
33.000000000010118
 31
0.0
  0
LINE
  5
14B
100
AcDbEntity
  8
0
  6
CONTINUOUS
 62
               4
100
AcDbLine
 10
-10.899999998982821
 20
11.999999991562447
 30
0.0
 11
-8.5999999870618922
 21
11.999999991562447
 31
0.0
  0
ARC
  5
14C
100
AcDbEntity
  8
0
  6
CONTINUOUS
 62
               4
100
AcDbCircle
 10
-8.6000000000012733
 20
11.499999991562447
 30
0.0
 40
0.5
100
AcDbArc
 50
0.0
 51
89.999999999999815
  0
ARC
  5
14D
100
AcDbEntity
  8
0
  6
CONTINUOUS
 62
               4
100
AcDbCircle
 10
-10.900000000001
 20
12.999999991562447
 30
0.0
 40
1.0
100
AcDbArc
 50
179.99999999999963
 51
269.99999999999937
  0
ARC
  5
14E
100
AcDbEntity
  8
0
  6
CONTINUOUS
 62
               4
100
AcDbCircle
 10
7.0999999999983174
 20
3.0000000000125624
 30
0.0
 40
1.0
100
AcDbArc
 50
269.99999999999636
 51
359.99999999999608
  0
ARC
  5
14F
100
AcDbEntity
  8
0
  6
CONTINUOUS
 62
               4
100
AcDbCircle
 10
10.899999999998954
 20
12.99999999156131
 30
0.0
 40
1.0
100
AcDbArc
 50
269.99999999999318
 51
359.99999999999301
  0
ARC
  5
150
100
AcDbEntity
  8
0
  6
CONTINUOUS
 62
               4
100
AcDbCircle
 10
8.5999999999989996
 20
11.499999991561538
 30
0.0
 40
0.5
100
AcDbArc
 50
89.999999999993619
 51
179.99999999999341
  0
LINE
  5
151
100
AcDbEntity
  8
0
  6
CONTINUOUS
 62
               4
100
AcDbLine
 10
10.899999998980547
 20
11.99999999156131
 30
0.0
 11
8.5999999870596184
 21
11.999999991561538
 31
0.0
  0
LINE
  5
152
100
AcDbEntity
  8
0
  6
CONTINUOUS
 62
               4
100
AcDbLine
 10
8.0999999999983174
 20
3.0000000000125624
 30
0.0
 11
8.0999999999989996
 21
11.499999991561594
 31
0.0
  0
ARC
  5
153
100
AcDbEntity
  8
0
  6
CONTINUOUS
 62
               4
100
AcDbCircle
 10
11.400000000000091
 20
32.500000000009891
 30
0.0
 40
0.5
100
AcDbArc
 50
0.0
 51
89.999999999999815
  0
LINE
  5
154
100
AcDbEntity
  8
0
  6
DASHED
 62
             200
100
AcDbLine
 10
9.8999999999991815
 20
15.00000000000432
 30
0.0
 11
9.9000000000000909
 21
33.000000000010004
 31
0.0
  0
LINE
  5
155
100
AcDbEntity
  8
0
  6
DASHED
 62
             200
100
AcDbLine
 10
10.899999999999181
 20
15.00000000000432
 30
0.0
 11
10.900000000000091
 21
33.000000000009948
 31
0.0
  0
LINE
  5
156
100
AcDbEntity
  8
0
  6
DASHED
 62
             200
100
AcDbLine
 10
9.9000000129381078
 20
15.00000000000432
 30
0.0
 11
10.899999999999181
 21
15.00000000000432
 31
0.0
  0
LINE
  5
157
100
AcDbEntity
  8
0
  6
DASHED
 62
             200
100
AcDbLine
 10
10.899999999999181
 20
16.00000000000432
 30
0.0
 11
11.900000012938108
 21
16.00000000000432
 31
0.0
  0
LINE
  5
158
100
AcDbEntity
  8
0
  6
CONTINUOUS
 62
               4
100
AcDbLine
 10
7.75
 20
40.514702703400644
 30
0.0
 11
7.75
 21
55.000000000010573
 31
0.0
  0
LINE
  5
159
100
AcDbEntity
  8
0
  6
CONTINUOUS
 62
               4
100
AcDbLine
 10
-7.75
 20
40.514702703400701
 30
0.0
 11
-7.75
 21
55.000000000010573
 31
0.0
  0
LINE
  5
15A
100
AcDbEntity
  8
0
  6
CONTINUOUS
 62
               4
100
AcDbLine
 10
0.0
 20
58.000000000010573
 30
0.0
 11
0.9872025991885494
 21
57.430038313624379
 31
0.0
  0
LINE
  5
15B
100
AcDbEntity
  8
0
  6
CONTINUOUS
 62
               4
100
AcDbLine
 10
0.0
 20
58.000000000010573
 30
0.0
 11
-0.9872025991885494
 21
57.430038313624379
 31
0.0
  0
ARC
  5
15C
100
AcDbEntity
  8
0
  6
CONTINUOUS
 62
               4
100
AcDbCircle
 10
0.0
 20
50.500000000010573
 30
0.0
 40
7.0
100
AcDbArc
 50
45.584691402806847
 51
134.41530859719276
  0
LINE
  5
15D
100
AcDbEntity
  8
0
  6
CONTINUOUS
 62
               4
100
AcDbLine
 10
-7.25
 20
55.500000000010573
 30
0.0
 11
7.25
 21
55.500000000010573
 31
0.0
  0
ARC
  5
15E
100
AcDbEntity
  8
0
  6
CONTINUOUS
 62
               4
100
AcDbCircle
 10
-7.25
 20
55.000000000010573
 30
0.0
 40
0.5
100
AcDbArc
 50
89.999999999999815
 51
179.99999999999963
  0
ARC
  5
15F
100
AcDbEntity
  8
0
  6
CONTINUOUS
 62
               4
100
AcDbCircle
 10
7.25
 20
55.000000000010573
 30
0.0
 40
0.5
100
AcDbArc
 50
0.0
 51
89.999999999999815
  0
LINE
  5
160
100
AcDbEntity
  8
0
  6
CONTINUOUS
 62
               4
100
AcDbLine
 10
7.7495677544643513
 20
40.485303651798745
 30
0.0
 11
7.5
 21
32.000000000010573
 31
0.0
  0
LINE
  5
161
100
AcDbEntity
  8
0
  6
CONTINUOUS
 62
               4
100
AcDbLine
 10
-7.7495677544643513
 20
40.485303651798802
 30
0.0
 11
-7.5
 21
32.000000000010573
 31
0.0
  0
LINE
  5
162
100
AcDbEntity
  8
0
  6
CONTINUOUS
 62
               4
100
AcDbLine
 10
7.5
 20
32.000000000010573
 30
0.0
 11
7.5
 21
31.000000000010573
 31
0.0
  0
LINE
  5
163
100
AcDbEntity
  8
0
  6
CONTINUOUS
 62
               4
100
AcDbLine
 10
-7.5
 20
32.000000000010573
 30
0.0
 11
-7.5
 21
31.000000000010573
 31
0.0
  0
LINE
  5
164
100
AcDbEntity
  8
0
  6
CONTINUOUS
 62
               4
100
AcDbLine
 10
-7.5
 20
32.000000000010573
 30
0.0
 11
7.5
 21
32.000000000010573
 31
0.0
  0
ARC
  5
165
100
AcDbEntity
  8
0
  6
CONTINUOUS
 62
               4
100
AcDbCircle
 10
6.75
 20
40.514702703400644
 30
0.0
 40
1.0
100
AcDbArc
 50
358.31531568210374
 51
0.0
  0
ARC
  5
166
100
AcDbEntity
  8
0
  6
CONTINUOUS
 62
               4
100
AcDbCircle
 10
-6.75
 20
40.514702703400701
 30
0.0
 40
1.0
100
AcDbArc
 50
179.99999999999963
 51
181.68468431789586
  0
LINE
  5
167
100
AcDbEntity
  8
0
  6
CENTER
 62
             200
100
AcDbLine
 10
0.0
 20
-1.6194533738467385
 30
0.0
 11
0.0
 21
60.661108033251594
 31
0.0
  0
LINE
  5
168
100
AcDbEntity
  8
0
  6
CENTER
 62
             200
100
AcDbLine
 10
-10.28077562326871
 20
50.500000000010573
 30
0.0
 11
10.493518005539954
 21
50.500000000010573
 31
0.0
  0
LINE
  5
169
100
AcDbEntity
  8
0
  6
CONTINUOUS
 62
               4
100
AcDbLine
 10
11.899999999998442
 20
3.0000000000122782
 30
0.0
 11
11.900000000000318
 21
38.999999991574157
 31
0.0
  0
LINE
  5
16A
100
AcDbEntity
  8
0
  6
CONTINUOUS
 62
               4
100
AcDbLine
 10
-11.900000000001569
 20
3.0000000000135287
 30
0.0
 11
-11.899999999999636
 21
38.999999991575351
 31
0.0
  0
ENDBLK
  5
16B
100
AcDbEntity
  8
0
100
AcDbBlockEnd
  0
BLOCK
  5
16C
100
AcDbEntity
  8
0
100
AcDbBlockBegin
  2
PA24A7-4
 70
               0
 10
0.0
 20
0.0
 30
0.0
  3
PA24A7-4
  1

  0
LINE
  5
16D
100
AcDbEntity
  8
0
  6
CONTINUOUS
 62
               4
100
AcDbLine
 10
7.8999999999971351
 20
40.000000000000057
 30
0.0
 11
35.799999999997226
 21
40.000000000000313
 31
0.0
  0
LINE
  5
16E
100
AcDbEntity
  8
0
  6
CONTINUOUS
 62
               4
100
AcDbLine
 10
36.999999995466169
 20
26.60000000000025
 30
0.0
 11
36.999999995466169
 21
33.399999995469557
 31
0.0
  0
LINE
  5
16F
100
AcDbEntity
  8
0
  6
CONTINUOUS
 62
               4
100
AcDbLine
 10
35.800000000000679
 20
0.0000000000003411
 30
0.0
 11
35.799999999997567
 21
35.000000000002274
 31
0.0
  0
LINE
  5
170
100
AcDbEntity
  8
0
  6
CONTINUOUS
 62
               4
100
AcDbLine
 10
0.0
 20
0.0
 30
0.0
 11
35.800000000000679
 21
0.0000000000003411
 31
0.0
  0
LINE
  5
171
100
AcDbEntity
  8
0
  6
CONTINUOUS
 62
               4
100
AcDbLine
 10
36.89999999546626
 20
38.100000000002325
 30
0.0
 11
35.799999999996999
 21
38.100000000002268
 31
0.0
  0
LINE
  5
172
100
AcDbEntity
  8
0
  6
CONTINUOUS
 62
               4
100
AcDbLine
 10
36.899999995466374
 20
34.900000000002365
 30
0.0
 11
35.799999999997567
 21
34.900000000002251
 31
0.0
  0
LINE
  5
173
100
AcDbEntity
  8
0
  6
CONTINUOUS
 62
               4
100
AcDbLine
 10
35.799999999997226
 20
40.000000000000313
 30
0.0
 11
36.399999999997249
 21
40.000000000000369
 31
0.0
  0
ARC
  5
174
100
AcDbEntity
  8
0
  6
CONTINUOUS
 62
               4
100
AcDbCircle
 10
36.399999999997249
 20
39.500000000000369
 30
0.0
 40
0.5
100
AcDbArc
 50
0.0000000000006361
 51
90.000000000000441
  0
LINE
  5
175
100
AcDbEntity
  8
0
  6
CONTINUOUS
 62
               4
100
AcDbLine
 10
36.899999990935385
 20
33.500000000000341
 30
0.0
 11
36.999999995466169
 21
33.399999995469557
 31
0.0
  0
LINE
  5
176
100
AcDbEntity
  8
0
  6
CONTINUOUS
 62
               4
100
AcDbLine
 10
36.999999995466283
 20
26.600000000000364
 30
0.0
 11
36.89999999546626
 21
26.500000000000341
 31
0.0
  0
ARC
  5
177
100
AcDbEntity
  8
0
  6
CONTINUOUS
 62
               4
100
AcDbCircle
 10
36.399999999997362
 20
35.500000000002387
 30
0.0
 40
0.5
100
AcDbArc
 50
270.00000000000125
 51
0.000000000001832
  0
ARC
  5
178
100
AcDbEntity
  8
0
  6
CONTINUOUS
 62
               4
100
AcDbCircle
 10
36.399999999997362
 20
37.500000000002359
 30
0.0
 40
0.5
100
AcDbArc
 50
0.0000000000018066
 51
90.000000000001606
  0
LINE
  5
179
100
AcDbEntity
  8
0
  6
CONTINUOUS
 62
               4
100
AcDbLine
 10
35.79999999999734
 20
37.999999985762969
 30
0.0
 11
35.799999999997226
 21
39.999999985762912
 31
0.0
  0
LINE
  5
17A
100
AcDbEntity
  8
0
  6
CONTINUOUS
 62
               4
100
AcDbLine
 10
35.79999999999734
 20
38.000000000002302
 30
0.0
 11
36.399999999997249
 21
38.000000000002359
 31
0.0
  0
LINE
  5
17B
100
AcDbEntity
  8
0
  6
CONTINUOUS
 62
               4
100
AcDbLine
 10
35.799999999997453
 20
35.000000000002274
 30
0.0
 11
36.39999999999759
 21
35.000000000002387
 31
0.0
  0
LINE
  5
17C
100
AcDbEntity
  8
0
  6
CONTINUOUS
 62
               4
100
AcDbLine
 10
4.899999999996453
 20
40.000000000000028
 30
0.0
 11
7.8999999999971351
 21
40.000000000000057
 31
0.0
  0
LINE
  5
17D
100
AcDbEntity
  8
0
  6
CONTINUOUS
 62
               4
100
AcDbLine
 10
2.0000000000007958
 20
8.1160795923631213
 30
0.0
 11
2.0000000000007958
 21
8.2000000093930794
 31
0.0
  0
ARC
  5
17E
100
AcDbEntity
  8
0
  6
CONTINUOUS
 62
               4
100
AcDbCircle
 10
-4.9124889263644036
 20
11.499999999999204
 30
0.0
 40
0.5
100
AcDbArc
 50
89.999999999999815
 51
194.99999999999952
  0
ARC
  5
17F
100
AcDbEntity
  8
0
  6
CONTINUOUS
 62
               4
100
AcDbCircle
 10
6.9000000000123691
 20
13.299999999999727
 30
0.0
 40
1.0
100
AcDbArc
 50
197.45760312372443
 51
0.0000000000081422
  0
ARC
  5
180
100
AcDbEntity
  8
0
  6
CONTINUOUS
 62
               4
100
AcDbCircle
 10
-3.7785677023342714
 20
9.2000000093955805
 30
0.0
 40
1.0
100
AcDbArc
 50
194.99999981259796
 51
269.99999999999937
  0
ARC
  5
181
100
AcDbEntity
  8
0
  6
CONTINUOUS
 62
               4
100
AcDbCircle
 10
7.4000000000120281
 20
13.499999999999773
 30
0.0
 40
0.5
100
AcDbArc
 50
270.00000000000193
 51
0.0000000000025444
  0
LINE
  5
182
100
AcDbEntity
  8
0
  6
CONTINUOUS
 62
               4
100
AcDbLine
 10
-3.7785677023334756
 20
8.2000000093929657
 30
0.0
 11
7.1000000000033197
 21
8.2000000093931931
 31
0.0
  0
LINE
  5
183
100
AcDbEntity
  8
0
  6
CONTINUOUS
 62
               4
100
AcDbLine
 10
-4.9124889263644036
 20
11.999999999999204
 30
0.0
 11
7.1000000000026375
 21
11.999999999999659
 31
0.0
  0
LINE
  5
184
100
AcDbEntity
  8
0
  6
CONTINUOUS
 62
               4
100
AcDbLine
 10
0.500000000001819
 20
11.999999999999432
 30
0.0
 11
0.500000000001819
 21
12.999999999999432
 31
0.0
  0
LINE
  5
185
100
AcDbEntity
  8
0
  6
CONTINUOUS
 62
               4
100
AcDbLine
 10
1.500000000001819
 20
11.999999999999432
 30
0.0
 11
1.500000000001819
 21
12.999999999999432
 31
0.0
  0
LINE
  5
186
100
AcDbEntity
  8
0
  6
CONTINUOUS
 62
               4
100
AcDbLine
 10
7.6000000000033197
 20
8.7000000093933068
 30
0.0
 11
7.6000000000026375
 21
11.499999999999773
 31
0.0
  0
ARC
  5
187
100
AcDbEntity
  8
0
  6
CONTINUOUS
 62
               4
100
AcDbCircle
 10
7.1000000000026375
 20
11.499999999999659
 30
0.0
 40
0.5
100
AcDbArc
 50
0.000000000002519
 51
90.000000000002316
  0
ARC
  5
188
100
AcDbEntity
  8
0
  6
CONTINUOUS
 62
               4
100
AcDbCircle
 10
7.1000000000033197
 20
8.7000000093931931
 30
0.0
 40
0.5
100
AcDbArc
 50
270.00000000000267
 51
0.0000000000025444
  0
LINE
  5
189
100
AcDbEntity
  8
0
  6
CONTINUOUS
 62
               4
100
AcDbLine
 10
-0.0000000000002984
 20
0.0
 30
0.0
 11
0.0000000000002274
 21
5.299999999999045
 31
0.0
  0
LINE
  5
18A
100
AcDbEntity
  8
0
  6
CONTINUOUS
 62
               4
100
AcDbLine
 10
5.0
 20
8.2000000093935341
 30
0.0
 11
5.0
 21
8.0
 31
0.0
  0
LINE
  5
18B
100
AcDbEntity
  8
0
  6
CONTINUOUS
 62
               4
100
AcDbLine
 10
0.7500000000001137
 20
6.4999999999989768
 30
0.0
 11
5.2500000000001137
 21
6.4999999999986358
 31
0.0
  0
LINE
  5
18C
100
AcDbEntity
  8
0
  6
CONTINUOUS
 62
               4
100
AcDbLine
 10
3.100000000007185
 20
11.999999999999886
 30
0.0
 11
3.6535533905939701
 21
12.553553390586671
 31
0.0
  0
LINE
  5
18D
100
AcDbEntity
  8
0
  6
CONTINUOUS
 62
               4
100
AcDbLine
 10
5.8000000000001819
 20
12.199999991713753
 30
0.0
 11
5.8000000000001819
 21
12.699999999993679
 31
0.0
  0
LINE
  5
18E
100
AcDbEntity
  8
0
  6
CONTINUOUS
 62
               4
100
AcDbLine
 10
4.0071067811870762
 20
12.699999999993338
 30
0.0
 11
5.8000000000001819
 21
12.699999999993679
 31
0.0
  0
LINE
  5
18F
100
AcDbEntity
  8
0
  6
CONTINUOUS
 62
               4
100
AcDbLine
 10
5.8000000000001819
 20
12.199999999993679
 30
0.0
 11
7.9000000000002046
 21
12.199999999993906
 31
0.0
  0
LINE
  5
190
100
AcDbEntity
  8
0
  6
CONTINUOUS
 62
               4
100
AcDbLine
 10
0.7500000000002274
 20
7.193745613096894
 30
0.0
 11
0.7500000000001137
 21
5.7999999999988177
 31
0.0
  0
LINE
  5
191
100
AcDbEntity
  8
0
  6
CONTINUOUS
 62
               4
100
AcDbLine
 10
5.2500000000002274
 20
7.1937456130965529
 30
0.0
 11
5.2500000000001137
 21
5.7999999999983629
 31
0.0
  0
ARC
  5
192
100
AcDbEntity
  8
0
  6
CONTINUOUS
 62
               4
100
AcDbCircle
 10
2.9999999999997726
 20
2.1999998092637725
 30
0.0
 40
6.0
100
AcDbArc
 50
73.80871737482147
 51
106.19135456952553
  0
ARC
  5
193
100
AcDbEntity
  8
0
  6
CONTINUOUS
 62
               4
100
AcDbCircle
 10
1.5500001907350907
 20
7.193745613096894
 30
0.0
 40
0.800000011920929
100
AcDbArc
 50
106.19135456952553
 51
180.00001798608395
  0
ARC
  5
194
100
AcDbEntity
  8
0
  6
CONTINUOUS
 62
               4
100
AcDbCircle
 10
4.4499998092653641
 20
7.1937456130966666
 30
0.0
 40
0.800000011920929
100
AcDbArc
 50
359.99998201390565
 51
73.808645430464111
  0
LINE
  5
195
100
AcDbEntity
  8
0
  6
CONTINUOUS
 62
               4
100
AcDbLine
 10
0.5000000000002274
 20
5.799999999999045
 30
0.0
 11
5.8000000000001819
 21
5.7999999999985903
 31
0.0
  0
ARC
  5
196
100
AcDbEntity
  8
0
  6
CONTINUOUS
 62
               4
100
AcDbCircle
 10
4.007106781187872
 20
12.199999999992542
 30
0.0
 40
0.5
100
AcDbArc
 50
89.999999999994813
 51
134.9999999999944
  0
LINE
  5
197
100
AcDbEntity
  8
0
  6
CONTINUOUS
 62
               4
100
AcDbLine
 10
5.0000000000004547
 20
12.699999999992656
 30
0.0
 11
5.0000000000004547
 21
12.0
 31
0.0
  0
ARC
  5
198
100
AcDbEntity
  8
0
  6
CONTINUOUS
 62
               4
100
AcDbCircle
 10
0.5000000000002274
 20
5.299999999999045
 30
0.0
 40
0.5
100
AcDbArc
 50
89.999999999999815
 51
179.99999999999963
  0
LINE
  5
199
100
AcDbEntity
  8
0
  6
CONTINUOUS
 62
               4
100
AcDbLine
 10
5.8000000000001819
 20
5.7999999999985903
 30
0.0
 11
5.8000000000002956
 21
7.4999999999994316
 31
0.0
  0
ARC
  5
19A
100
AcDbEntity
  8
0
  6
CONTINUOUS
 62
               4
100
AcDbCircle
 10
6.3000000000002956
 20
7.4999999999994316
 30
0.0
 40
0.5
100
AcDbArc
 50
89.999999999999815
 51
179.99999999999963
  0
LINE
  5
19B
100
AcDbEntity
  8
0
  6
CONTINUOUS
 62
               4
100
AcDbLine
 10
4.5362284294549227
 20
7.9999999999994316
 30
0.0
 11
7.9000000000016826
 21
7.9999999999994316
 31
0.0
  0
LINE
  5
19C
100
AcDbEntity
  8
0
  6
CONTINUOUS
 62
               4
100
AcDbLine
 10
-4.7444935236397896
 20
8.9411809690149084
 30
0.0
 11
-6.0829629131465026
 21
13.936416735029638
 31
0.0
  0
LINE
  5
19D
100
AcDbEntity
  8
0
  6
CONTINUOUS
 62
               4
100
AcDbLine
 10
-5.8320508052163404
 20
12.999999999999432
 30
0.0
 11
7.4000000000121418
 21
13.000000000000114
 31
0.0
  0
LINE
  5
19E
100
AcDbEntity
  8
0
  6
CONTINUOUS
 62
               4
100
AcDbLine
 10
7.9000000000014552
 20
8.0000000000001137
 30
0.0
 11
7.8999999999971351
 21
40.000000000000085
 31
0.0
  0
LINE
  5
19F
100
AcDbEntity
  8
0
  6
CONTINUOUS
 62
               4
100
AcDbLine
 10
36.899999995467368
 20
0.0000000000003411
 30
0.0
 11
36.899999995466146
 21
39.500000000000369
 31
0.0
  0
ARC
  5
1A0
100
AcDbEntity
  8
0
  6
CONTINUOUS
 62
               4
100
AcDbCircle
 10
-5.6000000000019554
 20
14.065826257580625
 30
0.0
 40
0.5
100
AcDbArc
 50
179.99999999999963
 51
194.99999999999918
  0
LINE
  5
1A1
100
AcDbEntity
  8
0
  6
CONTINUOUS
 62
               4
100
AcDbLine
 10
-6.1000000045211209
 20
14.131652503172177
 30
0.0
 11
-6.1000000045211209
 21
35.999999988357217
 31
0.0
  0
ARC
  5
1A2
100
AcDbEntity
  8
0
  6
CONTINUOUS
 62
               4
100
AcDbCircle
 10
-5.1000000045211209
 20
36.000000000000114
 30
0.0
 40
1.0
100
AcDbArc
 50
89.999999999999815
 51
179.99999999999963
  0
ARC
  5
1A3
100
AcDbEntity
  8
0
  6
CONTINUOUS
 62
               4
100
AcDbCircle
 10
4.8999999954783107
 20
39.000000000000114
 30
0.0
 40
1.0
100
AcDbArc
 50
89.999999999999815
 51
179.99999999999963
  0
LINE
  5
1A4
100
AcDbEntity
  8
0
  6
CONTINUOUS
 62
               4
100
AcDbLine
 10
3.8999999954783107
 20
39.000000000000114
 30
0.0
 11
3.8999999954783107
 21
37.500000000000114
 31
0.0
  0
ARC
  5
1A5
100
AcDbEntity
  8
0
  6
CONTINUOUS
 62
               4
100
AcDbCircle
 10
3.3999999954783107
 20
37.500000000000114
 30
0.0
 40
0.5
100
AcDbArc
 50
269.99999999999937
 51
0.0
  0
ARC
  5
1A6
100
AcDbEntity
  8
0
  6
CONTINUOUS
 62
               4
100
AcDbCircle
 10
-5.1000000045333991
 20
14.131652503172177
 30
0.0
 40
1.0
100
AcDbArc
 50
179.99999999999963
 51
194.99999999999955
  0
LINE
  5
1A7
100
AcDbEntity
  8
0
  6
CONTINUOUS
 62
               4
100
AcDbLine
 10
-5.1000000288912588
 20
36.999999991088657
 30
0.0
 11
3.3999999954783107
 21
36.999999991088657
 31
0.0
  0
LINE
  5
1A8
100
AcDbEntity
  8
0
  6
CENTER
 62
             200
100
AcDbLine
 10
-5.047795449498949
 20
18.999999999999886
 30
0.0
 11
-33.899546258889899
 21
19.000000000001016
 31
0.0
  0
ARC
  5
1A9
100
AcDbEntity
  8
0
  6
CONTINUOUS
 62
               4
100
AcDbCircle
 10
-6.6000000045211316
 20
15.099999999999874
 30
0.0
 40
0.5
100
AcDbArc
 50
0.0
 51
89.999999999999815
  0
ARC
  5
1AA
100
AcDbEntity
  8
0
  6
CONTINUOUS
 62
               4
100
AcDbCircle
 10
-6.6000000045211316
 20
22.899999999999871
 30
0.0
 40
0.5
100
AcDbArc
 50
269.99999999999937
 51
0.0
  0
LINE
  5
1AB
100
AcDbEntity
  8
0
  6
CENTER
 62
             200
100
AcDbLine
 10
-13.709090663925522
 20
18.644998419066688
 30
0.0
 11
-32.924301241640265
 21
23.793698575759343
 31
0.0
  0
LINE
  5
1AC
100
AcDbEntity
  8
0
  6
CONTINUOUS
 62
               4
100
AcDbLine
 10
-25.528627679847105
 20
22.070852862495229
 30
0.0
 11
-32.290108463870538
 21
23.882586178212847
 31
0.0
  0
LINE
  5
1AD
100
AcDbEntity
  8
0
  6
CONTINUOUS
 62
               4
100
AcDbLine
 10
-25.658037202398319
 20
21.587889949350682
 30
0.0
 11
-32.41951798642198
 21
23.3996232650683
 31
0.0
  0
LINE
  5
1AE
100
AcDbEntity
  8
0
  6
CONTINUOUS
 62
               4
100
AcDbLine
 10
-25.399218157295891
 20
15.446184224360735
 30
0.0
 11
-25.78744672494976
 21
16.895072963794377
 31
0.0
  0
LINE
  5
1AF
100
AcDbEntity
  8
0
  6
CONTINUOUS
 62
               4
100
AcDbLine
 10
-25.78744672494976
 20
21.104927036206135
 30
0.0
 11
-25.399218157295891
 21
22.55381577563972
 31
0.0
  0
LINE
  5
1B0
100
AcDbEntity
  8
0
  6
CONTINUOUS
 62
               4
100
AcDbLine
 10
-26.100000004521135
 20
18.250000000000256
 30
0.0
 11
-26.100000004521135
 21
19.750000000000256
 31
0.0
  0
LINE
  5
1B1
100
AcDbEntity
  8
0
  6
CONTINUOUS
 62
               4
100
AcDbLine
 10
-17.100000004521135
 20
19.750000000000256
 30
0.0
 11
-26.100000004521135
 21
19.750000000000256
 31
0.0
  0
LINE
  5
1B2
100
AcDbEntity
  8
0
  6
CONTINUOUS
 62
               4
100
AcDbLine
 10
-17.100000004521135
 20
18.250000000000256
 30
0.0
 11
-26.100000004521135
 21
18.250000000000256
 31
0.0
  0
LINE
  5
1B3
100
AcDbEntity
  8
0
  6
CONTINUOUS
 62
               4
100
AcDbLine
 10
-26.100000004521135
 20
19.250000000000256
 30
0.0
 11
-33.100000004521135
 21
19.250000000000256
 31
0.0
  0
LINE
  5
1B4
100
AcDbEntity
  8
0
  6
CONTINUOUS
 62
               4
100
AcDbLine
 10
-26.100000004521135
 20
18.750000000000256
 30
0.0
 11
-33.100000004521135
 21
18.750000000000256
 31
0.0
  0
LINE
  5
1B5
100
AcDbEntity
  8
0
  6
CONTINUOUS
 62
               4
100
AcDbLine
 10
-17.100000004521135
 20
20.330046973794055
 30
0.0
 11
-25.399218157295891
 21
22.55381577563972
 31
0.0
  0
LINE
  5
1B6
100
AcDbEntity
  8
0
  6
CONTINUOUS
 62
               4
100
AcDbLine
 10
-20.73079018528064
 20
19.750000000000256
 30
0.0
 11
-25.78744672494976
 21
21.104927036206135
 31
0.0
  0
LINE
  5
1B7
100
AcDbEntity
  8
0
  6
CONTINUOUS
 62
               4
100
AcDbLine
 10
-20.73079018528064
 20
18.250000000000256
 30
0.0
 11
-25.78744672494976
 21
16.895072963794377
 31
0.0
  0
LINE
  5
1B8
100
AcDbEntity
  8
0
  6
CONTINUOUS
 62
               4
100
AcDbLine
 10
-17.100000004521135
 20
17.669953026206457
 30
0.0
 11
-25.399218157295891
 21
15.446184224360735
 31
0.0
  0
LINE
  5
1B9
100
AcDbEntity
  8
0
  6
CONTINUOUS
 62
               4
100
AcDbLine
 10
-25.528627679847105
 20
15.929147137505282
 30
0.0
 11
-32.290108463870538
 21
14.117413821787608
 31
0.0
  0
LINE
  5
1BA
100
AcDbEntity
  8
0
  6
CONTINUOUS
 62
               4
100
AcDbLine
 10
-25.658037202398319
 20
16.412110050649829
 30
0.0
 11
-32.419517986421752
 21
14.600376734932155
 31
0.0
  0
LINE
  5
1BB
100
AcDbEntity
  8
0
  6
CONTINUOUS
 62
               4
100
AcDbLine
 10
-33.100000004521135
 20
19.250000000000256
 30
0.0
 11
-33.100000004521135
 21
18.750000000000256
 31
0.0
  0
LINE
  5
1BC
100
AcDbEntity
  8
0
  6
CONTINUOUS
 62
               4
100
AcDbLine
 10
-32.419517986421752
 20
14.600376734932155
 30
0.0
 11
-32.290108463870538
 21
14.117413821787608
 31
0.0
  0
LINE
  5
1BD
100
AcDbEntity
  8
0
  6
CENTER
 62
             200
100
AcDbLine
 10
-13.709090663925522
 20
19.355001580933468
 30
0.0
 11
-32.92430124164072
 21
14.206301424242326
 31
0.0
  0
LINE
  5
1BE
100
AcDbEntity
  8
0
  6
CONTINUOUS
 62
             200
100
AcDbLine
 10
-12.150872613388984
 20
16.150000000000084
 30
0.0
 11
-13.010872613388884
 21
21.850000000000129
 31
0.0
  0
LINE
  5
1BF
100
AcDbEntity
  8
0
  6
CONTINUOUS
 62
               4
100
AcDbLine
 10
-17.100000004521135
 20
21.000000000000412
 30
0.0
 11
-13.912626999354032
 21
21.000000000000291
 31
0.0
  0
LINE
  5
1C0
100
AcDbEntity
  8
0
  6
CONTINUOUS
 62
               4
100
AcDbLine
 10
-17.100000004521135
 20
17.000000000000412
 30
0.0
 11
-13.309118227424293
 21
17.000000000000263
 31
0.0
  0
LINE
  5
1C1
100
AcDbEntity
  8
0
  6
CONTINUOUS
 62
             200
100
AcDbLine
 10
-13.180872613389184
 20
16.150000000000084
 30
0.0
 11
-14.040872613389084
 21
21.850000000000129
 31
0.0
  0
LINE
  5
1C2
100
AcDbEntity
  8
0
  6
CONTINUOUS
 62
               4
100
AcDbLine
 10
-6.6000000045211031
 20
15.599999999999874
 30
0.0
 11
-8.60000000452116
 21
15.599999999999959
 31
0.0
  0
LINE
  5
1C3
100
AcDbEntity
  8
0
  6
CONTINUOUS
 62
               4
100
AcDbLine
 10
-6.60000000452116
 20
22.399999999999871
 30
0.0
 11
-8.6000000045211031
 21
22.399999999999956
 31
0.0
  0
LINE
  5
1C4
100
AcDbEntity
  8
0
  6
CONTINUOUS
 62
               4
100
AcDbLine
 10
-9.1000000045211316
 20
16.099999999999959
 30
0.0
 11
-9.1000000045211316
 21
21.899999999999956
 31
0.0
  0
ARC
  5
1C5
100
AcDbEntity
  8
0
  6
CONTINUOUS
 62
               4
100
AcDbCircle
 10
-8.6000000045211316
 20
21.899999999999956
 30
0.0
 40
0.5
100
AcDbArc
 50
89.999999999999815
 51
179.99999999999963
  0
ARC
  5
1C6
100
AcDbEntity
  8
0
  6
CONTINUOUS
 62
               4
100
AcDbCircle
 10
-8.6000000045211316
 20
16.099999999999959
 30
0.0
 40
0.5
100
AcDbArc
 50
179.99999999999963
 51
269.99999999999937
  0
LINE
  5
1C7
100
AcDbEntity
  8
0
  6
CONTINUOUS
 62
               4
100
AcDbLine
 10
-17.100000004521135
 20
17.000000000000412
 30
0.0
 11
-17.100000004521135
 21
21.000000000000412
 31
0.0
  0
LINE
  5
1C8
100
AcDbEntity
  8
0
  6
CONTINUOUS
 62
               4
100
AcDbLine
 10
-12.882626999353832
 20
21.000000000000249
 30
0.0
 11
-9.1000000045211316
 21
21.000000000000107
 31
0.0
  0
LINE
  5
1C9
100
AcDbEntity
  8
0
  6
CONTINUOUS
 62
               4
100
AcDbLine
 10
-12.279118227424064
 20
17.000000000000227
 30
0.0
 11
-9.1000000045211316
 21
17.000000000000107
 31
0.0
  0
LINE
  5
1CA
100
AcDbEntity
  8
0
  6
CONTINUOUS
 62
               4
100
AcDbLine
 10
-32.290108463870538
 20
23.882586178212847
 30
0.0
 11
-32.41951798642198
 21
23.3996232650683
 31
0.0
  0
ENDBLK
  5
1CB
100
AcDbEntity
  8
0
100
AcDbBlockEnd
  0
BLOCK
  5
1CC
100
AcDbEntity
  8
0
100
AcDbBlockBegin
  2
PA24A7-5
 70
               0
 10
0.0
 20
0.0
 30
0.0
  3
PA24A7-5
  1

  0
LINE
  5
1CD
100
AcDbEntity
  8
0
  6
CONTINUOUS
 62
             200
100
AcDbLine
 10
2.4583172050163284
 20
42.230920339889906
 30
0.0
 11
4.6483019023163479
 21
42.819478727289265
 31
0.0
  0
LINE
  5
1CE
100
AcDbEntity
  8
0
  6
CONTINUOUS
 62
             200
100
AcDbLine
 10
2.5134544788568292
 20
41.615738482234576
 30
0.0
 11
4.688967170319529
 21
42.200407518065106
 31
0.0
  0
LINE
  5
1CF
100
AcDbEntity
  8
0
  6
CONTINUOUS
 62
               4
100
AcDbLine
 10
3.7500000000006821
 20
47.500872591041912
 30
0.0
 11
3.2500000000006821
 21
47.500872591041912
 31
0.0
  0
LINE
  5
1D0
100
AcDbEntity
  8
0
  6
CONTINUOUS
 62
               4
100
AcDbLine
 10
4.2500000000005684
 20
42.712435091041925
 30
0.0
 11
4.2500000000005684
 21
44.000872591041912
 31
0.0
  0
LINE
  5
1D1
100
AcDbEntity
  8
0
  6
CONTINUOUS
 62
               4
100
AcDbLine
 10
2.7500000000005684
 20
42.340872591041943
 30
0.0
 11
2.7500000000005684
 21
44.000872591041912
 31
0.0
  0
LINE
  5
1D2
100
AcDbEntity
  8
0
  6
CONTINUOUS
 62
               4
100
AcDbLine
 10
4.2500000000005684
 20
44.000872591041912
 30
0.0
 11
2.7500000000005684
 21
44.000872591041912
 31
0.0
  0
LINE
  5
1D3
100
AcDbEntity
  8
0
  6
CONTINUOUS
 62
               4
100
AcDbLine
 10
3.7500000000005684
 20
44.000872591041912
 30
0.0
 11
3.7500000000006821
 21
47.500872591041912
 31
0.0
  0
LINE
  5
1D4
100
AcDbEntity
  8
0
  6
CONTINUOUS
 62
               4
100
AcDbLine
 10
3.2500000000005684
 20
44.000872591041912
 30
0.0
 11
3.2500000000006821
 21
47.500872591041912
 31
0.0
  0
LINE
  5
1D5
100
AcDbEntity
  8
0
  6
CONTINUOUS
 62
             200
100
AcDbLine
 10
-4.5416827949836716
 20
42.230920339889963
 30
0.0
 11
-2.3516980976836521
 21
42.819478727289265
 31
0.0
  0
LINE
  5
1D6
100
AcDbEntity
  8
0
  6
CONTINUOUS
 62
             200
100
AcDbLine
 10
-4.4865455211431708
 20
41.615738482234633
 30
0.0
 11
-2.311032829680471
 21
42.200407518065163
 31
0.0
  0
LINE
  5
1D7
100
AcDbEntity
  8
0
  6
CONTINUOUS
 62
               4
100
AcDbLine
 10
-3.2499999999993179
 20
47.500872591041912
 30
0.0
 11
-3.7499999999993179
 21
47.500872591041912
 31
0.0
  0
LINE
  5
1D8
100
AcDbEntity
  8
0
  6
CONTINUOUS
 62
               4
100
AcDbLine
 10
-2.7499999999994316
 20
42.712435091041925
 30
0.0
 11
-2.7499999999994316
 21
44.000872591041912
 31
0.0
  0
LINE
  5
1D9
100
AcDbEntity
  8
0
  6
CONTINUOUS
 62
               4
100
AcDbLine
 10
-4.2499999999994316
 20
42.340872591041943
 30
0.0
 11
-4.2499999999994316
 21
44.000872591041912
 31
0.0
  0
LINE
  5
1DA
100
AcDbEntity
  8
0
  6
CONTINUOUS
 62
               4
100
AcDbLine
 10
-2.7499999999994316
 20
44.000872591041912
 30
0.0
 11
-4.2499999999994316
 21
44.000872591041912
 31
0.0
  0
LINE
  5
1DB
100
AcDbEntity
  8
0
  6
CONTINUOUS
 62
               4
100
AcDbLine
 10
-3.2499999999994316
 20
44.000872591041912
 30
0.0
 11
-3.2499999999993179
 21
47.500872591041912
 31
0.0
  0
LINE
  5
1DC
100
AcDbEntity
  8
0
  6
CONTINUOUS
 62
               4
100
AcDbLine
 10
-3.7499999999994316
 20
44.000872591041912
 30
0.0
 11
-3.7499999999993179
 21
47.500872591041912
 31
0.0
  0
LINE
  5
1DD
100
AcDbEntity
  8
0
  6
CONTINUOUS
 62
               4
100
AcDbLine
 10
2.7500000000005684
 20
39.999999999998636
 30
0.0
 11
2.7500000000005684
 21
41.679310091041884
 31
0.0
  0
LINE
  5
1DE
100
AcDbEntity
  8
0
  6
CONTINUOUS
 62
               4
100
AcDbLine
 10
4.2500000000005684
 20
39.999999999998636
 30
0.0
 11
4.2500000000005684
 21
42.08243509104193
 31
0.0
  0
LINE
  5
1DF
100
AcDbEntity
  8
0
  6
CONTINUOUS
 62
               4
100
AcDbLine
 10
-4.2499999999994316
 20
39.999999999998636
 30
0.0
 11
-4.2499999999994316
 21
41.679310091041941
 31
0.0
  0
LINE
  5
1E0
100
AcDbEntity
  8
0
  6
CONTINUOUS
 62
               4
100
AcDbLine
 10
-2.7499999999994316
 20
39.999999999998636
 30
0.0
 11
-2.7499999999994316
 21
42.082435091041987
 31
0.0
  0
LINE
  5
1E1
100
AcDbEntity
  8
0
  6
CONTINUOUS
 62
               4
100
AcDbLine
 10
-3.9999999999998863
 20
7.8999999999998636
 30
0.0
 11
-8.7999999999999545
 21
7.8999999999998636
 31
0.0
  0
LINE
  5
1E2
100
AcDbEntity
  8
0
  6
CONTINUOUS
 62
               4
100
AcDbLine
 10
-2.0999999999997954
 20
26.599999999998658
 30
0.0
 11
-7.8999999999997499
 21
26.599999999998772
 31
0.0
  0
LINE
  5
1E3
100
AcDbEntity
  8
0
  6
CONTINUOUS
 62
               4
100
AcDbLine
 10
-2.0999999999996817
 20
33.399999999998613
 30
0.0
 11
-2.0999999999997954
 21
26.599999999998658
 31
0.0
  0
LINE
  5
1E4
100
AcDbEntity
  8
0
  6
CONTINUOUS
 62
               4
100
AcDbLine
 10
-7.8999999999996362
 20
33.399999999998727
 30
0.0
 11
-7.8999999999997499
 21
26.599999999998772
 31
0.0
  0
LINE
  5
1E5
100
AcDbEntity
  8
0
  6
CONTINUOUS
 62
               4
100
AcDbLine
 10
-2.0999999999996817
 20
33.399999999998613
 30
0.0
 11
-7.8999999999996362
 21
33.399999999998727
 31
0.0
  0
LINE
  5
1E6
100
AcDbEntity
  8
0
  6
CONTINUOUS
 62
               4
100
AcDbLine
 10
2.1000000000003638
 20
26.599999999998658
 30
0.0
 11
7.900000000000432
 21
26.599999999998545
 31
0.0
  0
LINE
  5
1E7
100
AcDbEntity
  8
0
  6
CONTINUOUS
 62
               4
100
AcDbLine
 10
2.1000000000004775
 20
33.399999999998613
 30
0.0
 11
2.1000000000003638
 21
26.599999999998658
 31
0.0
  0
LINE
  5
1E8
100
AcDbEntity
  8
0
  6
CONTINUOUS
 62
               4
100
AcDbLine
 10
7.900000000000432
 20
33.399999999998499
 30
0.0
 11
7.900000000000432
 21
26.599999999998545
 31
0.0
  0
LINE
  5
1E9
100
AcDbEntity
  8
0
  6
CONTINUOUS
 62
               4
100
AcDbLine
 10
2.1000000000004775
 20
33.399999999998613
 30
0.0
 11
7.900000000000432
 21
33.399999999998499
 31
0.0
  0
LINE
  5
1EA
100
AcDbEntity
  8
0
  6
CONTINUOUS
 62
               4
100
AcDbLine
 10
-7.9999999999996589
 20
33.499999999998749
 30
0.0
 11
-7.9999999999997726
 21
26.499999999998749
 31
0.0
  0
LINE
  5
1EB
100
AcDbEntity
  8
0
  6
CONTINUOUS
 62
               4
100
AcDbLine
 10
-1.9999999999996589
 20
33.499999999998636
 30
0.0
 11
-1.9999999999997726
 21
26.499999999998636
 31
0.0
  0
LINE
  5
1EC
100
AcDbEntity
  8
0
  6
CONTINUOUS
 62
               4
100
AcDbLine
 10
-1.9999999999997726
 20
26.499999999998636
 30
0.0
 11
-7.9999999999997726
 21
26.499999999998749
 31
0.0
  0
LINE
  5
1ED
100
AcDbEntity
  8
0
  6
CONTINUOUS
 62
               4
100
AcDbLine
 10
-1.9999999999996589
 20
33.499999999998636
 30
0.0
 11
-7.9999999999996589
 21
33.499999999998749
 31
0.0
  0
LINE
  5
1EE
100
AcDbEntity
  8
0
  6
CONTINUOUS
 62
               4
100
AcDbLine
 10
2.0000000000003411
 20
26.499999999998636
 30
0.0
 11
8.0000000000003411
 21
26.499999999998522
 31
0.0
  0
LINE
  5
1EF
100
AcDbEntity
  8
0
  6
CONTINUOUS
 62
               4
100
AcDbLine
 10
2.0000000000004547
 20
33.499999999998636
 30
0.0
 11
8.0000000000004547
 21
33.499999999998522
 31
0.0
  0
LINE
  5
1F0
100
AcDbEntity
  8
0
  6
CONTINUOUS
 62
               4
100
AcDbLine
 10
7.9000000000002046
 20
18.299999994247401
 30
0.0
 11
7.9000000000002046
 21
18.700207536078665
 31
0.0
  0
ARC
  5
1F1
100
AcDbEntity
  8
0
  6
CONTINUOUS
 62
               4
100
AcDbCircle
 10
7.6000000000001364
 20
18.299999994247401
 30
0.0
 40
0.3
100
AcDbArc
 50
269.9999999999979
 51
359.99999999999767
  0
LINE
  5
1F2
100
AcDbEntity
  8
0
  6
CONTINUOUS
 62
               4
100
AcDbLine
 10
7.9000000000002046
 20
18.700207536078665
 30
0.0
 11
9.2999999874519972
 21
18.700207536078665
 31
0.0
  0
ARC
  5
1F3
100
AcDbEntity
  8
0
  6
CONTINUOUS
 62
               4
100
AcDbCircle
 10
-7.5999999999997954
 20
18.299999994247628
 30
0.0
 40
0.3
100
AcDbArc
 50
179.99999999999963
 51
269.99999999999937
  0
LINE
  5
1F4
100
AcDbEntity
  8
0
  6
CONTINUOUS
 62
               4
100
AcDbLine
 10
7.1000000000001364
 20
16.399999999999636
 30
0.0
 11
7.1000000000001364
 21
17.999999994247446
 31
0.0
  0
LINE
  5
1F5
100
AcDbEntity
  8
0
  6
CONTINUOUS
 62
               4
100
AcDbLine
 10
-7.8999999999997499
 20
18.299999994247742
 30
0.0
 11
-7.8999999999997499
 21
18.700207536078892
 31
0.0
  0
LINE
  5
1F6
100
AcDbEntity
  8
0
  6
CONTINUOUS
 62
               4
100
AcDbLine
 10
7.1000000000001364
 20
17.999999994247446
 30
0.0
 11
9.3000000000001819
 21
17.999999994247446
 31
0.0
  0
LINE
  5
1F7
100
AcDbEntity
  8
0
  6
CONTINUOUS
 62
               4
100
AcDbLine
 10
-7.8999999999997499
 20
18.700207536078892
 30
0.0
 11
-9.2999999874516561
 21
18.700207536078892
 31
0.0
  0
LINE
  5
1F8
100
AcDbEntity
  8
0
  6
CONTINUOUS
 62
               4
100
AcDbLine
 10
-7.0999999999997954
 20
17.999999994247673
 30
0.0
 11
-9.2999999999997272
 21
17.999999994247673
 31
0.0
  0
LINE
  5
1F9
100
AcDbEntity
  8
0
  6
CONTINUOUS
 62
               4
100
AcDbLine
 10
9.3000000000000682
 20
8.3999999999998636
 30
0.0
 11
9.3000000000001819
 21
18.700207536078665
 31
0.0
  0
ARC
  5
1FA
100
AcDbEntity
  8
0
  6
CONTINUOUS
 62
               4
100
AcDbCircle
 10
-3.4999999999998863
 20
7.1999999999999318
 30
0.0
 40
0.5
100
AcDbArc
 50
179.99999999999807
 51
269.9999999999979
  0
LINE
  5
1FB
100
AcDbEntity
  8
0
  6
CONTINUOUS
 62
               4
100
AcDbLine
 10
-3.9999999999998863
 20
7.1999999999999318
 30
0.0
 11
-3.9999999999998863
 21
7.8999999999999773
 31
0.0
  0
ARC
  5
1FC
100
AcDbEntity
  8
0
  6
CONTINUOUS
 62
               4
100
AcDbCircle
 10
3.5000000000001137
 20
7.1999999999998181
 30
0.0
 40
0.5
100
AcDbArc
 50
269.99999999999937
 51
0.0
  0
LINE
  5
1FD
100
AcDbEntity
  8
0
  6
CONTINUOUS
 62
               4
100
AcDbLine
 10
4.0000000000001137
 20
7.1999999999998181
 30
0.0
 11
4.0000000000001137
 21
7.8999999999998636
 31
0.0
  0
LINE
  5
1FE
100
AcDbEntity
  8
0
  6
CONTINUOUS
 62
               4
100
AcDbLine
 10
3.5000000000001137
 20
6.6999999999998181
 30
0.0
 11
-3.4999999999998863
 21
6.6999999999998181
 31
0.0
  0
ARC
  5
1FF
100
AcDbEntity
  8
0
  6
CONTINUOUS
 62
               4
100
AcDbCircle
 10
6.6000000000001364
 20
16.399999999999864
 30
0.0
 40
0.5
100
AcDbArc
 50
269.99999999999937
 51
0.0
  0
ARC
  5
200
100
AcDbEntity
  8
0
  6
CONTINUOUS
 62
               4
100
AcDbCircle
 10
-6.5999999999997954
 20
16.399999999999864
 30
0.0
 40
0.5
100
AcDbArc
 50
179.99999999999963
 51
269.99999999999937
  0
LINE
  5
201
100
AcDbEntity
  8
0
  6
CONTINUOUS
 62
               4
100
AcDbLine
 10
-7.0999999999997954
 20
16.399999999999864
 30
0.0
 11
-7.0999999999997954
 21
17.999999994247673
 31
0.0
  0
ARC
  5
202
100
AcDbEntity
  8
0
  6
CONTINUOUS
 62
               4
100
AcDbCircle
 10
-8.7999999999999545
 20
8.3999999999998636
 30
0.0
 40
0.5
100
AcDbArc
 50
179.99999999999963
 51
269.99999999999937
  0
LINE
  5
203
100
AcDbEntity
  8
0
  6
CONTINUOUS
 62
               4
100
AcDbLine
 10
-9.2999999999999545
 20
8.4000000000000909
 30
0.0
 11
-9.2999999999997272
 21
18.700207536078892
 31
0.0
  0
ARC
  5
204
100
AcDbEntity
  8
0
  6
CONTINUOUS
 62
               4
100
AcDbCircle
 10
8.8000000000000682
 20
8.3999999999998636
 30
0.0
 40
0.5
100
AcDbArc
 50
269.99999999999937
 51
0.0
  0
LINE
  5
205
100
AcDbEntity
  8
0
  6
CONTINUOUS
 62
               4
100
AcDbLine
 10
8.8000000000000682
 20
7.8999999999998636
 30
0.0
 11
4.0000000000001137
 21
7.8999999999998636
 31
0.0
  0
LINE
  5
206
100
AcDbEntity
  8
0
  6
CONTINUOUS
 62
               4
100
AcDbLine
 10
6.6000000000001364
 20
15.899999999999864
 30
0.0
 11
-6.5999999999997954
 21
15.899999999999864
 31
0.0
  0
LINE
  5
207
100
AcDbEntity
  8
0
  6
CONTINUOUS
 62
               4
100
AcDbLine
 10
-10.699999999372494
 20
34.900000000001
 30
0.0
 11
-11.899999993412052
 21
34.900000000001
 31
0.0
  0
LINE
  5
208
100
AcDbEntity
  8
0
  6
CONTINUOUS
 62
               4
100
AcDbLine
 10
-10.699999999999477
 20
34.900000000001
 30
0.0
 11
-10.699999999999477
 21
38.100000000001046
 31
0.0
  0
LINE
  5
209
100
AcDbEntity
  8
0
  6
CONTINUOUS
 62
               4
100
AcDbLine
 10
2.0000000000004547
 20
33.499999999998636
 30
0.0
 11
2.0000000000003411
 21
26.499999999998636
 31
0.0
  0
LINE
  5
20A
100
AcDbEntity
  8
0
  6
CONTINUOUS
 62
               4
100
AcDbLine
 10
8.0000000000004547
 20
33.499999999998522
 30
0.0
 11
8.0000000000003411
 21
26.499999999998522
 31
0.0
  0
LINE
  5
20B
100
AcDbEntity
  8
0
  6
CONTINUOUS
 62
               4
100
AcDbLine
 10
-10.699999999372494
 20
38.100000000001046
 30
0.0
 11
-11.899999993412052
 21
38.100000000001046
 31
0.0
  0
ARC
  5
20C
100
AcDbEntity
  8
0
  6
CONTINUOUS
 62
               4
100
AcDbCircle
 10
-10.899999999999409
 20
38.999999999998749
 30
0.0
 40
1.0
100
AcDbArc
 50
89.999999999999815
 51
179.99999999999963
  0
LINE
  5
20D
100
AcDbEntity
  8
0
  6
CONTINUOUS
 62
               4
100
AcDbLine
 10
10.700000000000387
 20
34.900000000000773
 30
0.0
 11
10.7000000000005
 21
38.100000000000819
 31
0.0
  0
LINE
  5
20E
100
AcDbEntity
  8
0
  6
CONTINUOUS
 62
               4
100
AcDbLine
 10
-10.899999999999409
 20
39.999999999998749
 30
0.0
 11
10.900000000000546
 21
39.999999999998522
 31
0.0
  0
ARC
  5
20F
100
AcDbEntity
  8
0
  6
CONTINUOUS
 62
               4
100
AcDbCircle
 10
10.900000000000432
 20
38.999999999998408
 30
0.0
 40
1.0
100
AcDbArc
 50
359.99999999999847
 51
89.999999999998266
  0
LINE
  5
210
100
AcDbEntity
  8
0
  6
CONTINUOUS
 62
               4
100
AcDbLine
 10
10.699999999373517
 20
38.100000000000819
 30
0.0
 11
11.899999993413076
 21
38.100000000000705
 31
0.0
  0
LINE
  5
211
100
AcDbEntity
  8
0
  6
CONTINUOUS
 62
               4
100
AcDbLine
 10
10.699999999373517
 20
34.900000000000773
 30
0.0
 11
11.899999993412962
 21
34.900000000000659
 31
0.0
  0
ARC
  5
212
100
AcDbEntity
  8
0
  6
CONTINUOUS
 62
               4
100
AcDbCircle
 10
3.5171572868646308
 20
9.6999999999985675
 30
0.0
 40
0.2
100
AcDbArc
 50
269.99999999999937
 51
45.000000000000966
  0
ARC
  5
213
100
AcDbEntity
  8
0
  6
CONTINUOUS
 62
               4
100
AcDbCircle
 10
-3.5171572868645171
 20
9.6999999999985675
 30
0.0
 40
0.2
100
AcDbArc
 50
134.99999999999793
 51
269.99999999999937
  0
ARC
  5
214
100
AcDbEntity
  8
0
  6
CONTINUOUS
 62
               4
100
AcDbCircle
 10
0.0000000000001137
 20
13.217157286862971
 30
0.0
 40
0.2
100
AcDbArc
 50
44.99999999999919
 51
134.99999999999898
  0
LINE
  5
215
100
AcDbEntity
  8
0
  6
CONTINUOUS
 62
               4
100
AcDbLine
 10
0.1414213562374016
 20
13.358578643100259
 30
0.0
 11
3.6585786431019187
 21
9.8414213562358555
 31
0.0
  0
LINE
  5
216
100
AcDbEntity
  8
0
  6
CONTINUOUS
 62
               4
100
AcDbLine
 10
-0.1414213562371742
 20
13.358578643100259
 30
0.0
 11
-3.658578643101805
 21
9.8414213562358555
 31
0.0
  0
LINE
  5
217
100
AcDbEntity
  8
0
  6
CONTINUOUS
 62
               4
100
AcDbLine
 10
3.5171572868646308
 20
9.4999999999985221
 30
0.0
 11
-3.5171572868645171
 21
9.4999999999985221
 31
0.0
  0
LINE
  5
218
100
AcDbEntity
  8
0
  6
CONTINUOUS
 62
               4
100
AcDbLine
 10
-7.8999999999998636
 20
15.799999999998704
 30
0.0
 11
-7.8999999999997499
 21
17.899999999998613
 31
0.0
  0
LINE
  5
219
100
AcDbEntity
  8
0
  6
CONTINUOUS
 62
               4
100
AcDbLine
 10
-7.8999999999997499
 20
17.899999999998613
 30
0.0
 11
-9.2999999999997272
 21
17.899999999998613
 31
0.0
  0
ARC
  5
21A
100
AcDbEntity
  8
0
  6
CONTINUOUS
 62
               4
100
AcDbCircle
 10
-8.7999999999999545
 20
8.4999999999985221
 30
0.0
 40
0.5
100
AcDbArc
 50
179.99999999999963
 51
269.99999999999937
  0
LINE
  5
21B
100
AcDbEntity
  8
0
  6
CONTINUOUS
 62
               4
100
AcDbLine
 10
8.8000000000000682
 20
7.9999999999985221
 30
0.0
 11
-8.7999999999999545
 21
7.9999999999985221
 31
0.0
  0
ARC
  5
21C
100
AcDbEntity
  8
0
  6
CONTINUOUS
 62
               4
100
AcDbCircle
 10
8.8000000000000682
 20
8.4999999999982947
 30
0.0
 40
0.5
100
AcDbArc
 50
269.9999999999979
 51
359.99999999999767
  0
LINE
  5
21D
100
AcDbEntity
  8
0
  6
CONTINUOUS
 62
               4
100
AcDbLine
 10
7.9000000000002046
 20
15.799999999998704
 30
0.0
 11
7.9000000000002046
 21
17.899999999998158
 31
0.0
  0
LINE
  5
21E
100
AcDbEntity
  8
0
  6
CONTINUOUS
 62
               4
100
AcDbLine
 10
7.9000000000002046
 20
17.899999999998158
 30
0.0
 11
9.3000000000001819
 21
17.899999999998158
 31
0.0
  0
LINE
  5
21F
100
AcDbEntity
  8
0
  6
CONTINUOUS
 62
               4
100
AcDbLine
 10
9.3000000000001499
 20
15.799999999998704
 30
0.0
 11
-9.2999999999998408
 21
15.799999999998704
 31
0.0
  0
LINE
  5
220
100
AcDbEntity
  8
0
  6
DASHED
 62
               2
100
AcDbLine
 10
-11.900000000003558
 20
0.0
 30
0.0
 11
11.899999999998499
 21
0.0
 31
0.0
  0
LINE
  5
221
100
AcDbEntity
  8
0
  6
CENTER
 62
             200
100
AcDbLine
 10
-0.0000000000000568
 20
-4.9708179906839405
 30
0.0
 11
0.0000000000005684
 21
41.999318110282161
 31
0.0
  0
LINE
  5
222
100
AcDbEntity
  8
0
  6
CONTINUOUS
 62
               4
100
AcDbLine
 10
11.899999999998499
 20
0.0
 30
0.0
 11
11.900000000018224
 21
38.999999991078425
 31
0.0
  0
LINE
  5
223
100
AcDbEntity
  8
0
  6
CONTINUOUS
 62
               4
100
AcDbLine
 10
-11.899999999981503
 20
39.000000000006821
 30
0.0
 11
-11.900000000003558
 21
0.0
 31
0.0
  0
LINE
  5
224
100
AcDbEntity
  8
0
  6
CONTINUOUS
 62
               4
100
AcDbLine
 10
-0.7499999999994316
 20
39.999999999998636
 30
0.0
 11
-0.7499999999994316
 21
41.679310091041941
 31
0.0
  0
LINE
  5
225
100
AcDbEntity
  8
0
  6
CONTINUOUS
 62
               4
100
AcDbLine
 10
0.7500000000005684
 20
39.999999999998636
 30
0.0
 11
0.7500000000005684
 21
42.082435091041987
 31
0.0
  0
LINE
  5
226
100
AcDbEntity
  8
0
  6
CONTINUOUS
 62
               4
100
AcDbLine
 10
-0.2499999999994316
 20
44.000872591041912
 30
0.0
 11
-0.2499999999993179
 21
47.500872591041912
 31
0.0
  0
LINE
  5
227
100
AcDbEntity
  8
0
  6
CONTINUOUS
 62
               4
100
AcDbLine
 10
0.2500000000005684
 20
44.000872591041912
 30
0.0
 11
0.2500000000006821
 21
47.500872591041912
 31
0.0
  0
LINE
  5
228
100
AcDbEntity
  8
0
  6
CONTINUOUS
 62
               4
100
AcDbLine
 10
0.7500000000005684
 20
44.000872591041912
 30
0.0
 11
-0.7499999999994316
 21
44.000872591041912
 31
0.0
  0
LINE
  5
229
100
AcDbEntity
  8
0
  6
CONTINUOUS
 62
               4
100
AcDbLine
 10
-0.7499999999994316
 20
42.340872591041943
 30
0.0
 11
-0.7499999999994316
 21
44.000872591041912
 31
0.0
  0
LINE
  5
22A
100
AcDbEntity
  8
0
  6
CONTINUOUS
 62
               4
100
AcDbLine
 10
0.7500000000005684
 20
42.712435091041925
 30
0.0
 11
0.7500000000005684
 21
44.000872591041912
 31
0.0
  0
LINE
  5
22B
100
AcDbEntity
  8
0
  6
CONTINUOUS
 62
               4
100
AcDbLine
 10
0.2500000000006821
 20
47.500872591041912
 30
0.0
 11
-0.2499999999993179
 21
47.500872591041912
 31
0.0
  0
LINE
  5
22C
100
AcDbEntity
  8
0
  6
CONTINUOUS
 62
             200
100
AcDbLine
 10
-0.9865455211431708
 20
41.615738482234633
 30
0.0
 11
1.188967170319529
 21
42.200407518065163
 31
0.0
  0
LINE
  5
22D
100
AcDbEntity
  8
0
  6
CONTINUOUS
 62
             200
100
AcDbLine
 10
-1.0416827949836716
 20
42.230920339889963
 30
0.0
 11
1.1483019023163479
 21
42.819478727289265
 31
0.0
  0
ENDBLK
  5
22E
100
AcDbEntity
  8
0
100
AcDbBlockEnd
  0
BLOCK
  5
22F
100
AcDbEntity
  8
0
100
AcDbBlockBegin
  2
PA24A7-6
 70
               0
 10
0.0
 20
0.0
 30
0.0
  3
PA24A7-6
  1

  0
LINE
  5
230
100
AcDbEntity
  8
0
  6
CONTINUOUS
 62
               4
100
AcDbLine
 10
36.999999995466453
 20
26.600000027368765
 30
0.0
 11
36.999999995466453
 21
33.399999979685049
 31
0.0
  0
LINE
  5
231
100
AcDbEntity
  8
0
  6
CONTINUOUS
 62
               4
100
AcDbLine
 10
35.800000000000978
 20
0.0000000000003411
 30
0.0
 11
35.799999999997851
 21
35.000000000002302
 31
0.0
  0
LINE
  5
232
100
AcDbEntity
  8
0
  6
CONTINUOUS
 62
               4
100
AcDbLine
 10
0.0000000000002842
 20
0.0
 30
0.0
 11
35.800000000000978
 21
0.0000000000003411
 31
0.0
  0
LINE
  5
233
100
AcDbEntity
  8
0
  6
CONTINUOUS
 62
               4
100
AcDbLine
 10
4.5362284294552069
 20
7.9999999999994031
 30
0.0
 11
7.9000000000019668
 21
7.9999999999994031
 31
0.0
  0
ARC
  5
234
100
AcDbEntity
  8
0
  6
CONTINUOUS
 62
               4
100
AcDbCircle
 10
6.3000000000005798
 20
7.4999999999994031
 30
0.0
 40
0.5
100
AcDbArc
 50
89.999999999999815
 51
179.99999999999963
  0
LINE
  5
235
100
AcDbEntity
  8
0
  6
CONTINUOUS
 62
               4
100
AcDbLine
 10
5.8000000000004661
 20
5.7999999999985619
 30
0.0
 11
5.8000000000005798
 21
7.49999999999946
 31
0.0
  0
ARC
  5
236
100
AcDbEntity
  8
0
  6
CONTINUOUS
 62
               4
100
AcDbCircle
 10
0.5000000000005116
 20
5.2999999999990166
 30
0.0
 40
0.5
100
AcDbArc
 50
89.999999999999815
 51
179.99999999999963
  0
LINE
  5
237
100
AcDbEntity
  8
0
  6
CONTINUOUS
 62
               4
100
AcDbLine
 10
5.000000000000739
 20
12.699999999992627
 30
0.0
 11
5.000000000000739
 21
11.999999999999972
 31
0.0
  0
ARC
  5
238
100
AcDbEntity
  8
0
  6
CONTINUOUS
 62
               4
100
AcDbCircle
 10
4.0071067811881562
 20
12.199999999992571
 30
0.0
 40
0.5
100
AcDbArc
 50
89.999999999994813
 51
134.9999999999944
  0
LINE
  5
239
100
AcDbEntity
  8
0
  6
CONTINUOUS
 62
               4
100
AcDbLine
 10
0.5000000000005116
 20
5.7999999999990166
 30
0.0
 11
5.8000000000004661
 21
5.7999999999985619
 31
0.0
  0
LINE
  5
23A
100
AcDbEntity
  8
0
  6
CONTINUOUS
 62
               4
100
AcDbLine
 10
2.00000000000108
 20
8.1160795923634907
 30
0.0
 11
2.00000000000108
 21
8.2000000093934489
 31
0.0
  0
LINE
  5
23B
100
AcDbEntity
  8
0
  6
CONTINUOUS
 62
               4
100
AcDbLine
 10
5.8000000000011482
 20
12.199999991712758
 30
0.0
 11
5.8000000000011482
 21
12.699999999992627
 31
0.0
  0
LINE
  5
23C
100
AcDbEntity
  8
0
  6
CONTINUOUS
 62
               4
100
AcDbLine
 10
4.0071067811881562
 20
12.699999999992571
 30
0.0
 11
5.8000000000011482
 21
12.699999999992627
 31
0.0
  0
LINE
  5
23D
100
AcDbEntity
  8
0
  6
CONTINUOUS
 62
               4
100
AcDbLine
 10
5.8000000000011482
 20
12.199999999992627
 30
0.0
 11
7.900000000001171
 21
12.199999999992684
 31
0.0
  0
ARC
  5
23E
100
AcDbEntity
  8
0
  6
CONTINUOUS
 62
               4
100
AcDbCircle
 10
4.4499998092656483
 20
7.1937456130966382
 30
0.0
 40
0.800000011920929
100
AcDbArc
 50
359.99998201390565
 51
73.808645430464111
  0
ARC
  5
23F
100
AcDbEntity
  8
0
  6
CONTINUOUS
 62
               4
100
AcDbCircle
 10
1.5500001907353749
 20
7.1937456130968656
 30
0.0
 40
0.800000011920929
100
AcDbArc
 50
106.19135456952553
 51
180.00001798608395
  0
ARC
  5
240
100
AcDbEntity
  8
0
  6
CONTINUOUS
 62
               4
100
AcDbCircle
 10
3.0000000000000568
 20
2.1999998092637441
 30
0.0
 40
6.0
100
AcDbArc
 50
73.80871737482147
 51
106.19135456952553
  0
LINE
  5
241
100
AcDbEntity
  8
0
  6
CONTINUOUS
 62
               4
100
AcDbLine
 10
5.2500000000005116
 20
7.1937456130965245
 30
0.0
 11
5.2500000000003979
 21
5.7999999999983913
 31
0.0
  0
LINE
  5
242
100
AcDbEntity
  8
0
  6
CONTINUOUS
 62
               4
100
AcDbLine
 10
0.7500000000005116
 20
7.1937456130969224
 30
0.0
 11
0.7500000000003979
 21
5.7999999999987892
 31
0.0
  0
LINE
  5
243
100
AcDbEntity
  8
0
  6
CONTINUOUS
 62
               4
100
AcDbLine
 10
3.1000000000074692
 20
11.999999999999858
 30
0.0
 11
3.6535533905942543
 21
12.553553390586643
 31
0.0
  0
LINE
  5
244
100
AcDbEntity
  8
0
  6
CONTINUOUS
 62
               4
100
AcDbLine
 10
0.7500000000003979
 20
6.4999999999990052
 30
0.0
 11
5.2500000000003979
 21
6.4999999999986073
 31
0.0
  0
ARC
  5
245
100
AcDbEntity
  8
0
  6
CONTINUOUS
 62
               4
100
AcDbCircle
 10
-5.6000000000016712
 20
14.065826257580994
 30
0.0
 40
0.5
100
AcDbArc
 50
179.99999999999963
 51
194.99999999999918
  0
ARC
  5
246
100
AcDbEntity
  8
0
  6
CONTINUOUS
 62
               4
100
AcDbCircle
 10
-4.9124889263641194
 20
11.499999999999517
 30
0.0
 40
0.5
100
AcDbArc
 50
89.999999999999815
 51
194.99999999999952
  0
ARC
  5
247
100
AcDbEntity
  8
0
  6
CONTINUOUS
 62
               4
100
AcDbCircle
 10
6.9000000000126533
 20
13.30000000000004
 30
0.0
 40
1.0
100
AcDbArc
 50
197.45760312372443
 51
0.0000000000081422
  0
ARC
  5
248
100
AcDbEntity
  8
0
  6
CONTINUOUS
 62
               4
100
AcDbCircle
 10
-3.7785677023339872
 20
9.2000000093958931
 30
0.0
 40
1.0
100
AcDbArc
 50
194.99999981259796
 51
269.99999999999937
  0
LINE
  5
249
100
AcDbEntity
  8
0
  6
CONTINUOUS
 62
               4
100
AcDbLine
 10
-4.7444935236395054
 20
8.94118096901488
 30
0.0
 11
-6.0829629131462184
 21
13.936416735029667
 31
0.0
  0
LINE
  5
24A
100
AcDbEntity
  8
0
  6
CONTINUOUS
 62
               4
100
AcDbLine
 10
-5.8320508052160562
 20
12.99999999999946
 30
0.0
 11
7.400000000012426
 21
13.000000000000085
 31
0.0
  0
ARC
  5
24B
100
AcDbEntity
  8
0
  6
CONTINUOUS
 62
               4
100
AcDbCircle
 10
7.4000000000123123
 20
13.500000000000085
 30
0.0
 40
0.5
100
AcDbArc
 50
270.00000000000193
 51
0.0000000000025444
  0
LINE
  5
24C
100
AcDbEntity
  8
0
  6
CONTINUOUS
 62
               4
100
AcDbLine
 10
-3.7785677023331914
 20
8.2000000093933352
 30
0.0
 11
7.1000000000036039
 21
8.2000000093935626
 31
0.0
  0
LINE
  5
24D
100
AcDbEntity
  8
0
  6
CONTINUOUS
 62
               4
100
AcDbLine
 10
-4.9124889263641194
 20
11.999999999999517
 30
0.0
 11
7.1000000000029218
 21
12.000000000000028
 31
0.0
  0
LINE
  5
24E
100
AcDbEntity
  8
0
  6
CONTINUOUS
 62
               4
100
AcDbLine
 10
0.5000000000021032
 20
11.999999999999801
 30
0.0
 11
0.5000000000021032
 21
12.999999999999801
 31
0.0
  0
LINE
  5
24F
100
AcDbEntity
  8
0
  6
CONTINUOUS
 62
               4
100
AcDbLine
 10
1.5000000000021032
 20
11.999999999999801
 30
0.0
 11
1.5000000000021032
 21
12.999999999999801
 31
0.0
  0
LINE
  5
250
100
AcDbEntity
  8
0
  6
CONTINUOUS
 62
               4
100
AcDbLine
 10
7.6000000000036039
 20
8.7000000093936762
 30
0.0
 11
7.6000000000029218
 21
11.500000000000142
 31
0.0
  0
ARC
  5
251
100
AcDbEntity
  8
0
  6
CONTINUOUS
 62
               4
100
AcDbCircle
 10
7.1000000000029218
 20
11.500000000000028
 30
0.0
 40
0.5
100
AcDbArc
 50
0.000000000002519
 51
90.000000000002316
  0
ARC
  5
252
100
AcDbEntity
  8
0
  6
CONTINUOUS
 62
               4
100
AcDbCircle
 10
7.1000000000036039
 20
8.7000000093935626
 30
0.0
 40
0.5
100
AcDbArc
 50
270.00000000000267
 51
0.0000000000025444
  0
LINE
  5
253
100
AcDbEntity
  8
0
  6
CONTINUOUS
 62
               4
100
AcDbLine
 10
5.0000000000002842
 20
8.2000000093935626
 30
0.0
 11
5.0000000000002842
 21
8.0000000000000284
 31
0.0
  0
LINE
  5
254
100
AcDbEntity
  8
0
  6
CONTINUOUS
 62
               4
100
AcDbLine
 10
-6.1000000000016712
 20
14.065826257580937
 30
0.0
 11
-6.1000000000025807
 21
35.999999973399582
 31
0.0
  0
LINE
  5
255
100
AcDbEntity
  8
0
  6
CONTINUOUS
 62
               4
100
AcDbLine
 10
7.9000000000017394
 20
8.0000000000001421
 30
0.0
 11
7.8999999999974193
 21
40.000000000000085
 31
0.0
  0
LINE
  5
256
100
AcDbEntity
  8
0
  6
CONTINUOUS
 62
               4
100
AcDbLine
 10
0.0
 20
0.0
 30
0.0
 11
0.0000000000005116
 21
5.2999999999990735
 31
0.0
  0
LINE
  5
257
100
AcDbEntity
  8
0
  6
CONTINUOUS
 62
               4
100
AcDbLine
 10
35.799999999997738
 20
35.000000000002302
 30
0.0
 11
36.399999999997874
 21
35.000000000002359
 31
0.0
  0
LINE
  5
258
100
AcDbEntity
  8
0
  6
CONTINUOUS
 62
               4
100
AcDbLine
 10
35.799999999997624
 20
38.000000000002302
 30
0.0
 11
36.399999999997533
 21
38.000000000002359
 31
0.0
  0
LINE
  5
259
100
AcDbEntity
  8
0
  6
CONTINUOUS
 62
               4
100
AcDbLine
 10
35.799999999997624
 20
37.999999985762969
 30
0.0
 11
35.79999999999751
 21
39.999999985762912
 31
0.0
  0
ARC
  5
25A
100
AcDbEntity
  8
0
  6
CONTINUOUS
 62
               4
100
AcDbCircle
 10
36.399999999997647
 20
37.500000000002359
 30
0.0
 40
0.5
100
AcDbArc
 50
0.0000000000018066
 51
90.000000000001606
  0
ARC
  5
25B
100
AcDbEntity
  8
0
  6
CONTINUOUS
 62
               4
100
AcDbCircle
 10
36.399999999997647
 20
35.500000000002359
 30
0.0
 40
0.5
100
AcDbArc
 50
270.00000000000125
 51
0.000000000001832
  0
LINE
  5
25C
100
AcDbEntity
  8
0
  6
CONTINUOUS
 62
               4
100
AcDbLine
 10
36.999999995466567
 20
26.600000000000335
 30
0.0
 11
36.899999995466544
 21
26.500000000000313
 31
0.0
  0
LINE
  5
25D
100
AcDbEntity
  8
0
  6
CONTINUOUS
 62
               4
100
AcDbLine
 10
36.899999990935669
 20
33.500000000000313
 30
0.0
 11
36.999999995466453
 21
33.399999995469528
 31
0.0
  0
ARC
  5
25E
100
AcDbEntity
  8
0
  6
CONTINUOUS
 62
               4
100
AcDbCircle
 10
36.399999999997533
 20
39.500000000000369
 30
0.0
 40
0.5
100
AcDbArc
 50
0.0000000000006361
 51
90.000000000000441
  0
LINE
  5
25F
100
AcDbEntity
  8
0
  6
CONTINUOUS
 62
               4
100
AcDbLine
 10
35.79999999999751
 20
40.000000000000313
 30
0.0
 11
36.399999999997533
 21
40.000000000000369
 31
0.0
  0
LINE
  5
260
100
AcDbEntity
  8
0
  6
CONTINUOUS
 62
               4
100
AcDbLine
 10
36.899999995466658
 20
34.900000000002336
 30
0.0
 11
35.799999999997851
 21
34.900000000002279
 31
0.0
  0
LINE
  5
261
100
AcDbEntity
  8
0
  6
CONTINUOUS
 62
               4
100
AcDbLine
 10
36.899999995466544
 20
38.100000000002325
 30
0.0
 11
35.799999999997283
 21
38.100000000002268
 31
0.0
  0
LINE
  5
262
100
AcDbEntity
  8
0
  6
CONTINUOUS
 62
               4
100
AcDbLine
 10
36.899999995467624
 20
0.0000000000003411
 30
0.0
 11
36.89999999546643
 21
39.500000000000369
 31
0.0
  0
LINE
  5
263
100
AcDbEntity
  8
0
  6
CONTINUOUS
 62
               4
100
AcDbLine
 10
7.8999999999974193
 20
40.000000000000057
 30
0.0
 11
35.79999999999751
 21
40.000000000000313
 31
0.0
  0
LINE
  5
264
100
AcDbEntity
  8
0
  6
CONTINUOUS
 62
               4
100
AcDbLine
 10
2.1499999954791633
 20
45.500872599956551
 30
0.0
 11
1.6499999954791633
 21
45.500872599956551
 31
0.0
  0
LINE
  5
265
100
AcDbEntity
  8
0
  6
CONTINUOUS
 62
               4
100
AcDbLine
 10
2.6499999954790496
 20
40.712435099956565
 30
0.0
 11
2.6499999954790496
 21
42.000872599956551
 31
0.0
  0
LINE
  5
266
100
AcDbEntity
  8
0
  6
CONTINUOUS
 62
               4
100
AcDbLine
 10
1.1499999954790496
 20
40.340872599956583
 30
0.0
 11
1.1499999954790496
 21
42.000872599956551
 31
0.0
  0
LINE
  5
267
100
AcDbEntity
  8
0
  6
CONTINUOUS
 62
               4
100
AcDbLine
 10
2.6499999954790496
 20
42.000872599956551
 30
0.0
 11
1.1499999954790496
 21
42.000872599956551
 31
0.0
  0
LINE
  5
268
100
AcDbEntity
  8
0
  6
CONTINUOUS
 62
             200
100
AcDbLine
 10
0.2999999954790269
 20
40.080872599956592
 30
0.0
 11
3.4999999954790724
 21
40.940872599956492
 31
0.0
  0
LINE
  5
269
100
AcDbEntity
  8
0
  6
CONTINUOUS
 62
             200
100
AcDbLine
 10
0.2999999954790269
 20
39.05087259995662
 30
0.0
 11
3.4999999954790724
 21
39.910872599956519
 31
0.0
  0
LINE
  5
26A
100
AcDbEntity
  8
0
  6
CONTINUOUS
 62
               4
100
AcDbLine
 10
2.1499999954790496
 20
42.000872599956551
 30
0.0
 11
2.1499999954791633
 21
45.500872599956551
 31
0.0
  0
LINE
  5
26B
100
AcDbEntity
  8
0
  6
CONTINUOUS
 62
               4
100
AcDbLine
 10
1.6499999954790496
 20
42.000872599956551
 30
0.0
 11
1.6499999954791633
 21
45.500872599956551
 31
0.0
  0
LINE
  5
26C
100
AcDbEntity
  8
0
  6
CONTINUOUS
 62
               4
100
AcDbLine
 10
1.1499999954790496
 20
36.999999991088657
 30
0.0
 11
1.1499999954790496
 21
39.279310099956547
 31
0.0
  0
LINE
  5
26D
100
AcDbEntity
  8
0
  6
CONTINUOUS
 62
               4
100
AcDbLine
 10
2.6499999954790496
 20
36.999999991088544
 30
0.0
 11
2.6499999954790496
 21
39.682435099956592
 31
0.0
  0
LINE
  5
26E
100
AcDbEntity
  8
0
  6
CENTER
 62
             200
100
AcDbLine
 10
1.8999999954791633
 20
34.510895800239041
 30
0.0
 11
1.8999999954795044
 21
46.410609842086501
 31
0.0
  0
LINE
  5
26F
100
AcDbEntity
  8
0
  6
CONTINUOUS
 62
               4
100
AcDbLine
 10
-5.1000000288909746
 20
36.999999991088657
 30
0.0
 11
3.3999999954785949
 21
36.999999991088657
 31
0.0
  0
ARC
  5
270
100
AcDbEntity
  8
0
  6
CONTINUOUS
 62
               4
100
AcDbCircle
 10
-5.1000000045331149
 20
14.131652503172177
 30
0.0
 40
1.0
100
AcDbArc
 50
179.99999999999963
 51
194.99999999999955
  0
ARC
  5
271
100
AcDbEntity
  8
0
  6
CONTINUOUS
 62
               4
100
AcDbCircle
 10
3.3999999954785949
 20
37.500000000000114
 30
0.0
 40
0.5
100
AcDbArc
 50
269.99999999999937
 51
0.0
  0
LINE
  5
272
100
AcDbEntity
  8
0
  6
CONTINUOUS
 62
               4
100
AcDbLine
 10
3.8999999954785949
 20
39.000000000000114
 30
0.0
 11
3.8999999954785949
 21
37.500000000000114
 31
0.0
  0
ARC
  5
273
100
AcDbEntity
  8
0
  6
CONTINUOUS
 62
               4
100
AcDbCircle
 10
4.8999999954785949
 20
39.000000000000114
 30
0.0
 40
1.0
100
AcDbArc
 50
89.999999999999815
 51
179.99999999999963
  0
ARC
  5
274
100
AcDbEntity
  8
0
  6
CONTINUOUS
 62
               4
100
AcDbCircle
 10
-5.1000000045208367
 20
36.000000000000114
 30
0.0
 40
1.0
100
AcDbArc
 50
89.999999999999815
 51
179.99999999999963
  0
LINE
  5
275
100
AcDbEntity
  8
0
  6
CONTINUOUS
 62
               4
100
AcDbLine
 10
7.8999999999974193
 20
40.000000000000057
 30
0.0
 11
4.8999999954785949
 21
40.000000000000057
 31
0.0
  0
ENDBLK
  5
276
100
AcDbEntity
  8
0
100
AcDbBlockEnd
  0
BLOCK
  5
277
100
AcDbEntity
  8
0
100
AcDbBlockBegin
  2
PA24A7-7
 70
               0
 10
0.0
 20
0.0
 30
0.0
  3
PA24A7-7
  1

  0
LINE
  5
278
100
AcDbEntity
  8
0
  6
CENTER
 62
               2
100
AcDbLine
 10
-4.9999999825548116
 20
75.000000000000057
 30
0.0
 11
5.0
 21
75.000000000000057
 31
0.0
  0
LINE
  5
279
100
AcDbEntity
  8
0
  6
CENTER
 62
               2
100
AcDbLine
 10
-4.9999999825548116
 20
0.0
 30
0.0
 11
5.0
 21
0.0
 31
0.0
  0
LINE
  5
27A
100
AcDbEntity
  8
0
  6
CONTINUOUS
 62
               7
100
AcDbLine
 10
61.700000000006867
 20
-2.4999998807901989
 30
0.0
 11
62.000000000000625
 21
-1.9803845882410656
 31
0.0
  0
LINE
  5
27B
100
AcDbEntity
  8
0
  6
CONTINUOUS
 62
               7
100
AcDbLine
 10
61.700000000008572
 20
4.5000001192098011
 30
0.0
 11
62.000000000000625
 21
3.9803850650792469
 31
0.0
  0
LINE
  5
27C
100
AcDbEntity
  8
0
  6
CONTINUOUS
 62
               7
100
AcDbLine
 10
61.700000000006867
 20
-2.4999998807901989
 30
0.0
 11
58.000000000006878
 21
-2.4999998807901989
 31
0.0
  0
LINE
  5
27D
100
AcDbEntity
  8
0
  6
CONTINUOUS
 62
               7
100
AcDbLine
 10
61.700000000008572
 20
4.5000001192098011
 30
0.0
 11
58.000000000008583
 21
4.5000001192098011
 31
0.0
  0
LINE
  5
27E
100
AcDbEntity
  8
0
  6
CONTINUOUS
 62
               7
100
AcDbLine
 10
62.000000000000625
 20
-2.9999998807901989
 30
0.0
 11
58.000000000006764
 21
-2.9999998807901989
 31
0.0
  0
LINE
  5
27F
100
AcDbEntity
  8
0
  6
CONTINUOUS
 62
               7
100
AcDbLine
 10
62.000000000000568
 20
5.0000001192098011
 30
0.0
 11
58.000000000008697
 21
5.0000001192098011
 31
0.0
  0
LINE
  5
280
100
AcDbEntity
  8
0
  6
CONTINUOUS
 62
               7
100
AcDbLine
 10
61.700000000008572
 20
4.5000001192098011
 30
0.0
 11
61.700000000006867
 21
-2.4999998807901989
 31
0.0
  0
LINE
  5
281
100
AcDbEntity
  8
0
  6
CONTINUOUS
 62
               7
100
AcDbLine
 10
58.000000000008697
 20
5.0000001192098011
 30
0.0
 11
58.000000000006764
 21
-2.9999998807901989
 31
0.0
  0
LINE
  5
282
100
AcDbEntity
  8
0
  6
CENTER
 62
               2
100
AcDbLine
 10
57.328629636664516
 20
1.0000000000090381
 30
0.0
 11
63.239852399631729
 21
1.0000000000075602
 31
0.0
  0
LINE
  5
283
100
AcDbEntity
  8
0
  6
CONTINUOUS
 62
               7
100
AcDbLine
 10
24.99999999998829
 20
82.000000000001876
 30
0.0
 11
24.999999999999432
 21
-37.499999999988347
 31
0.0
  0
ARC
  5
284
100
AcDbEntity
  8
0
  6
CONTINUOUS
 62
               7
100
AcDbCircle
 10
61.499999999999432
 20
-37.499999999988347
 30
0.0
 40
0.5
100
AcDbArc
 50
269.99999999999937
 51
0.0
  0
LINE
  5
285
100
AcDbEntity
  8
0
  6
CONTINUOUS
 62
               7
100
AcDbLine
 10
25.499999999999432
 20
-37.999999999988347
 30
0.0
 11
34.999999999999432
 21
-37.999999999988347
 31
0.0
  0
LINE
  5
286
100
AcDbEntity
  8
0
  6
CONTINUOUS
 62
               7
100
AcDbLine
 10
51.999999999999432
 20
-37.999999999988347
 30
0.0
 11
61.499999999999432
 21
-37.999999999988347
 31
0.0
  0
LINE
  5
287
100
AcDbEntity
  8
0
  6
CONTINUOUS
 62
               7
100
AcDbLine
 10
61.99999999999693
 20
-37.499999999988347
 30
0.0
 11
62.000000000011084
 21
76.000000000006423
 31
0.0
  0
LINE
  5
288
100
AcDbEntity
  8
0
  6
CONTINUOUS
 62
               7
100
AcDbLine
 10
35.399999999999295
 20
-37.59999999998837
 30
0.0
 11
51.599999999999341
 21
-37.59999999998837
 31
0.0
  0
ARC
  5
289
100
AcDbEntity
  8
0
  6
CONTINUOUS
 62
               7
100
AcDbCircle
 10
25.499999999999432
 20
-37.499999999988347
 30
0.0
 40
0.5
100
AcDbArc
 50
179.99999999999963
 51
269.99999999999937
  0
LINE
  5
28A
100
AcDbEntity
  8
0
  6
CONTINUOUS
 62
               7
100
AcDbLine
 10
51.599999999999341
 20
-37.59999999998837
 30
0.0
 11
51.999999999999432
 21
-37.999999999988347
 31
0.0
  0
LINE
  5
28B
100
AcDbEntity
  8
0
  6
CONTINUOUS
 62
               7
100
AcDbLine
 10
35.399999999999295
 20
-37.59999999998837
 30
0.0
 11
34.999999999999432
 21
-37.999999999988347
 31
0.0
  0
LINE
  5
28C
100
AcDbEntity
  8
0
  6
CONTINUOUS
 62
               7
100
AcDbLine
 10
24.999999999989996
 20
-24.499999999990052
 30
0.0
 11
61.999999999990223
 21
-24.499999999986642
 31
0.0
  0
CIRCLE
  5
28D
100
AcDbEntity
  8
0
  6
DASHED
 62
               2
100
AcDbCircle
 10
12.999999999999943
 20
18.0
 30
0.0
 40
8.3000001907348633
  0
CIRCLE
  5
28E
100
AcDbEntity
  8
0
  6
DASHED
 62
               7
100
AcDbCircle
 10
12.999999999999943
 20
18.0
 30
0.0
 40
7.4000000000000004
  0
LINE
  5
28F
100
AcDbEntity
  8
0
  6
CENTER
 62
               2
100
AcDbLine
 10
22.847329057801005
 20
18.0
 30
0.0
 11
1.5389823340298676
 21
18.0
 31
0.0
  0
CIRCLE
  5
290
100
AcDbEntity
  8
0
  6
DASHED
 62
               2
100
AcDbCircle
 10
12.999999999999943
 20
43.000000000000057
 30
0.0
 40
8.3000001907348633
  0
CIRCLE
  5
291
100
AcDbEntity
  8
0
  6
DASHED
 62
               7
100
AcDbCircle
 10
12.999999999999943
 20
43.000000000000057
 30
0.0
 40
7.4000000000000004
  0
LINE
  5
292
100
AcDbEntity
  8
0
  6
CENTER
 62
               2
100
AcDbLine
 10
22.847329057801005
 20
43.000000000000057
 30
0.0
 11
1.5389823340298676
 21
43.000000000000057
 31
0.0
  0
LINE
  5
293
100
AcDbEntity
  8
0
  6
CONTINUOUS
 62
               7
100
AcDbLine
 10
0.0
 20
-11.0
 30
0.0
 11
0.0
 21
80.000000000000057
 31
0.0
  0
LINE
  5
294
100
AcDbEntity
  8
0
  6
CONTINUOUS
 62
               7
100
AcDbLine
 10
17.5
 20
75.000000002253557
 30
0.0
 11
17.5
 21
75.00131601735535
 31
0.0
  0
LINE
  5
295
100
AcDbEntity
  8
0
  6
CONTINUOUS
 62
               7
100
AcDbLine
 10
0.0
 20
-11.0
 30
0.0
 11
24.0
 21
-11.0
 31
0.0
  0
LINE
  5
296
100
AcDbEntity
  8
0
  6
CONTINUOUS
 62
               7
100
AcDbLine
 10
0.0
 20
80.000000000000057
 30
0.0
 11
24.999999999988518
 21
80.000000000000057
 31
0.0
  0
LINE
  5
297
100
AcDbEntity
  8
0
  6
CONTINUOUS
 62
               7
100
AcDbLine
 10
0.0000000177801667
 20
60.000000000000057
 30
0.0
 11
24.000000017780167
 21
60.000000000000057
 31
0.0
  0
LINE
  5
298
100
AcDbEntity
  8
0
  6
CONTINUOUS
 62
               7
100
AcDbLine
 10
0.0000000177801667
 20
-5.0
 30
0.0
 11
24.000000017780167
 21
-5.0
 31
0.0
  0
ARC
  5
299
100
AcDbEntity
  8
0
  6
CONTINUOUS
 62
               7
100
AcDbCircle
 10
59.399999999989859
 20
71.919155751121309
 30
0.0
 40
2.0
100
AcDbArc
 50
180.00000000000682
 51
245.00000149217658
  0
LINE
  5
29A
100
AcDbEntity
  8
0
  6
CONTINUOUS
 62
               7
100
AcDbLine
 10
61.999999999558554
 20
68.500000000006423
 30
0.0
 11
58.55476355508506
 21
70.106540143495806
 31
0.0
  0
LINE
  5
29B
100
AcDbEntity
  8
0
  6
CONTINUOUS
 62
               7
100
AcDbLine
 10
57.399999999988495
 20
82.000000000005741
 30
0.0
 11
57.399999999989859
 21
71.919155751121082
 31
0.0
  0
LINE
  5
29C
100
AcDbEntity
  8
0
  6
CONTINUOUS
 62
               7
100
AcDbLine
 10
61.999999999989313
 20
76.000000000006423
 30
0.0
 11
60.799999999989154
 21
76.000000000006196
 31
0.0
  0
LINE
  5
29D
100
AcDbEntity
  8
0
  6
CONTINUOUS
 62
               7
100
AcDbLine
 10
24.999999999990109
 20
67.000000000002785
 30
0.0
 11
61.99999999999045
 21
67.000000000006423
 31
0.0
  0
LINE
  5
29E
100
AcDbEntity
  8
0
  6
CONTINUOUS
 62
               4
100
AcDbLine
 10
29.536228429443213
 20
90.000000000001421
 30
0.0
 11
32.899999999989973
 21
90.000000000001421
 31
0.0
  0
ARC
  5
29F
100
AcDbEntity
  8
0
  6
CONTINUOUS
 62
               4
100
AcDbCircle
 10
31.299999999988586
 20
89.500000000001421
 30
0.0
 40
0.5
100
AcDbArc
 50
89.999999999999815
 51
179.99999999999963
  0
LINE
  5
2A0
100
AcDbEntity
  8
0
  6
CONTINUOUS
 62
               4
100
AcDbLine
 10
30.799999999988472
 20
87.800000000000693
 30
0.0
 11
30.799999999988586
 21
89.500000000001648
 31
0.0
  0
ARC
  5
2A1
100
AcDbEntity
  8
0
  6
CONTINUOUS
 62
               4
100
AcDbCircle
 10
25.499999999988518
 20
87.300000000001148
 30
0.0
 40
0.5
100
AcDbArc
 50
89.999999999999815
 51
179.99999999999963
  0
LINE
  5
2A2
100
AcDbEntity
  8
0
  6
CONTINUOUS
 62
               4
100
AcDbLine
 10
29.999999999988745
 20
94.699999999994645
 30
0.0
 11
29.999999999988745
 21
94.000000000002103
 31
0.0
  0
ARC
  5
2A3
100
AcDbEntity
  8
0
  6
CONTINUOUS
 62
               4
100
AcDbCircle
 10
29.007106781176162
 20
94.199999999994645
 30
0.0
 40
0.5
100
AcDbArc
 50
89.999999999994813
 51
134.9999999999944
  0
LINE
  5
2A4
100
AcDbEntity
  8
0
  6
CONTINUOUS
 62
               4
100
AcDbLine
 10
25.499999999988518
 20
87.800000000001148
 30
0.0
 11
30.799999999988472
 21
87.800000000000693
 31
0.0
  0
LINE
  5
2A5
100
AcDbEntity
  8
0
  6
CONTINUOUS
 62
               4
100
AcDbLine
 10
26.999999999989086
 20
90.116079592365679
 30
0.0
 11
26.999999999989086
 21
90.200000009395637
 31
0.0
  0
ARC
  5
2A6
100
AcDbEntity
  8
0
  6
CONTINUOUS
 62
               4
100
AcDbCircle
 10
29.449999809253654
 20
89.193745613098656
 30
0.0
 40
0.800000011920929
100
AcDbArc
 50
359.99998201390565
 51
73.808645430464111
  0
ARC
  5
2A7
100
AcDbEntity
  8
0
  6
CONTINUOUS
 62
               4
100
AcDbCircle
 10
26.550000190723381
 20
89.193745613098883
 30
0.0
 40
0.800000011920929
100
AcDbArc
 50
106.19135456952553
 51
180.00001798608395
  0
ARC
  5
2A8
100
AcDbEntity
  8
0
  6
CONTINUOUS
 62
               4
100
AcDbCircle
 10
27.999999999988063
 20
84.199999809265876
 30
0.0
 40
6.0
100
AcDbArc
 50
73.80871737482147
 51
106.19135456952553
  0
LINE
  5
2A9
100
AcDbEntity
  8
0
  6
CONTINUOUS
 62
               4
100
AcDbLine
 10
30.249999999988518
 20
89.193745613098656
 30
0.0
 11
30.249999999988404
 21
87.800000000000466
 31
0.0
  0
LINE
  5
2AA
100
AcDbEntity
  8
0
  6
CONTINUOUS
 62
               4
100
AcDbLine
 10
25.749999999988518
 20
89.193745613099111
 30
0.0
 11
25.749999999988404
 21
87.800000000000921
 31
0.0
  0
LINE
  5
2AB
100
AcDbEntity
  8
0
  6
CONTINUOUS
 62
               4
100
AcDbLine
 10
24.99999999998829
 20
82.000000000001421
 30
0.0
 11
24.999999999988518
 21
87.300000000001148
 31
0.0
  0
LINE
  5
2AC
100
AcDbEntity
  8
0
  6
CONTINUOUS
 62
               4
100
AcDbLine
 10
32.799999999987108
 20
96.300000000002058
 30
0.0
 11
32.899999999987699
 21
96.300000000002058
 31
0.0
  0
LINE
  5
2AD
100
AcDbEntity
  8
0
  6
CONTINUOUS
 62
               7
100
AcDbLine
 10
24.999999999988972
 20
82.000000000001876
 30
0.0
 11
60.799999999988927
 21
82.000000000003922
 31
0.0
  0
LINE
  5
2AE
100
AcDbEntity
  8
0
  6
CONTINUOUS
 62
               4
100
AcDbLine
 10
32.899999999986107
 20
116.09999999890266
 30
0.0
 11
32.799999999986198
 21
116.09999999890266
 31
0.0
  0
LINE
  5
2AF
100
AcDbEntity
  8
0
  6
CONTINUOUS
 62
               4
100
AcDbLine
 10
32.899999999989745
 20
90.000000000002331
 30
0.0
 11
32.899999999985425
 21
122.0000000000021
 31
0.0
  0
LINE
  5
2B0
100
AcDbEntity
  8
0
  6
CONTINUOUS
 62
               4
100
AcDbLine
 10
30.799999999988472
 20
94.199999999995782
 30
0.0
 11
32.899999999988495
 21
94.19999999999601
 31
0.0
  0
LINE
  5
2B1
100
AcDbEntity
  8
0
  6
CONTINUOUS
 62
               4
100
AcDbLine
 10
29.007106781175366
 20
94.699999999995555
 30
0.0
 11
30.799999999988472
 21
94.699999999995782
 31
0.0
  0
LINE
  5
2B2
100
AcDbEntity
  8
0
  6
CONTINUOUS
 62
               4
100
AcDbLine
 10
30.799999999988472
 20
94.19999999171597
 30
0.0
 11
30.799999999988472
 21
94.699999999995782
 31
0.0
  0
LINE
  5
2B3
100
AcDbEntity
  8
0
  6
CONTINUOUS
 62
               4
100
AcDbLine
 10
28.099999999995475
 20
94.000000000001876
 30
0.0
 11
28.65355339058226
 21
94.553553390588661
 31
0.0
  0
LINE
  5
2B4
100
AcDbEntity
  8
0
  6
CONTINUOUS
 62
               4
100
AcDbLine
 10
60.799999999985744
 20
117.00000000000438
 30
0.0
 11
61.39999999998588
 21
117.00000000000438
 31
0.0
  0
LINE
  5
2B5
100
AcDbEntity
  8
0
  6
CONTINUOUS
 62
               4
100
AcDbLine
 10
60.799999999985744
 20
120.00000000000438
 30
0.0
 11
61.399999999985653
 21
120.00000000000438
 31
0.0
  0
LINE
  5
2B6
100
AcDbEntity
  8
0
  6
CONTINUOUS
 62
               4
100
AcDbLine
 10
60.799999999985744
 20
119.9999999857651
 30
0.0
 11
60.799999999985516
 21
121.9999999857651
 31
0.0
  0
ARC
  5
2B7
100
AcDbEntity
  8
0
  6
CONTINUOUS
 62
               4
100
AcDbCircle
 10
61.399999999985653
 20
119.50000000000438
 30
0.0
 40
0.5
100
AcDbArc
 50
0.0000000000018066
 51
90.000000000001606
  0
ARC
  5
2B8
100
AcDbEntity
  8
0
  6
CONTINUOUS
 62
               4
100
AcDbCircle
 10
61.399999999985653
 20
117.50000000000438
 30
0.0
 40
0.5
100
AcDbArc
 50
270.00000000000125
 51
0.000000000001832
  0
LINE
  5
2B9
100
AcDbEntity
  8
0
  6
CONTINUOUS
 62
               4
100
AcDbLine
 10
25.749999999988404
 20
88.500000000001194
 30
0.0
 11
30.249999999988404
 21
88.500000000000739
 31
0.0
  0
ARC
  5
2BA
100
AcDbEntity
  8
0
  6
CONTINUOUS
 62
               4
100
AcDbCircle
 10
19.399999999986335
 20
96.065826257583069
 30
0.0
 40
0.5
100
AcDbArc
 50
179.99999999999963
 51
194.99999999999918
  0
ARC
  5
2BB
100
AcDbEntity
  8
0
  6
CONTINUOUS
 62
               4
100
AcDbCircle
 10
20.087511073623887
 20
93.500000000001648
 30
0.0
 40
0.5
100
AcDbArc
 50
89.999999999999815
 51
194.99999999999952
  0
ARC
  5
2BC
100
AcDbEntity
  8
0
  6
CONTINUOUS
 62
               4
100
AcDbCircle
 10
31.900000000000659
 20
95.300000000002058
 30
0.0
 40
1.0
100
AcDbArc
 50
197.4576031237236
 51
11.309932474184668
  0
ARC
  5
2BD
100
AcDbEntity
  8
0
  6
CONTINUOUS
 62
               4
100
AcDbCircle
 10
21.221432297654019
 20
91.200000009397911
 30
0.0
 40
1.0
100
AcDbArc
 50
194.99999981259796
 51
269.99999999999937
  0
LINE
  5
2BE
100
AcDbEntity
  8
0
  6
CONTINUOUS
 62
               4
100
AcDbLine
 10
20.255506476348501
 20
90.941180969016898
 30
0.0
 11
18.917037086841788
 21
95.936416735031855
 31
0.0
  0
LINE
  5
2BF
100
AcDbEntity
  8
0
  6
CONTINUOUS
 62
               4
100
AcDbLine
 10
19.16794919477195
 20
95.000000000001648
 30
0.0
 11
32.400000000000432
 21
95.000000000002103
 31
0.0
  0
ARC
  5
2C0
100
AcDbEntity
  8
0
  6
CONTINUOUS
 62
               4
100
AcDbCircle
 10
32.400000000000318
 20
95.500000000002103
 30
0.0
 40
0.5
100
AcDbArc
 50
270.00000000000193
 51
0.0000000000025444
  0
LINE
  5
2C1
100
AcDbEntity
  8
0
  6
CONTINUOUS
 62
               4
100
AcDbLine
 10
21.221432297654815
 20
90.20000000939541
 30
0.0
 11
32.09999999999161
 21
90.200000009395637
 31
0.0
  0
LINE
  5
2C2
100
AcDbEntity
  8
0
  6
CONTINUOUS
 62
               4
100
AcDbLine
 10
20.087511073623887
 20
94.000000000001648
 30
0.0
 11
32.099999999990928
 21
94.000000000002103
 31
0.0
  0
LINE
  5
2C3
100
AcDbEntity
  8
0
  6
CONTINUOUS
 62
               4
100
AcDbLine
 10
25.499999999990109
 20
94.000000000001876
 30
0.0
 11
25.499999999990109
 21
95.000000000001876
 31
0.0
  0
LINE
  5
2C4
100
AcDbEntity
  8
0
  6
CONTINUOUS
 62
               4
100
AcDbLine
 10
26.499999999990109
 20
94.000000000001876
 30
0.0
 11
26.499999999990109
 21
95.000000000001876
 31
0.0
  0
LINE
  5
2C5
100
AcDbEntity
  8
0
  6
CONTINUOUS
 62
               4
100
AcDbLine
 10
32.59999999999161
 20
90.700000009395865
 30
0.0
 11
32.599999999990928
 21
93.500000000002331
 31
0.0
  0
ARC
  5
2C6
100
AcDbEntity
  8
0
  6
CONTINUOUS
 62
               4
100
AcDbCircle
 10
32.099999999990928
 20
93.500000000002103
 30
0.0
 40
0.5
100
AcDbArc
 50
0.000000000002519
 51
90.000000000002316
  0
ARC
  5
2C7
100
AcDbEntity
  8
0
  6
CONTINUOUS
 62
               4
100
AcDbCircle
 10
32.09999999999161
 20
90.700000009395637
 30
0.0
 40
0.5
100
AcDbArc
 50
270.00000000000267
 51
0.0000000000025444
  0
LINE
  5
2C8
100
AcDbEntity
  8
0
  6
CONTINUOUS
 62
               4
100
AcDbLine
 10
29.99999999998829
 20
90.200000009395637
 30
0.0
 11
29.99999999998829
 21
90.000000000002103
 31
0.0
  0
LINE
  5
2C9
100
AcDbEntity
  8
0
  6
CONTINUOUS
 62
               4
100
AcDbLine
 10
61.999999995454573
 20
108.60000000000247
 30
0.0
 11
61.89999999545455
 21
108.50000000000233
 31
0.0
  0
LINE
  5
2CA
100
AcDbEntity
  8
0
  6
CONTINUOUS
 62
               4
100
AcDbLine
 10
61.899999990923675
 20
115.50000000000233
 30
0.0
 11
61.999999995454459
 21
115.39999999547155
 31
0.0
  0
LINE
  5
2CB
100
AcDbEntity
  8
0
  6
CONTINUOUS
 62
               4
100
AcDbLine
 10
61.999999995454573
 20
108.60000000000247
 30
0.0
 11
61.999999995454459
 21
115.39999999547155
 31
0.0
  0
ARC
  5
2CC
100
AcDbEntity
  8
0
  6
CONTINUOUS
 62
               7
100
AcDbCircle
 10
57.899999999986221
 20
81.300000000002058
 30
0.0
 40
0.5
100
AcDbArc
 50
90.00000000000135
 51
180.00000000000114
  0
ARC
  5
2CD
100
AcDbEntity
  8
0
  6
CONTINUOUS
 62
               7
100
AcDbCircle
 10
61.399999999986335
 20
76.500000000001876
 30
0.0
 40
0.5
100
AcDbArc
 50
270.00000000000091
 51
0.0000000000015267
  0
LINE
  5
2CE
100
AcDbEntity
  8
0
  6
CONTINUOUS
 62
               7
100
AcDbLine
 10
61.399999999986335
 20
71.999999994250913
 30
0.0
 11
61.399999999986335
 21
75.999999994250913
 31
0.0
  0
ARC
  5
2CF
100
AcDbEntity
  8
0
  6
CONTINUOUS
 62
               7
100
AcDbCircle
 10
59.399999999986335
 20
72.000000000002103
 30
0.0
 40
2.0
100
AcDbArc
 50
180.00000000000196
 51
0.0000000000015267
  0
LINE
  5
2D0
100
AcDbEntity
  8
0
  6
CONTINUOUS
 62
               7
100
AcDbLine
 10
57.899999999986221
 20
81.800000000002058
 30
0.0
 11
60.7999999999887
 21
81.800000000002285
 31
0.0
  0
ARC
  5
2D1
100
AcDbEntity
  8
0
  6
CONTINUOUS
 62
               4
100
AcDbCircle
 10
61.399999999985653
 20
121.50000000000256
 30
0.0
 40
0.5
100
AcDbArc
 50
0.0000000000006361
 51
90.000000000000441
  0
LINE
  5
2D2
100
AcDbEntity
  8
0
  6
CONTINUOUS
 62
               4
100
AcDbLine
 10
60.799999999985516
 20
122.00000000000233
 30
0.0
 11
61.399999999985653
 21
122.00000000000256
 31
0.0
  0
LINE
  5
2D3
100
AcDbEntity
  8
0
  6
CONTINUOUS
 62
               4
100
AcDbLine
 10
61.899999995454777
 20
116.90000000000447
 30
0.0
 11
60.799999999985857
 21
116.90000000000447
 31
0.0
  0
LINE
  5
2D4
100
AcDbEntity
  8
0
  6
CONTINUOUS
 62
               4
100
AcDbLine
 10
61.89999999545455
 20
120.10000000000451
 30
0.0
 11
60.799999999985289
 21
120.10000000000429
 31
0.0
  0
LINE
  5
2D5
100
AcDbEntity
  8
0
  6
CONTINUOUS
 62
               7
100
AcDbLine
 10
61.899999995455801
 20
76.499999994251141
 30
0.0
 11
61.89999999545563
 21
82.000000000003979
 31
0.0
  0
LINE
  5
2D6
100
AcDbEntity
  8
0
  6
CONTINUOUS
 62
               7
100
AcDbLine
 10
24.0
 20
-7.9999999999972147
 30
0.0
 11
61.99999999999045
 21
-7.9999999999935767
 31
0.0
  0
LINE
  5
2D7
100
AcDbEntity
  8
0
  6
CONTINUOUS
 62
               7
100
AcDbLine
 10
60.799999999989154
 20
76.000000000006196
 30
0.0
 11
60.799999999988643
 21
82.000000000003922
 31
0.0
  0
LINE
  5
2D8
100
AcDbEntity
  8
0
  6
CONTINUOUS
 62
               7
100
AcDbLine
 10
24.999999999997954
 20
54.267949172766578
 30
0.0
 11
61.999999999998408
 21
54.267949172766578
 31
0.0
  0
LINE
  5
2D9
100
AcDbEntity
  8
0
  6
CONTINUOUS
 62
               7
100
AcDbLine
 10
24.999999999998181
 20
56.000000000015746
 30
0.0
 11
62.000000000000455
 21
56.000000000015746
 31
0.0
  0
LINE
  5
2DA
100
AcDbEntity
  8
0
  6
CONTINUOUS
 62
               7
100
AcDbLine
 10
24.999999999998749
 20
60.000000000015746
 30
0.0
 11
61.999999999999091
 21
60.000000000015746
 31
0.0
  0
LINE
  5
2DB
100
AcDbEntity
  8
0
  6
CONTINUOUS
 62
               7
100
AcDbLine
 10
24.999999999998863
 20
61.732050867692863
 30
0.0
 11
61.999999999999318
 21
61.732050867692863
 31
0.0
  0
LINE
  5
2DC
100
AcDbEntity
  8
0
  6
CENTER
 62
               2
100
AcDbLine
 10
12.999999999999943
 20
5.9754920106165059
 30
0.0
 11
12.999999999999943
 21
53.759554886618389
 31
0.0
  0
LINE
  5
2DD
100
AcDbEntity
  8
0
  6
CONTINUOUS
 62
               4
100
AcDbLine
 10
29.899999999984743
 20
122.0000000000021
 30
0.0
 11
60.799999999985516
 21
122.00000000000233
 31
0.0
  0
LINE
  5
2DE
100
AcDbEntity
  8
0
  6
CENTER
 62
               2
100
AcDbLine
 10
17.0
 20
68.085065431888836
 30
0.0
 11
17.0
 21
74.21322222591067
 31
0.0
  0
LINE
  5
2DF
100
AcDbEntity
  8
0
  6
CENTER
 62
               2
100
AcDbLine
 10
12.497207413440492
 20
72.000000000000057
 30
0.0
 11
21.255089448080071
 21
72.000000000000057
 31
0.0
  0
CIRCLE
  5
2E0
100
AcDbEntity
  8
0
  6
CONTINUOUS
 62
               2
100
AcDbCircle
 10
17.0
 20
72.000000000000057
 30
0.0
 40
2.5
  0
CIRCLE
  5
2E1
100
AcDbEntity
  8
0
  6
CONTINUOUS
 62
               7
100
AcDbCircle
 10
17.0
 20
72.000000000000057
 30
0.0
 40
2.1000000000000001
  0
LINE
  5
2E2
100
AcDbEntity
  8
0
  6
CONTINUOUS
 62
               7
100
AcDbLine
 10
24.0
 20
80.000000000000057
 30
0.0
 11
24.0
 21
-11.0
 31
0.0
  0
LINE
  5
2E3
100
AcDbEntity
  8
0
  6
CONTINUOUS
 62
               4
100
AcDbLine
 10
18.899999999986335
 20
96.065826257582955
 30
0.0
 11
18.899999999985425
 21
117.99999997340166
 31
0.0
  0
LINE
  5
2E4
100
AcDbEntity
  8
0
  6
CENTER
 62
             200
100
AcDbLine
 10
20.389104190847661
 20
101.30000000000251
 30
0.0
 11
6.4893901490002008
 21
101.30000000000285
 31
0.0
  0
LINE
  5
2E5
100
AcDbEntity
  8
0
  6
CONTINUOUS
 62
               4
100
AcDbLine
 10
17.899999999998158
 20
102.0500000000024
 30
0.0
 11
14.71756489113011
 21
102.0500000000024
 31
0.0
  0
LINE
  5
2E6
100
AcDbEntity
  8
0
  6
CONTINUOUS
 62
               4
100
AcDbLine
 10
17.899999999998045
 20
100.5500000000024
 30
0.0
 11
15.120689891130155
 21
100.5500000000024
 31
0.0
  0
LINE
  5
2E7
100
AcDbEntity
  8
0
  6
CONTINUOUS
 62
               4
100
AcDbLine
 10
18.199999999998113
 20
99.300000000002399
 30
0.0
 11
18.899999999998158
 21
99.300000000002399
 31
0.0
  0
ARC
  5
2E8
100
AcDbEntity
  8
0
  6
CONTINUOUS
 62
               4
100
AcDbCircle
 10
18.199999999998113
 20
99.600000000002353
 30
0.0
 40
0.3
100
AcDbArc
 50
179.99999999999963
 51
269.99999999999937
  0
LINE
  5
2E9
100
AcDbEntity
  8
0
  6
CONTINUOUS
 62
               4
100
AcDbLine
 10
13.687564891130137
 20
102.0500000000024
 30
0.0
 11
10.89912739113015
 21
102.0500000000024
 31
0.0
  0
LINE
  5
2EA
100
AcDbEntity
  8
0
  6
CONTINUOUS
 62
               4
100
AcDbLine
 10
14.059127391130119
 20
100.55000000000251
 30
0.0
 11
10.89912739113015
 21
100.55000000000251
 31
0.0
  0
LINE
  5
2EB
100
AcDbEntity
  8
0
  6
CONTINUOUS
 62
               4
100
AcDbLine
 10
10.89912739113015
 20
101.05000000000251
 30
0.0
 11
7.3991273911301505
 21
101.05000000000251
 31
0.0
  0
LINE
  5
2EC
100
AcDbEntity
  8
0
  6
CONTINUOUS
 62
               4
100
AcDbLine
 10
10.89912739113015
 20
101.55000000000251
 30
0.0
 11
7.3991273911301505
 21
101.55000000000251
 31
0.0
  0
LINE
  5
2ED
100
AcDbEntity
  8
0
  6
CONTINUOUS
 62
               4
100
AcDbLine
 10
10.89912739113015
 20
102.0500000000024
 30
0.0
 11
10.89912739113015
 21
100.55000000000251
 31
0.0
  0
LINE
  5
2EE
100
AcDbEntity
  8
0
  6
CONTINUOUS
 62
               4
100
AcDbLine
 10
7.3991273911301505
 20
101.55000000000251
 30
0.0
 11
7.3991273911301505
 21
101.05000000000251
 31
0.0
  0
LINE
  5
2EF
100
AcDbEntity
  8
0
  6
CONTINUOUS
 62
               4
100
AcDbLine
 10
28.899999999984743
 20
121.0000000000021
 30
0.0
 11
28.899999999984743
 21
119.49999998217748
 31
0.0
  0
ARC
  5
2F0
100
AcDbEntity
  8
0
  6
CONTINUOUS
 62
               4
100
AcDbCircle
 10
28.399999999984743
 20
119.49999998217748
 30
0.0
 40
0.5
100
AcDbArc
 50
269.99999999999937
 51
0.0
  0
ARC
  5
2F1
100
AcDbEntity
  8
0
  6
CONTINUOUS
 62
               4
100
AcDbCircle
 10
29.899999999984743
 20
121.0000000000021
 30
0.0
 40
1.0
100
AcDbArc
 50
89.999999999999815
 51
179.99999999999963
  0
ARC
  5
2F2
100
AcDbEntity
  8
0
  6
CONTINUOUS
 62
               4
100
AcDbCircle
 10
19.899999999985425
 20
117.99999998217748
 30
0.0
 40
1.0
100
AcDbArc
 50
89.999999999999815
 51
179.99999999999963
  0
LINE
  5
2F3
100
AcDbEntity
  8
0
  6
CONTINUOUS
 62
               4
100
AcDbLine
 10
19.899999998700991
 20
118.99999998217748
 30
0.0
 11
28.399999998700991
 21
118.99999998217748
 31
0.0
  0
LINE
  5
2F4
100
AcDbEntity
  8
0
  6
CONTINUOUS
 62
               4
100
AcDbLine
 10
18.199999999998113
 20
103.3000000000024
 30
0.0
 11
18.899999999998158
 21
103.3000000000024
 31
0.0
  0
ARC
  5
2F5
100
AcDbEntity
  8
0
  6
CONTINUOUS
 62
               4
100
AcDbCircle
 10
18.199999999998113
 20
103.00000000000233
 30
0.0
 40
0.3
100
AcDbArc
 50
89.999999999999815
 51
179.99999999999963
  0
LINE
  5
2F6
100
AcDbEntity
  8
0
  6
CONTINUOUS
 62
               4
100
AcDbLine
 10
17.899999999997931
 20
99.600000000002353
 30
0.0
 11
17.899999999998158
 21
103.00000000000244
 31
0.0
  0
LINE
  5
2F7
100
AcDbEntity
  8
0
  6
CONTINUOUS
 62
             200
100
AcDbLine
 10
15.349127391130082
 20
99.700000000002376
 30
0.0
 11
14.489127391130182
 21
102.90000000000242
 31
0.0
  0
LINE
  5
2F8
100
AcDbEntity
  8
0
  6
CONTINUOUS
 62
             200
100
AcDbLine
 10
14.31912739113011
 20
99.700000000002376
 30
0.0
 11
13.45912739113021
 21
102.90000000000242
 31
0.0
  0
LINE
  5
2F9
100
AcDbEntity
  8
0
  6
CONTINUOUS
 62
               4
100
AcDbLine
 10
61.89999999545563
 20
82.000000000003979
 30
0.0
 11
61.89999999545455
 21
121.50000000000256
 31
0.0
  0
LINE
  5
2FA
100
AcDbEntity
  8
0
  6
CONTINUOUS
 62
               4
100
AcDbLine
 10
60.799999999988643
 20
82.000000000003922
 30
0.0
 11
60.799999999985857
 21
117.00000000000438
 31
0.0
  0
CIRCLE
  5
2FB
100
AcDbEntity
  8
0
  6
CONTINUOUS
 62
               2
100
AcDbCircle
 10
12.99999999998073
 20
43.000000000000085
 30
0.0
 40
6.5
  0
CIRCLE
  5
2FC
100
AcDbEntity
  8
0
  6
CONTINUOUS
 62
               7
100
AcDbCircle
 10
12.99999999998073
 20
43.000000000000085
 30
0.0
 40
5.6800003051757812
  0
CIRCLE
  5
2FD
100
AcDbEntity
  8
0
  6
CONTINUOUS
 62
               2
100
AcDbCircle
 10
12.99999999998073
 20
18.000000000000028
 30
0.0
 40
6.5
  0
CIRCLE
  5
2FE
100
AcDbEntity
  8
0
  6
CONTINUOUS
 62
               7
100
AcDbCircle
 10
12.99999999998073
 20
18.000000000000028
 30
0.0
 40
5.6800003051757812
  0
ENDBLK
  5
2FF
100
AcDbEntity
  8
0
100
AcDbBlockEnd
  0
BLOCK
  5
300
100
AcDbEntity
  8
0
100
AcDbBlockBegin
  2
PA24A7-8
 70
               0
 10
0.0
 20
0.0
 30
0.0
  3
PA24A7-8
  1

  0
LINE
  5
301
100
AcDbEntity
  8
0
  6
CENTER
 62
               2
100
AcDbLine
 10
-4.9999999825548116
 20
0.0
 30
0.0
 11
5.0
 21
0.0
 31
0.0
  0
LINE
  5
302
100
AcDbEntity
  8
0
  6
CENTER
 62
               2
100
AcDbLine
 10
-4.9999999825548116
 20
75.000000000000057
 30
0.0
 11
5.0
 21
75.000000000000057
 31
0.0
  0
ARC
  5
303
100
AcDbEntity
  8
0
  6
CONTINUOUS
 62
               4
100
AcDbCircle
 10
-26.550000190722727
 20
89.193745613092062
 30
0.0
 40
0.800000011920929
100
AcDbArc
 50
359.99998201393447
 51
73.808645430493726
  0
LINE
  5
304
100
AcDbEntity
  8
0
  6
CONTINUOUS
 62
               4
100
AcDbLine
 10
-25.749999999987864
 20
89.19374561309229
 30
0.0
 11
-25.749999999987295
 21
87.7999999999941
 31
0.0
  0
ARC
  5
305
100
AcDbEntity
  8
0
  6
CONTINUOUS
 62
               4
100
AcDbCircle
 10
-25.499999999987239
 20
87.299999999994554
 30
0.0
 40
0.5
100
AcDbArc
 50
0.0000000000196431
 51
90.00000000001944
  0
LINE
  5
306
100
AcDbEntity
  8
0
  6
CONTINUOUS
 62
               4
100
AcDbLine
 10
-30.249999999987864
 20
89.193745613090357
 30
0.0
 11
-30.249999999987295
 21
87.799999999992281
 31
0.0
  0
ARC
  5
307
100
AcDbEntity
  8
0
  6
CONTINUOUS
 62
               4
100
AcDbCircle
 10
-29.449999809253001
 20
89.193745613090698
 30
0.0
 40
0.800000011920929
100
AcDbArc
 50
106.19135456955514
 51
180.00001798611356
  0
LINE
  5
308
100
AcDbEntity
  8
0
  6
CONTINUOUS
 62
               4
100
AcDbLine
 10
-30.799999999987364
 20
87.799999999992281
 30
0.0
 11
-30.799999999988046
 21
89.499999999993236
 31
0.0
  0
ARC
  5
309
100
AcDbEntity
  8
0
  6
CONTINUOUS
 62
               4
100
AcDbCircle
 10
-31.299999999988046
 20
89.499999999992895
 30
0.0
 40
0.5
100
AcDbArc
 50
0.0000000000196431
 51
90.00000000001944
  0
ARC
  5
30A
100
AcDbEntity
  8
0
  6
CONTINUOUS
 62
               4
100
AcDbCircle
 10
-27.999999999985704
 20
84.199999809258372
 30
0.0
 40
6.0
100
AcDbArc
 50
73.808645430493712
 51
106.19128262519777
  0
LINE
  5
30B
100
AcDbEntity
  8
0
  6
CONTINUOUS
 62
               4
100
AcDbLine
 10
-25.749999999987523
 20
88.499999999994373
 30
0.0
 11
-30.249999999987523
 21
88.49999999999244
 31
0.0
  0
LINE
  5
30C
100
AcDbEntity
  8
0
  6
CONTINUOUS
 62
               4
100
AcDbLine
 10
-25.499999999987409
 20
87.799999999994554
 30
0.0
 11
-30.799999999987364
 21
87.799999999992281
 31
0.0
  0
LINE
  5
30D
100
AcDbEntity
  8
0
  6
CONTINUOUS
 62
               4
100
AcDbLine
 10
-29.999999999988034
 20
90.200000009387566
 30
0.0
 11
-29.999999999987921
 21
89.999999999994031
 31
0.0
  0
LINE
  5
30E
100
AcDbEntity
  8
0
  6
CONTINUOUS
 62
               4
100
AcDbLine
 10
-29.536228429442843
 20
89.999999999993463
 30
0.0
 11
-32.899999999989603
 21
89.999999999992326
 31
0.0
  0
LINE
  5
30F
100
AcDbEntity
  8
0
  6
CONTINUOUS
 62
               7
100
AcDbLine
 10
-58.000000000000966
 20
53.999999880798157
 30
0.0
 11
-57.999999999999034
 21
61.999999880798157
 31
0.0
  0
LINE
  5
310
100
AcDbEntity
  8
0
  6
CONTINUOUS
 62
               7
100
AcDbLine
 10
-61.700000000000841
 20
54.499999880798214
 30
0.0
 11
-61.699999999999136
 21
61.499999880798214
 31
0.0
  0
LINE
  5
311
100
AcDbEntity
  8
0
  6
CONTINUOUS
 62
               7
100
AcDbLine
 10
-61.999999999992866
 20
53.999999880798157
 30
0.0
 11
-58.000000000000966
 21
53.999999880798157
 31
0.0
  0
LINE
  5
312
100
AcDbEntity
  8
0
  6
CONTINUOUS
 62
               7
100
AcDbLine
 10
-61.999999999992866
 20
61.999999880798157
 30
0.0
 11
-57.999999999999034
 21
61.999999880798157
 31
0.0
  0
LINE
  5
313
100
AcDbEntity
  8
0
  6
CONTINUOUS
 62
               7
100
AcDbLine
 10
-61.700000000000841
 20
54.499999880798214
 30
0.0
 11
-58.000000000000853
 21
54.499999880798214
 31
0.0
  0
LINE
  5
314
100
AcDbEntity
  8
0
  6
CONTINUOUS
 62
               7
100
AcDbLine
 10
-61.699999999999136
 20
61.499999880798214
 30
0.0
 11
-57.999999999999147
 21
61.499999880798214
 31
0.0
  0
LINE
  5
315
100
AcDbEntity
  8
0
  6
CONTINUOUS
 62
               7
100
AcDbLine
 10
-61.700000000000841
 20
54.499999880798214
 30
0.0
 11
-61.999999999992866
 21
55.019614934928768
 31
0.0
  0
LINE
  5
316
100
AcDbEntity
  8
0
  6
CONTINUOUS
 62
               7
100
AcDbLine
 10
-61.699999999999136
 20
61.499999880798214
 30
0.0
 11
-61.999999999992895
 21
60.98038458824908
 31
0.0
  0
LINE
  5
317
100
AcDbEntity
  8
0
  6
CENTER
 62
               2
100
AcDbLine
 10
-57.32862963667273
 20
57.999999999998977
 30
0.0
 11
-63.239852399639943
 21
58.000000000000455
 31
0.0
  0
LINE
  5
318
100
AcDbEntity
  8
0
  6
CONTINUOUS
 62
               7
100
AcDbLine
 10
-62.000000000009749
 20
-24.5
 30
0.0
 11
-25.000000000009521
 21
-24.499999999996589
 31
0.0
  0
LINE
  5
319
100
AcDbEntity
  8
0
  6
CONTINUOUS
 62
               7
100
AcDbLine
 10
-51.600000000000449
 20
-37.599999999998317
 30
0.0
 11
-52.000000000000313
 21
-37.999999999998295
 31
0.0
  0
LINE
  5
31A
100
AcDbEntity
  8
0
  6
CONTINUOUS
 62
               7
100
AcDbLine
 10
-35.400000000000404
 20
-37.599999999998317
 30
0.0
 11
-35.000000000000313
 21
-37.999999999998295
 31
0.0
  0
LINE
  5
31B
100
AcDbEntity
  8
0
  6
CONTINUOUS
 62
               7
100
AcDbLine
 10
-51.600000000000449
 20
-37.599999999998317
 30
0.0
 11
-35.400000000000404
 21
-37.599999999998317
 31
0.0
  0
LINE
  5
31C
100
AcDbEntity
  8
0
  6
CONTINUOUS
 62
               7
100
AcDbLine
 10
-35.000000000000313
 20
-37.999999999998295
 30
0.0
 11
-25.500000000000313
 21
-37.999999999998295
 31
0.0
  0
ARC
  5
31D
100
AcDbEntity
  8
0
  6
CONTINUOUS
 62
               7
100
AcDbCircle
 10
-61.500000000000313
 20
-37.499999999998295
 30
0.0
 40
0.5
100
AcDbArc
 50
179.99999999999963
 51
269.99999999999937
  0
LINE
  5
31E
100
AcDbEntity
  8
0
  6
CONTINUOUS
 62
               7
100
AcDbLine
 10
-61.500000000000313
 20
-37.999999999998295
 30
0.0
 11
-52.000000000000313
 21
-37.999999999998295
 31
0.0
  0
ARC
  5
31F
100
AcDbEntity
  8
0
  6
CONTINUOUS
 62
               7
100
AcDbCircle
 10
-25.500000000000313
 20
-37.499999999998295
 30
0.0
 40
0.5
100
AcDbArc
 50
269.99999999999937
 51
0.0
  0
LINE
  5
320
100
AcDbEntity
  8
0
  6
DASHED
 62
               2
100
AcDbLine
 10
-12.999999999999915
 20
48.699999999999932
 30
0.0
 11
-12.999999999999915
 21
50.5
 31
0.0
  0
LINE
  5
321
100
AcDbEntity
  8
0
  6
CONTINUOUS
 62
               7
100
AcDbLine
 10
0.0
 20
-11.0
 30
0.0
 11
0.0
 21
80.000000000000057
 31
0.0
  0
CIRCLE
  5
322
100
AcDbEntity
  8
0
  6
DASHED
 62
               2
100
AcDbCircle
 10
-12.999999999999915
 20
5.4999999999999432
 30
0.0
 40
8.3000001907348633
  0
CIRCLE
  5
323
100
AcDbEntity
  8
0
  6
DASHED
 62
               7
100
AcDbCircle
 10
-12.999999999999915
 20
5.4999999999999432
 30
0.0
 40
7.4000000000000004
  0
CIRCLE
  5
324
100
AcDbEntity
  8
0
  6
DASHED
 62
               2
100
AcDbCircle
 10
-12.999999999999915
 20
30.5
 30
0.0
 40
8.3000001907348633
  0
CIRCLE
  5
325
100
AcDbEntity
  8
0
  6
DASHED
 62
               7
100
AcDbCircle
 10
-12.999999999999915
 20
30.5
 30
0.0
 40
7.4000000000000004
  0
CIRCLE
  5
326
100
AcDbEntity
  8
0
  6
DASHED
 62
               2
100
AcDbCircle
 10
-12.999999999999915
 20
55.5
 30
0.0
 40
8.3000001907348633
  0
CIRCLE
  5
327
100
AcDbEntity
  8
0
  6
DASHED
 62
               7
100
AcDbCircle
 10
-12.999999999999915
 20
55.5
 30
0.0
 40
7.4000000000000004
  0
LINE
  5
328
100
AcDbEntity
  8
0
  6
CENTER
 62
               2
100
AcDbLine
 10
-12.999999999999915
 20
-5.2079410309037257
 30
0.0
 11
-12.999999999999915
 21
66.786371353768175
 31
0.0
  0
LINE
  5
329
100
AcDbEntity
  8
0
  6
CONTINUOUS
 62
               7
100
AcDbLine
 10
0.0
 20
80.000000000000057
 30
0.0
 11
-24.999999999988148
 21
80.000000000000057
 31
0.0
  0
LINE
  5
32A
100
AcDbEntity
  8
0
  6
CONTINUOUS
 62
               7
100
AcDbLine
 10
0.0
 20
-11.0
 30
0.0
 11
-23.999999999999972
 21
-11.0
 31
0.0
  0
LINE
  5
32B
100
AcDbEntity
  8
0
  6
CENTER
 62
               2
100
AcDbLine
 10
-22.646775324633523
 20
55.5
 30
0.0
 11
-1.877717280904676
 21
55.5
 31
0.0
  0
LINE
  5
32C
100
AcDbEntity
  8
0
  6
CENTER
 62
               2
100
AcDbLine
 10
-22.646775324633523
 20
30.5
 30
0.0
 11
-1.877717280904676
 21
30.5
 31
0.0
  0
LINE
  5
32D
100
AcDbEntity
  8
0
  6
CENTER
 62
               2
100
AcDbLine
 10
-22.646775324633523
 20
5.4999999999999432
 30
0.0
 11
-1.877717280904676
 21
5.4999999999999432
 31
0.0
  0
ARC
  5
32E
100
AcDbEntity
  8
0
  6
CONTINUOUS
 62
               7
100
AcDbCircle
 10
-59.39999999998949
 20
71.919155751114829
 30
0.0
 40
2.0
100
AcDbArc
 50
294.99999850782217
 51
359.99999999999199
  0
LINE
  5
32F
100
AcDbEntity
  8
0
  6
CONTINUOUS
 62
               7
100
AcDbLine
 10
-61.999999999558185
 20
68.499999999999943
 30
0.0
 11
-58.554763555084691
 21
70.10654014348944
 31
0.0
  0
LINE
  5
330
100
AcDbEntity
  8
0
  6
CONTINUOUS
 62
               7
100
AcDbLine
 10
-57.399999999988125
 20
81.999999999999375
 30
0.0
 11
-57.39999999998949
 21
71.919155751114602
 31
0.0
  0
LINE
  5
331
100
AcDbEntity
  8
0
  6
CONTINUOUS
 62
               7
100
AcDbLine
 10
-60.899999999554637
 20
81.999999999999829
 30
0.0
 11
-60.89999999955532
 21
75.999999999999829
 31
0.0
  0
LINE
  5
332
100
AcDbEntity
  8
0
  6
CONTINUOUS
 62
               7
100
AcDbLine
 10
-61.999999999988944
 20
75.999999999999943
 30
0.0
 11
-60.89999999955532
 21
75.999999999999829
 31
0.0
  0
LINE
  5
333
100
AcDbEntity
  8
0
  6
CONTINUOUS
 62
               7
100
AcDbLine
 10
-25.000000000002814
 20
-37.499999999998295
 30
0.0
 11
-24.999999999987921
 21
81.999999999995396
 31
0.0
  0
LINE
  5
334
100
AcDbEntity
  8
0
  6
CONTINUOUS
 62
               7
100
AcDbLine
 10
-24.99999999998974
 20
66.999999999996419
 30
0.0
 11
-61.999999999990081
 21
66.999999999999943
 31
0.0
  0
LINE
  5
335
100
AcDbEntity
  8
0
  6
CONTINUOUS
 62
               4
100
AcDbLine
 10
-29.999999999988376
 20
94.699999999988279
 30
0.0
 11
-29.999999999988376
 21
93.999999999995623
 31
0.0
  0
ARC
  5
336
100
AcDbEntity
  8
0
  6
CONTINUOUS
 62
               4
100
AcDbCircle
 10
-29.007106781175793
 20
94.199999999988279
 30
0.0
 40
0.5
100
AcDbArc
 50
45.000000000005194
 51
90.000000000004789
  0
LINE
  5
337
100
AcDbEntity
  8
0
  6
CONTINUOUS
 62
               4
100
AcDbLine
 10
-24.999999999987921
 20
81.999999999995055
 30
0.0
 11
-24.999999999988148
 21
87.299999999994554
 31
0.0
  0
LINE
  5
338
100
AcDbEntity
  8
0
  6
CONTINUOUS
 62
               7
100
AcDbLine
 10
-24.999999999988603
 20
81.999999999995396
 30
0.0
 11
-60.799999999988557
 21
81.999999999997556
 31
0.0
  0
LINE
  5
339
100
AcDbEntity
  8
0
  6
CONTINUOUS
 62
               4
100
AcDbLine
 10
-32.899999999985738
 20
116.09999999889629
 30
0.0
 11
-32.799999999985829
 21
116.09999999889629
 31
0.0
  0
LINE
  5
33A
100
AcDbEntity
  8
0
  6
CONTINUOUS
 62
               4
100
AcDbLine
 10
-32.899999999989404
 20
89.999999999992326
 30
0.0
 11
-32.899999999985056
 21
121.99999999999574
 31
0.0
  0
LINE
  5
33B
100
AcDbEntity
  8
0
  6
CONTINUOUS
 62
               4
100
AcDbLine
 10
-30.799999999988103
 20
94.199999999989302
 30
0.0
 11
-32.899999999988125
 21
94.199999999989643
 31
0.0
  0
LINE
  5
33C
100
AcDbEntity
  8
0
  6
CONTINUOUS
 62
               4
100
AcDbLine
 10
-29.007106781174997
 20
94.699999999989075
 30
0.0
 11
-30.799999999988103
 21
94.699999999989302
 31
0.0
  0
LINE
  5
33D
100
AcDbEntity
  8
0
  6
CONTINUOUS
 62
               4
100
AcDbLine
 10
-30.799999999988103
 20
94.19999999170949
 30
0.0
 11
-30.799999999988103
 21
94.699999999989302
 31
0.0
  0
LINE
  5
33E
100
AcDbEntity
  8
0
  6
CONTINUOUS
 62
               4
100
AcDbLine
 10
-28.099999999995106
 20
93.999999999995509
 30
0.0
 11
-28.653553390581891
 21
94.553553390582294
 31
0.0
  0
LINE
  5
33F
100
AcDbEntity
  8
0
  6
CONTINUOUS
 62
               4
100
AcDbLine
 10
-60.799999999985374
 20
116.99999999999801
 30
0.0
 11
-61.399999999985511
 21
116.99999999999801
 31
0.0
  0
LINE
  5
340
100
AcDbEntity
  8
0
  6
CONTINUOUS
 62
               4
100
AcDbLine
 10
-60.799999999985374
 20
119.99999999999801
 30
0.0
 11
-61.399999999985283
 21
119.99999999999801
 31
0.0
  0
LINE
  5
341
100
AcDbEntity
  8
0
  6
CONTINUOUS
 62
               4
100
AcDbLine
 10
-60.799999999985374
 20
119.99999998575862
 30
0.0
 11
-60.799999999985147
 21
121.99999998575862
 31
0.0
  0
ARC
  5
342
100
AcDbEntity
  8
0
  6
CONTINUOUS
 62
               4
100
AcDbCircle
 10
-61.399999999985283
 20
119.49999999999801
 30
0.0
 40
0.5
100
AcDbArc
 50
89.999999999997996
 51
179.99999999999778
  0
ARC
  5
343
100
AcDbEntity
  8
0
  6
CONTINUOUS
 62
               4
100
AcDbCircle
 10
-61.399999999985283
 20
117.49999999999801
 30
0.0
 40
0.5
100
AcDbArc
 50
179.99999999999775
 51
269.99999999999756
  0
ARC
  5
344
100
AcDbEntity
  8
0
  6
CONTINUOUS
 62
               4
100
AcDbCircle
 10
-19.399999999985965
 20
96.065826257576703
 30
0.0
 40
0.5
100
AcDbArc
 50
344.99999999999966
 51
0.0
  0
ARC
  5
345
100
AcDbEntity
  8
0
  6
CONTINUOUS
 62
               4
100
AcDbCircle
 10
-20.087511073623517
 20
93.499999999995168
 30
0.0
 40
0.5
100
AcDbArc
 50
345.00000000000006
 51
89.999999999999801
  0
ARC
  5
346
100
AcDbEntity
  8
0
  6
CONTINUOUS
 62
               4
100
AcDbCircle
 10
-31.90000000000029
 20
95.299999999995691
 30
0.0
 40
1.0
100
AcDbArc
 50
168.69006752581495
 51
342.54239687627518
  0
ARC
  5
347
100
AcDbEntity
  8
0
  6
CONTINUOUS
 62
               4
100
AcDbCircle
 10
-21.221432297653649
 20
91.200000009391545
 30
0.0
 40
1.0
100
AcDbArc
 50
269.99999999999937
 51
345.00000018740081
  0
LINE
  5
348
100
AcDbEntity
  8
0
  6
CONTINUOUS
 62
               4
100
AcDbLine
 10
-20.255506476348131
 20
90.941180969010531
 30
0.0
 11
-18.917037086841418
 21
95.936416735025375
 31
0.0
  0
LINE
  5
349
100
AcDbEntity
  8
0
  6
CONTINUOUS
 62
               4
100
AcDbLine
 10
-29.899999999984374
 20
121.99999999999574
 30
0.0
 11
-60.799999999985147
 21
121.99999999999596
 31
0.0
  0
LINE
  5
34A
100
AcDbEntity
  8
0
  6
CONTINUOUS
 62
               4
100
AcDbLine
 10
-19.16794919477158
 20
94.999999999995168
 30
0.0
 11
-32.400000000000063
 21
94.999999999995737
 31
0.0
  0
ARC
  5
34B
100
AcDbEntity
  8
0
  6
CONTINUOUS
 62
               4
100
AcDbCircle
 10
-32.399999999999949
 20
95.499999999995737
 30
0.0
 40
0.5
100
AcDbArc
 50
179.99999999999704
 51
269.99999999999687
  0
LINE
  5
34C
100
AcDbEntity
  8
0
  6
CONTINUOUS
 62
               4
100
AcDbLine
 10
-21.221432297654445
 20
90.200000009389043
 30
0.0
 11
-32.09999999999124
 21
90.200000009389271
 31
0.0
  0
LINE
  5
34D
100
AcDbEntity
  8
0
  6
CONTINUOUS
 62
               4
100
AcDbLine
 10
-20.087511073623517
 20
93.999999999995168
 30
0.0
 11
-32.099999999990558
 21
93.999999999995737
 31
0.0
  0
LINE
  5
34E
100
AcDbEntity
  8
0
  6
CONTINUOUS
 62
               4
100
AcDbLine
 10
-25.49999999998974
 20
93.999999999995509
 30
0.0
 11
-25.49999999998974
 21
94.999999999995509
 31
0.0
  0
LINE
  5
34F
100
AcDbEntity
  8
0
  6
CONTINUOUS
 62
               4
100
AcDbLine
 10
-26.49999999998974
 20
93.999999999995509
 30
0.0
 11
-26.49999999998974
 21
94.999999999995509
 31
0.0
  0
LINE
  5
350
100
AcDbEntity
  8
0
  6
CONTINUOUS
 62
               4
100
AcDbLine
 10
-32.59999999999124
 20
90.700000009389385
 30
0.0
 11
-32.599999999990558
 21
93.49999999999585
 31
0.0
  0
ARC
  5
351
100
AcDbEntity
  8
0
  6
CONTINUOUS
 62
               4
100
AcDbCircle
 10
-32.099999999990558
 20
93.499999999995737
 30
0.0
 40
0.5
100
AcDbArc
 50
89.999999999997286
 51
179.99999999999707
  0
ARC
  5
352
100
AcDbEntity
  8
0
  6
CONTINUOUS
 62
               4
100
AcDbCircle
 10
-32.09999999999124
 20
90.700000009389271
 30
0.0
 40
0.5
100
AcDbArc
 50
179.99999999999707
 51
269.99999999999687
  0
LINE
  5
353
100
AcDbEntity
  8
0
  6
CONTINUOUS
 62
               4
100
AcDbLine
 10
-61.999999995454203
 20
108.59999999999599
 30
0.0
 11
-61.899999995454181
 21
108.49999999999596
 31
0.0
  0
LINE
  5
354
100
AcDbEntity
  8
0
  6
CONTINUOUS
 62
               4
100
AcDbLine
 10
-61.899999990923305
 20
115.49999999999596
 30
0.0
 11
-61.99999999545409
 21
115.39999999546518
 31
0.0
  0
LINE
  5
355
100
AcDbEntity
  8
0
  6
CONTINUOUS
 62
               4
100
AcDbLine
 10
-61.999999995454203
 20
108.59999999999599
 30
0.0
 11
-61.99999999545409
 21
115.39999999546518
 31
0.0
  0
ARC
  5
356
100
AcDbEntity
  8
0
  6
CONTINUOUS
 62
               7
100
AcDbCircle
 10
-57.899999999985852
 20
81.299999999995691
 30
0.0
 40
0.5
100
AcDbArc
 50
359.99999999999767
 51
89.999999999998266
  0
ARC
  5
357
100
AcDbEntity
  8
0
  6
CONTINUOUS
 62
               7
100
AcDbCircle
 10
-61.399999999985965
 20
76.499999999995396
 30
0.0
 40
0.5
100
AcDbArc
 50
179.99999999999807
 51
269.9999999999979
  0
LINE
  5
358
100
AcDbEntity
  8
0
  6
CONTINUOUS
 62
               7
100
AcDbLine
 10
-61.399999999985965
 20
71.999999994244547
 30
0.0
 11
-61.399999999985965
 21
75.999999994244547
 31
0.0
  0
ARC
  5
359
100
AcDbEntity
  8
0
  6
CONTINUOUS
 62
               7
100
AcDbCircle
 10
-59.399999999985965
 20
71.999999999995737
 30
0.0
 40
2.0
100
AcDbArc
 50
179.99999999999804
 51
359.99999999999767
  0
LINE
  5
35A
100
AcDbEntity
  8
0
  6
CONTINUOUS
 62
               7
100
AcDbLine
 10
-57.899999999985852
 20
81.799999999995691
 30
0.0
 11
-60.79999999998833
 21
81.799999999995805
 31
0.0
  0
ARC
  5
35B
100
AcDbEntity
  8
0
  6
CONTINUOUS
 62
               4
100
AcDbCircle
 10
-61.399999999985283
 20
121.49999999999608
 30
0.0
 40
0.5
100
AcDbArc
 50
89.999999999999162
 51
179.99999999999895
  0
LINE
  5
35C
100
AcDbEntity
  8
0
  6
CONTINUOUS
 62
               4
100
AcDbLine
 10
-60.799999999985147
 20
121.99999999999596
 30
0.0
 11
-61.399999999985283
 21
121.99999999999608
 31
0.0
  0
LINE
  5
35D
100
AcDbEntity
  8
0
  6
CONTINUOUS
 62
               4
100
AcDbLine
 10
-61.899999995454408
 20
116.89999999999799
 30
0.0
 11
-60.799999999985488
 21
116.89999999999799
 31
0.0
  0
LINE
  5
35E
100
AcDbEntity
  8
0
  6
CONTINUOUS
 62
               4
100
AcDbLine
 10
-61.899999995454181
 20
120.09999999999803
 30
0.0
 11
-60.799999999984919
 21
120.09999999999792
 31
0.0
  0
LINE
  5
35F
100
AcDbEntity
  8
0
  6
CONTINUOUS
 62
               7
100
AcDbLine
 10
-61.899999995455431
 20
76.499999994244661
 30
0.0
 11
-61.899999995455261
 21
81.999999999997627
 31
0.0
  0
LINE
  5
360
100
AcDbEntity
  8
0
  6
CONTINUOUS
 62
               7
100
AcDbLine
 10
-23.999999999999972
 20
-8.000000000003638
 30
0.0
 11
-61.999999999990081
 21
-8.0
 31
0.0
  0
LINE
  5
361
100
AcDbEntity
  8
0
  6
CONTINUOUS
 62
               7
100
AcDbLine
 10
-60.79999999998833
 20
81.799999999995805
 30
0.0
 11
-60.79999999998833
 21
81.999999999997556
 31
0.0
  0
LINE
  5
363
100
AcDbEntity
  8
0
  6
PHANTOM
 62
             200
100
AcDbLine
 10
-62.500000006120871
 20
100.09999999422513
 30
0.0
 11
-62.500000006120871
 21
99.900000006146058
 31
0.0
  0
LINE
  5
364
100
AcDbEntity
  8
0
  6
PHANTOM
 62
             200
100
AcDbLine
 10
-70.300000006122303
 20
99.599999999997465
 30
0.0
 11
-69.800000006121394
 21
99.599999999997465
 31
0.0
  0
CIRCLE
  5
365
100
AcDbEntity
  8
0
  6
PHANTOM
 62
             200
100
AcDbCircle
 10
-68.900000006121189
 20
99.399999999997419
 30
0.0
 40
0.45
  0
ARC
  5
366
100
AcDbEntity
  8
0
  6
PHANTOM
 62
             200
100
AcDbCircle
 10
-69.300000006121508
 20
97.2999999999941
 30
0.0
 40
0.5
100
AcDbArc
 50
179.99999999999963
 51
269.99999999999937
  0
ARC
  5
367
100
AcDbEntity
  8
0
  6
PHANTOM
 62
             200
100
AcDbCircle
 10
-63.500000006121553
 20
97.2999999999941
 30
0.0
 40
0.5
100
AcDbArc
 50
269.99999999999937
 51
0.0
  0
LINE
  5
368
100
AcDbEntity
  8
0
  6
CENTER
 62
             200
100
AcDbLine
 10
-66.400000006121644
 20
101.02757406876896
 30
0.0
 11
-66.400000006121644
 21
95.721963881074828
 31
0.0
  0
ARC
  5
369
100
AcDbEntity
  8
0
  6
PHANTOM
 62
             200
100
AcDbCircle
 10
-70.000000006122235
 20
100.09999999999746
 30
0.0
 40
0.3
100
AcDbArc
 50
89.999999999999815
 51
179.99999999999963
  0
ARC
  5
36A
100
AcDbEntity
  8
0
  6
PHANTOM
 62
             200
100
AcDbCircle
 10
-62.800000006120939
 20
100.09999999999746
 30
0.0
 40
0.3
100
AcDbArc
 50
0.0
 51
89.999999999999815
  0
LINE
  5
36B
100
AcDbEntity
  8
0
  6
PHANTOM
 62
             200
100
AcDbLine
 10
-70.000000006122235
 20
100.39999999999742
 30
0.0
 11
-62.800000006120939
 21
100.39999999999742
 31
0.0
  0
LINE
  5
36C
100
AcDbEntity
  8
0
  6
PHANTOM
 62
             200
100
AcDbLine
 10
-70.30000000612219
 20
100.09999999999746
 30
0.0
 11
-70.300000006122303
 21
99.599999999997465
 31
0.0
  0
LINE
  5
36D
100
AcDbEntity
  8
0
  6
PHANTOM
 62
             200
100
AcDbLine
 10
-69.800000006121394
 20
99.599999999997465
 30
0.0
 11
-69.800000006121508
 21
98.70000001334796
 31
0.0
  0
LINE
  5
36E
100
AcDbEntity
  8
0
  6
PHANTOM
 62
             200
100
AcDbLine
 10
-69.800000006121735
 20
97.499999999994259
 30
0.0
 11
-69.800000006121508
 21
97.299999999993645
 31
0.0
  0
LINE
  5
36F
100
AcDbEntity
  8
0
  6
PHANTOM
 62
             200
100
AcDbLine
 10
-69.25000000612178
 20
98.699999999994191
 30
0.0
 11
-69.250000006121894
 21
97.499999999994031
 31
0.0
  0
LINE
  5
370
100
AcDbEntity
  8
0
  6
PHANTOM
 62
             200
100
AcDbLine
 10
-63.000000006121439
 20
98.899999995466999
 30
0.0
 11
-63.000000006121439
 21
98.700000013348415
 31
0.0
  0
LINE
  5
371
100
AcDbEntity
  8
0
  6
PHANTOM
 62
             200
100
AcDbLine
 10
-63.000000006121553
 20
97.499999999994145
 30
0.0
 11
-63.000000006121553
 21
97.2999999999941
 31
0.0
  0
LINE
  5
372
100
AcDbEntity
  8
0
  6
PHANTOM
 62
             200
100
AcDbLine
 10
-63.600000006121462
 20
98.699999999994304
 30
0.0
 11
-63.600000006121462
 21
97.499999999994031
 31
0.0
  0
LINE
  5
373
100
AcDbEntity
  8
0
  6
PHANTOM
 62
             200
100
AcDbLine
 10
-69.800000006121621
 20
98.699999999994077
 30
0.0
 11
-63.000000006121553
 21
98.699999999994077
 31
0.0
  0
LINE
  5
374
100
AcDbEntity
  8
0
  6
PHANTOM
 62
             200
100
AcDbLine
 10
-69.800000006121735
 20
97.499999999994259
 30
0.0
 11
-63.000000006121553
 21
97.499999999994145
 31
0.0
  0
LINE
  5
375
100
AcDbEntity
  8
0
  6
PHANTOM
 62
             200
100
AcDbLine
 10
-69.300000006121508
 20
96.7999999999941
 30
0.0
 11
-63.500000006121553
 21
96.7999999999941
 31
0.0
  0
LINE
  5
376
100
AcDbEntity
  8
0
  6
PHANTOM
 62
             200
100
AcDbLine
 10
-69.800000006121508
 20
98.899999999994122
 30
0.0
 11
-60.90000000612153
 21
98.899999999994236
 31
0.0
  0
LINE
  5
377
100
AcDbEntity
  8
0
  6
PHANTOM
 62
             200
100
AcDbLine
 10
-62.500000006120985
 20
99.899999999997533
 30
0.0
 11
-62.500000006121098
 21
98.899999999994236
 31
0.0
  0
ARC
  5
378
100
AcDbEntity
  8
0
  6
PHANTOM
 62
             200
100
AcDbCircle
 10
-60.900000006121189
 20
99.399999999997419
 30
0.0
 40
0.5
100
AcDbArc
 50
269.99999999997169
 51
90.000000000028294
  0
LINE
  5
379
100
AcDbEntity
  8
0
  6
PHANTOM
 62
             200
100
AcDbLine
 10
-62.500000006120871
 20
99.899999999997533
 30
0.0
 11
-60.900000006121303
 21
99.899999999997419
 31
0.0
  0
ARC
  5
37A
100
AcDbEntity
  8
0
  6
PHANTOM
 62
             200
100
AcDbCircle
 10
-60.900000006121189
 20
99.399999999997419
 30
0.0
 40
9.4000000000000004
100
AcDbArc
 50
178.7811247648682
 51
263.9275436570785
  0
LINE
  5
37B
100
AcDbEntity
  8
0
  6
CONTINUOUS
 62
               7
100
AcDbLine
 10
-62.000000000000199
 20
4.7320509159537778
 30
0.0
 11
-24.999999999990536
 21
4.7320509159537778
 31
0.0
  0
LINE
  5
37C
100
AcDbEntity
  8
0
  6
CONTINUOUS
 62
               7
100
AcDbLine
 10
-62.000000000000199
 20
3.0000001083848815
 30
0.0
 11
-25.000000000000199
 21
3.0000001083848815
 31
0.0
  0
LINE
  5
37D
100
AcDbEntity
  8
0
  6
CONTINUOUS
 62
               7
100
AcDbLine
 10
-62.000000000000199
 20
-0.9999998807912789
 30
0.0
 11
-24.999999999991331
 21
-0.9999998807912789
 31
0.0
  0
LINE
  5
37E
100
AcDbEntity
  8
0
  6
CONTINUOUS
 62
               7
100
AcDbLine
 10
-62.000000000000199
 20
-2.732050748467941
 30
0.0
 11
-24.999999999991559
 21
-2.732050748467941
 31
0.0
  0
LINE
  5
37F
100
AcDbEntity
  8
0
  6
CONTINUOUS
 62
               7
100
AcDbLine
 10
-61.999999999999972
 20
80.000000000000057
 30
0.0
 11
-62.000000000000313
 21
-37.499999999998295
 31
0.0
  0
LINE
  5
380
100
AcDbEntity
  8
0
  6
CONTINUOUS
 62
               7
100
AcDbLine
 10
-23.999999999999972
 20
80.000000000000057
 30
0.0
 11
-23.999999999999972
 21
-11.0
 31
0.0
  0
LINE
  5
381
100
AcDbEntity
  8
0
  6
CONTINUOUS
 62
               4
100
AcDbLine
 10
-19.899999998700622
 20
118.99999998217112
 30
0.0
 11
-28.399999998700622
 21
118.99999998217112
 31
0.0
  0
LINE
  5
382
100
AcDbEntity
  8
0
  6
CONTINUOUS
 62
               4
100
AcDbLine
 10
-18.899999999985965
 20
96.065826257576703
 30
0.0
 11
-18.899999999985056
 21
117.99999997339529
 31
0.0
  0
LINE
  5
383
100
AcDbEntity
  8
0
  6
CONTINUOUS
 62
             200
100
AcDbLine
 10
-14.31912739112974
 20
99.69999999999601
 30
0.0
 11
-13.45912739112984
 21
102.89999999999606
 31
0.0
  0
LINE
  5
384
100
AcDbEntity
  8
0
  6
CONTINUOUS
 62
             200
100
AcDbLine
 10
-15.349127391129713
 20
99.69999999999601
 30
0.0
 11
-14.489127391129813
 21
102.89999999999606
 31
0.0
  0
LINE
  5
385
100
AcDbEntity
  8
0
  6
CONTINUOUS
 62
               4
100
AcDbLine
 10
-17.899999999997561
 20
99.599999999996101
 30
0.0
 11
-17.899999999997789
 21
102.99999999999619
 31
0.0
  0
ARC
  5
386
100
AcDbEntity
  8
0
  6
CONTINUOUS
 62
               4
100
AcDbCircle
 10
-18.199999999997743
 20
102.99999999999596
 30
0.0
 40
0.3
100
AcDbArc
 50
0.0
 51
89.999999999999815
  0
LINE
  5
387
100
AcDbEntity
  8
0
  6
CONTINUOUS
 62
               4
100
AcDbLine
 10
-18.199999999997743
 20
103.29999999999615
 30
0.0
 11
-18.899999999997789
 21
103.29999999999615
 31
0.0
  0
ARC
  5
388
100
AcDbEntity
  8
0
  6
CONTINUOUS
 62
               4
100
AcDbCircle
 10
-19.899999999985056
 20
117.99999998217112
 30
0.0
 40
1.0
100
AcDbArc
 50
0.0
 51
89.999999999999815
  0
LINE
  5
389
100
AcDbEntity
  8
0
  6
CONTINUOUS
 62
               4
100
AcDbLine
 10
-7.399127391129781
 20
101.54999999999615
 30
0.0
 11
-7.399127391129781
 21
101.04999999999615
 31
0.0
  0
LINE
  5
38A
100
AcDbEntity
  8
0
  6
CONTINUOUS
 62
               4
100
AcDbLine
 10
-10.899127391129781
 20
102.04999999999615
 30
0.0
 11
-10.899127391129781
 21
100.54999999999615
 31
0.0
  0
LINE
  5
38B
100
AcDbEntity
  8
0
  6
CONTINUOUS
 62
               4
100
AcDbLine
 10
-10.899127391129781
 20
101.54999999999615
 30
0.0
 11
-7.399127391129781
 21
101.54999999999615
 31
0.0
  0
LINE
  5
38C
100
AcDbEntity
  8
0
  6
CONTINUOUS
 62
               4
100
AcDbLine
 10
-10.899127391129781
 20
101.04999999999615
 30
0.0
 11
-7.399127391129781
 21
101.04999999999615
 31
0.0
  0
LINE
  5
38D
100
AcDbEntity
  8
0
  6
CONTINUOUS
 62
               4
100
AcDbLine
 10
-14.059127391129749
 20
100.54999999999615
 30
0.0
 11
-10.899127391129781
 21
100.54999999999615
 31
0.0
  0
LINE
  5
38E
100
AcDbEntity
  8
0
  6
CONTINUOUS
 62
               4
100
AcDbLine
 10
-13.687564891129767
 20
102.04999999999615
 30
0.0
 11
-10.899127391129781
 21
102.04999999999615
 31
0.0
  0
ARC
  5
38F
100
AcDbEntity
  8
0
  6
CONTINUOUS
 62
               4
100
AcDbCircle
 10
-18.199999999997743
 20
99.599999999996101
 30
0.0
 40
0.3
100
AcDbArc
 50
270.00000000000023
 51
0.0
  0
LINE
  5
390
100
AcDbEntity
  8
0
  6
CONTINUOUS
 62
               4
100
AcDbLine
 10
-18.199999999997743
 20
99.299999999996146
 30
0.0
 11
-18.899999999997789
 21
99.299999999996146
 31
0.0
  0
LINE
  5
391
100
AcDbEntity
  8
0
  6
CONTINUOUS
 62
               4
100
AcDbLine
 10
-17.899999999997675
 20
100.54999999999615
 30
0.0
 11
-15.120689891129786
 21
100.54999999999615
 31
0.0
  0
LINE
  5
392
100
AcDbEntity
  8
0
  6
CONTINUOUS
 62
               4
100
AcDbLine
 10
-17.899999999997789
 20
102.04999999999615
 30
0.0
 11
-14.71756489112974
 21
102.04999999999615
 31
0.0
  0
LINE
  5
393
100
AcDbEntity
  8
0
  6
CENTER
 62
             200
100
AcDbLine
 10
-20.389104190847291
 20
101.29999999999615
 30
0.0
 11
-6.4893901489998314
 21
101.2999999999966
 31
0.0
  0
ARC
  5
394
100
AcDbEntity
  8
0
  6
CONTINUOUS
 62
               4
100
AcDbCircle
 10
-29.899999999984374
 20
120.99999999999574
 30
0.0
 40
1.0
100
AcDbArc
 50
0.0
 51
89.999999999999815
  0
ARC
  5
395
100
AcDbEntity
  8
0
  6
CONTINUOUS
 62
               4
100
AcDbCircle
 10
-28.399999999984374
 20
119.49999998217112
 30
0.0
 40
0.5
100
AcDbArc
 50
179.99999999999963
 51
269.99999999999937
  0
LINE
  5
396
100
AcDbEntity
  8
0
  6
CONTINUOUS
 62
               4
100
AcDbLine
 10
-28.899999999984374
 20
120.99999999999574
 30
0.0
 11
-28.899999999984374
 21
119.49999998217112
 31
0.0
  0
LINE
  5
397
100
AcDbEntity
  8
0
  6
CONTINUOUS
 62
               4
100
AcDbLine
 10
-61.899999995455261
 20
81.999999999997627
 30
0.0
 11
-61.899999995454181
 21
121.49999999999608
 31
0.0
  0
LINE
  5
398
100
AcDbEntity
  8
0
  6
CONTINUOUS
 62
               4
100
AcDbLine
 10
-60.79999999998833
 20
81.999999999997556
 30
0.0
 11
-60.799999999985488
 21
116.99999999999801
 31
0.0
  0
CIRCLE
  5
399
100
AcDbEntity
  8
0
  6
CONTINUOUS
 62
               7
100
AcDbCircle
 10
-13.000000000019128
 20
55.500000000000014
 30
0.0
 40
5.6800003051757812
  0
CIRCLE
  5
39A
100
AcDbEntity
  8
0
  6
CONTINUOUS
 62
               2
100
AcDbCircle
 10
-13.000000000019128
 20
55.500000000000014
 30
0.0
 40
6.5
  0
CIRCLE
  5
39B
100
AcDbEntity
  8
0
  6
CONTINUOUS
 62
               7
100
AcDbCircle
 10
-13.000000000019128
 20
30.500000000000021
 30
0.0
 40
5.6800003051757812
  0
CIRCLE
  5
39C
100
AcDbEntity
  8
0
  6
CONTINUOUS
 62
               2
100
AcDbCircle
 10
-13.000000000019128
 20
30.500000000000021
 30
0.0
 40
6.5
  0
CIRCLE
  5
39D
100
AcDbEntity
  8
0
  6
CONTINUOUS
 62
               7
100
AcDbCircle
 10
-13.000000000019128
 20
5.4999999999999645
 30
0.0
 40
5.6800003051757812
  0
CIRCLE
  5
39E
100
AcDbEntity
  8
0
  6
CONTINUOUS
 62
               2
100
AcDbCircle
 10
-13.000000000019128
 20
5.4999999999999645
 30
0.0
 40
6.5
  0
ENDBLK
  5
39F
100
AcDbEntity
  8
0
100
AcDbBlockEnd
  0
BLOCK
  5
3A0
100
AcDbEntity
  8
0
100
AcDbBlockBegin
  2
PA24A7-9
 70
               0
 10
0.0
 20
0.0
 30
0.0
  3
PA24A7-9
  1

  0
LINE
  5
3A1
100
AcDbEntity
  8
0
  6
CENTER
 62
               2
100
AcDbLine
 10
34.0
 20
-4.9999999920354128
 30
0.0
 11
34.0
 21
5.0000000079645872
 31
0.0
  0
LINE
  5
3A2
100
AcDbEntity
  8
0
  6
CENTER
 62
               2
100
AcDbLine
 10
0.0
 20
-4.9999999920354128
 30
0.0
 11
0.0
 21
5.0000000079645872
 31
0.0
  0
LINE
  5
3A3
100
AcDbEntity
  8
0
  6
CENTER
 62
               2
100
AcDbLine
 10
21.318436273870901
 20
17.0
 30
0.0
 11
29.255089448080071
 21
17.0
 31
0.0
  0
CIRCLE
  5
3A4
100
AcDbEntity
  8
0
  6
DASHED
 62
               7
100
AcDbCircle
 10
25.0
 20
17.0
 30
0.0
 40
2.1000000000000001
  0
CIRCLE
  5
3A5
100
AcDbEntity
  8
0
  6
DASHED
 62
               2
100
AcDbCircle
 10
25.0
 20
17.0
 30
0.0
 40
2.5
  0
LINE
  5
3A6
100
AcDbEntity
  8
0
  6
CENTER
 62
               2
100
AcDbLine
 10
25.0
 20
12.07670978547327
 30
0.0
 11
25.0
 21
21.213222225910613
 31
0.0
  0
LINE
  5
3A7
100
AcDbEntity
  8
0
  6
CONTINUOUS
 62
               7
100
AcDbLine
 10
28.400000005589618
 20
35.0
 30
0.0
 11
4.5999999936688027
 21
35.0
 31
0.0
  0
LINE
  5
3A8
100
AcDbEntity
  8
0
  6
CONTINUOUS
 62
               7
100
AcDbLine
 10
28.400000005589618
 20
52.0
 30
0.0
 11
4.5999999936688027
 21
52.0
 31
0.0
  0
LINE
  5
3A9
100
AcDbEntity
  8
0
  6
CONTINUOUS
 62
               7
100
AcDbLine
 10
28.400000005589618
 20
35.399999999999977
 30
0.0
 11
4.5999999936688027
 21
35.399999999999977
 31
0.0
  0
LINE
  5
3AA
100
AcDbEntity
  8
0
  6
CONTINUOUS
 62
               7
100
AcDbLine
 10
28.400000005589618
 20
51.599999999999909
 30
0.0
 11
4.5999999936688027
 21
51.599999999999909
 31
0.0
  0
LINE
  5
3AB
100
AcDbEntity
  8
0
  6
CONTINUOUS
 62
               7
100
AcDbLine
 10
5.5999999999987722
 20
25.0
 30
0.0
 11
27.399999999998727
 21
25.0
 31
0.0
  0
LINE
  5
3AC
100
AcDbEntity
  8
0
  6
CONTINUOUS
 62
               7
100
AcDbLine
 10
5.5999999999987722
 20
62.0
 30
0.0
 11
27.399999999998727
 21
62.0
 31
0.0
  0
ARC
  5
3AD
100
AcDbEntity
  8
0
  6
CONTINUOUS
 62
               7
100
AcDbCircle
 10
27.399999999998727
 20
26.0
 30
0.0
 40
1.0
100
AcDbArc
 50
269.99999999999937
 51
0.0
  0
ARC
  5
3AE
100
AcDbEntity
  8
0
  6
CONTINUOUS
 62
               7
100
AcDbCircle
 10
27.399999999998727
 20
61.0
 30
0.0
 40
1.0
100
AcDbArc
 50
0.0
 51
89.999999999999815
  0
ARC
  5
3AF
100
AcDbEntity
  8
0
  6
CONTINUOUS
 62
               7
100
AcDbCircle
 10
5.5999999999987722
 20
61.0
 30
0.0
 40
1.0
100
AcDbArc
 50
89.999999999999815
 51
179.99999999999963
  0
ARC
  5
3B0
100
AcDbEntity
  8
0
  6
CONTINUOUS
 62
               7
100
AcDbCircle
 10
5.5999999999987722
 20
26.0
 30
0.0
 40
1.0
100
AcDbArc
 50
179.99999999999963
 51
269.99999999999937
  0
LINE
  5
3B1
100
AcDbEntity
  8
0
  6
CENTER
 62
               2
100
AcDbLine
 10
2.8842427451352251
 20
43.5
 30
0.0
 11
29.705902948465337
 21
43.5
 31
0.0
  0
LINE
  5
3B2
100
AcDbEntity
  8
0
  6
CENTER
 62
               2
100
AcDbLine
 10
8.9999999999987494
 20
33.784965238849736
 30
0.0
 11
8.9999999999987494
 21
27.305133211195653
 31
0.0
  0
LINE
  5
3B3
100
AcDbEntity
  8
0
  6
CENTER
 62
               2
100
AcDbLine
 10
5.8118080287250677
 20
30.499999999751253
 30
0.0
 11
12.16083105737323
 21
30.499999999751253
 31
0.0
  0
LINE
  5
3B4
100
AcDbEntity
  8
0
  6
CENTER
 62
               2
100
AcDbLine
 10
23.999999999998863
 20
53.715034761150264
 30
0.0
 11
23.999999999998863
 21
59.694866788804347
 31
0.0
  0
LINE
  5
3B5
100
AcDbEntity
  8
0
  6
CENTER
 62
               2
100
AcDbLine
 10
27.188191971272317
 20
56.500000000248974
 30
0.0
 11
21.245776841576571
 21
56.500000000248974
 31
0.0
  0
CIRCLE
  5
3B6
100
AcDbEntity
  8
0
  6
CONTINUOUS
 62
               7
100
AcDbCircle
 10
23.999999999998863
 20
56.450000000248792
 30
0.0
 40
2.25
  0
CIRCLE
  5
3B7
100
AcDbEntity
  8
0
  6
CONTINUOUS
 62
               7
100
AcDbCircle
 10
8.9999999999987494
 20
30.549999999751208
 30
0.0
 40
2.25
  0
CIRCLE
  5
3B8
100
AcDbEntity
  8
0
  6
CONTINUOUS
 62
               7
100
AcDbCircle
 10
16.499999999998749
 20
57.75
 30
0.0
 40
4.0999999999999996
  0
CIRCLE
  5
3B9
100
AcDbEntity
  8
0
  6
CONTINUOUS
 62
               7
100
AcDbCircle
 10
16.499999999998749
 20
29.25
 30
0.0
 40
4.0999999999999996
  0
LINE
  5
3BA
100
AcDbEntity
  8
0
  6
CONTINUOUS
 62
               7
100
AcDbLine
 10
18.197055871754628
 20
30.94705622342326
 30
0.0
 11
14.802943245276992
 21
27.552943310843375
 31
0.0
  0
LINE
  5
3BB
100
AcDbEntity
  8
0
  6
CONTINUOUS
 62
               7
100
AcDbLine
 10
14.802943880883618
 20
30.947055976064121
 30
0.0
 11
18.197056793463503
 21
27.552943349586485
 31
0.0
  0
LINE
  5
3BC
100
AcDbEntity
  8
0
  6
CONTINUOUS
 62
               7
100
AcDbLine
 10
18.197055871754628
 20
56.05294377657674
 30
0.0
 11
14.802943245277106
 21
59.447056689156625
 31
0.0
  0
LINE
  5
3BD
100
AcDbEntity
  8
0
  6
CONTINUOUS
 62
               7
100
AcDbLine
 10
14.802943880883618
 20
56.052944023936107
 30
0.0
 11
18.197056793463503
 21
59.447056650413515
 31
0.0
  0
CIRCLE
  5
3BE
100
AcDbEntity
  8
0
  6
CONTINUOUS
 62
               7
100
AcDbCircle
 10
16.499999999998749
 20
57.75
 30
0.0
 40
4.0
  0
CIRCLE
  5
3BF
100
AcDbEntity
  8
0
  6
CONTINUOUS
 62
               7
100
AcDbCircle
 10
16.499999999998749
 20
29.25
 30
0.0
 40
4.0
  0
LINE
  5
3C0
100
AcDbEntity
  8
0
  6
CONTINUOUS
 62
               7
100
AcDbLine
 10
4.6000000000019554
 20
61.0
 30
0.0
 11
4.5999999999991132
 21
26.000000000000057
 31
0.0
  0
LINE
  5
3C1
100
AcDbEntity
  8
0
  6
CONTINUOUS
 62
               7
100
AcDbLine
 10
28.40000000000191
 20
61.0
 30
0.0
 11
28.399999999999068
 21
25.999999999999886
 31
0.0
  0
LINE
  5
3C2
100
AcDbEntity
  8
0
  6
CENTER
 62
               2
100
AcDbLine
 10
16.499999999998749
 20
62.75
 30
0.0
 11
16.499999999998636
 21
21.324520201449729
 31
0.0
  0
LINE
  5
3C3
100
AcDbEntity
  8
0
  6
CONTINUOUS
 62
               7
100
AcDbLine
 10
-4.9999999999995453
 20
-0.0000000214458282
 30
0.0
 11
-4.9999999999995453
 21
23.999999978554172
 31
0.0
  0
LINE
  5
3C4
100
AcDbEntity
  8
0
  6
CONTINUOUS
 62
               7
100
AcDbLine
 10
39.0
 20
-0.0000000214458282
 30
0.0
 11
39.0
 21
24.0
 31
0.0
  0
LINE
  5
3C5
100
AcDbEntity
  8
0
  6
CONTINUOUS
 62
               7
100
AcDbLine
 10
-4.9999999991091499
 20
24.0
 30
0.0
 11
39.0
 21
24.0
 31
0.0
  0
LINE
  5
3C6
100
AcDbEntity
  8
0
  6
CONTINUOUS
 62
               7
100
AcDbLine
 10
-4.9999999991091499
 20
0.0
 30
0.0
 11
39.0
 21
0.0
 31
0.0
  0
LINE
  5
3C7
100
AcDbEntity
  8
0
  6
CONTINUOUS
 62
               7
100
AcDbLine
 10
4.0000000000004547
 20
-0.0000000214458282
 30
0.0
 11
4.0000000000004547
 21
23.999999978554172
 31
0.0
  0
LINE
  5
3C8
100
AcDbEntity
  8
0
  6
CONTINUOUS
 62
               7
100
AcDbLine
 10
28.399999999999068
 20
25.0
 30
0.0
 11
28.399999999999068
 21
24.0
 31
0.0
  0
LINE
  5
3C9
100
AcDbEntity
  8
0
  6
CONTINUOUS
 62
               7
100
AcDbLine
 10
28.399999999999068
 20
25.0
 30
0.0
 11
27.39999999999884
 21
25.0
 31
0.0
  0
LINE
  5
3CA
100
AcDbEntity
  8
0
  6
CONTINUOUS
 62
               7
100
AcDbLine
 10
5.5999999999987722
 20
25.0
 30
0.0
 11
4.5999999999991132
 21
25.0
 31
0.0
  0
LINE
  5
3CB
100
AcDbEntity
  8
0
  6
CONTINUOUS
 62
               7
100
AcDbLine
 10
4.5999999999991132
 20
25.0
 30
0.0
 11
4.5999999999991132
 21
24.0
 31
0.0
  0
ENDBLK
  5
3CC
100
AcDbEntity
  8
0
100
AcDbBlockEnd
  0
BLOCK
  5
3CD
100
AcDbEntity
  8
0
100
AcDbBlockBegin
  2
PA24A7-10
 70
               0
 10
0.0
 20
0.0
 30
0.0
  3
PA24A7-10
  1

  0
LINE
  5
3CE
100
AcDbEntity
  8
0
  6
CONTINUOUS
 62
               4
100
AcDbLine
 10
5.6000000000005912
 20
121.9999999999996
 30
0.0
 11
27.400000000000546
 21
121.99999999999915
 31
0.0
  0
ARC
  5
3CF
100
AcDbEntity
  8
0
  6
CONTINUOUS
 62
               7
100
AcDbCircle
 10
27.899999999998272
 20
-37.499999999999886
 30
0.0
 40
0.5
100
AcDbArc
 50
269.99999999999937
 51
0.0
  0
ARC
  5
3D0
100
AcDbEntity
  8
0
  6
CONTINUOUS
 62
               7
100
AcDbCircle
 10
5.0999999999983174
 20
-37.499999999999886
 30
0.0
 40
0.5
100
AcDbArc
 50
179.99999999999963
 51
269.99999999999937
  0
LINE
  5
3D1
100
AcDbEntity
  8
0
  6
CONTINUOUS
 62
               7
100
AcDbLine
 10
5.0999999999983174
 20
-37.999999999999886
 30
0.0
 11
27.899999999998272
 21
-37.999999999999886
 31
0.0
  0
LINE
  5
3D2
100
AcDbEntity
  8
0
  6
CONTINUOUS
 62
               7
100
AcDbLine
 10
4.5999999999980901
 20
-24.499999999996874
 30
0.0
 11
28.399999983505268
 21
-24.499999999996874
 31
0.0
  0
LINE
  5
3D3
100
AcDbEntity
  8
0
  6
CONTINUOUS
 62
               7
100
AcDbLine
 10
28.400000000000318
 20
55.656925097226519
 30
0.0
 11
28.399999999999181
 21
4.7320510547089611
 31
0.0
  0
LINE
  5
3D4
100
AcDbEntity
  8
0
  6
CONTINUOUS
 62
               7
100
AcDbLine
 10
5.6000000177464244
 20
56.00000027000948
 30
0.0
 11
4.6000000475487468
 21
54.267949493527851
 31
0.0
  0
LINE
  5
3D5
100
AcDbEntity
  8
0
  6
CONTINUOUS
 62
               7
100
AcDbLine
 10
4.5999999581417796
 20
61.732051106095753
 30
0.0
 11
5.5999999999980901
 21
60.000000226029613
 31
0.0
  0
LINE
  5
3D6
100
AcDbEntity
  8
0
  6
CONTINUOUS
 62
               7
100
AcDbLine
 10
28.400000029667353
 20
4.732051106095696
 30
0.0
 11
27.400000000000205
 21
3.000000247141827
 31
0.0
  0
LINE
  5
3D7
100
AcDbEntity
  8
0
  6
CONTINUOUS
 62
               7
100
AcDbLine
 10
27.400000000000546
 20
-0.9999997507572402
 30
0.0
 11
28.400000000000546
 21
-2.7320505583261934
 31
0.0
  0
LINE
  5
3D8
100
AcDbEntity
  8
0
  6
CONTINUOUS
 62
               7
100
AcDbLine
 10
4.5999999999994543
 20
54.26794941117015
 30
0.0
 11
4.5999999999989996
 21
3.3430750219817469
 31
0.0
  0
ARC
  5
3D9
100
AcDbEntity
  8
0
  6
CONTINUOUS
 62
               7
100
AcDbCircle
 10
25.800000000001319
 20
57.999999999999602
 30
0.0
 40
4.0
100
AcDbArc
 50
89.999999999997613
 51
269.99999999999716
  0
CIRCLE
  5
3DA
100
AcDbEntity
  8
0
  6
CONTINUOUS
 62
               7
100
AcDbCircle
 10
25.800000000001319
 20
58.000000119208892
 30
0.0
 40
2.9803848266601563
  0
CIRCLE
  5
3DB
100
AcDbEntity
  8
0
  6
CONTINUOUS
 62
               7
100
AcDbCircle
 10
25.800000000001319
 20
57.999999999999602
 30
0.0
 40
3.5
  0
LINE
  5
3DC
100
AcDbEntity
  8
0
  6
CONTINUOUS
 62
               7
100
AcDbLine
 10
27.300000399863393
 20
57.133974738953441
 30
0.0
 11
25.800000247231424
 21
56.267949394346431
 31
0.0
  0
LINE
  5
3DD
100
AcDbEntity
  8
0
  6
CONTINUOUS
 62
               7
100
AcDbLine
 10
25.800000642561372
 20
59.732050018165239
 30
0.0
 11
24.300000489929516
 21
58.866024673558115
 31
0.0
  0
LINE
  5
3DE
100
AcDbEntity
  8
0
  6
CONTINUOUS
 62
               7
100
AcDbLine
 10
25.800000642561145
 20
56.267949981834079
 30
0.0
 11
24.300000489929403
 21
57.133975326441316
 31
0.0
  0
LINE
  5
3DF
100
AcDbEntity
  8
0
  6
CONTINUOUS
 62
               7
100
AcDbLine
 10
27.300000399863393
 20
58.866025261045536
 30
0.0
 11
25.800000247231651
 21
59.732050605652887
 31
0.0
  0
LINE
  5
3E0
100
AcDbEntity
  8
0
  6
CONTINUOUS
 62
               7
100
AcDbLine
 10
24.300000000001319
 20
58.86602538824053
 30
0.0
 11
24.300000000001319
 21
57.133974611758902
 31
0.0
  0
LINE
  5
3E1
100
AcDbEntity
  8
0
  6
CONTINUOUS
 62
               7
100
AcDbLine
 10
27.300000000001319
 20
58.866025686263526
 30
0.0
 11
27.300000000001319
 21
57.13397431373545
 31
0.0
  0
LINE
  5
3E2
100
AcDbEntity
  8
0
  6
CENTER
 62
               2
100
AcDbLine
 10
29.646656126441371
 20
57.999999999999488
 30
0.0
 11
20.436389519384534
 21
57.999999999999829
 31
0.0
  0
LINE
  5
3E3
100
AcDbEntity
  8
0
  6
CENTER
 62
               2
100
AcDbLine
 10
25.800000000001546
 20
63.704087708488885
 30
0.0
 11
25.800000000001091
 21
52.015545225571316
 31
0.0
  0
LINE
  5
3E4
100
AcDbEntity
  8
0
  6
CONTINUOUS
 62
               7
100
AcDbLine
 10
5.5999999999980901
 20
60.000000238418522
 30
0.0
 11
5.5999999999983174
 21
56.000000238418522
 31
0.0
  0
LINE
  5
3E5
100
AcDbEntity
  8
0
  6
CONTINUOUS
 62
               4
100
AcDbLine
 10
4.6000000000001364
 20
120.99999999999937
 30
0.0
 11
4.5999999999997669
 21
82.500000000001435
 31
0.0
  0
LINE
  5
3E6
100
AcDbEntity
  8
0
  6
CONTINUOUS
 62
               4
100
AcDbLine
 10
28.400000000002137
 20
120.99999999999915
 30
0.0
 11
28.400000000001114
 21
82.5
 31
0.0
  0
LINE
  5
3E7
100
AcDbEntity
  8
0
  6
CONTINUOUS
 62
               7
100
AcDbLine
 10
27.400000000000205
 20
3.0000002384190338
 30
0.0
 11
27.400000000000432
 21
-0.9999997615809662
 31
0.0
  0
LINE
  5
3E8
100
AcDbEntity
  8
0
  6
CONTINUOUS
 62
               7
100
AcDbLine
 10
4.5999999775428932
 20
-7.9999999999998863
 30
0.0
 11
28.399999989463822
 21
-7.9999999999998863
 31
0.0
  0
LINE
  5
3E9
100
AcDbEntity
  8
0
  6
CONTINUOUS
 62
               7
100
AcDbLine
 10
4.5999999775428932
 20
68.499999999798376
 30
0.0
 11
5.8999999894638222
 21
68.499999999798376
 31
0.0
  0
LINE
  5
3EA
100
AcDbEntity
  8
0
  6
CONTINUOUS
 62
               7
100
AcDbLine
 10
27.099999977542893
 20
68.499999999798376
 30
0.0
 11
28.399999999999864
 21
68.499999999798376
 31
0.0
  0
LINE
  5
3EB
100
AcDbEntity
  8
0
  6
CONTINUOUS
 62
               7
100
AcDbLine
 10
4.5999999775428932
 20
66.999999999999829
 30
0.0
 11
28.399999989463822
 21
66.999999999999829
 31
0.0
  0
LINE
  5
3EC
100
AcDbEntity
  8
0
  6
CONTINUOUS
 62
               4
100
AcDbLine
 10
12.5
 20
89.900000000000603
 30
0.0
 11
7.7000000000000455
 21
89.900000000000603
 31
0.0
  0
LINE
  5
3ED
100
AcDbEntity
  8
0
  6
CONTINUOUS
 62
               4
100
AcDbLine
 10
14.400000000000091
 20
108.59999999999951
 30
0.0
 11
8.6000000000001364
 21
108.59999999999951
 31
0.0
  0
LINE
  5
3EE
100
AcDbEntity
  8
0
  6
CONTINUOUS
 62
               4
100
AcDbLine
 10
14.400000000000318
 20
115.39999999999947
 30
0.0
 11
14.400000000000091
 21
108.59999999999951
 31
0.0
  0
LINE
  5
3EF
100
AcDbEntity
  8
0
  6
CONTINUOUS
 62
               4
100
AcDbLine
 10
8.6000000000003638
 20
115.39999999999947
 30
0.0
 11
8.6000000000001364
 21
108.59999999999951
 31
0.0
  0
LINE
  5
3F0
100
AcDbEntity
  8
0
  6
CONTINUOUS
 62
               4
100
AcDbLine
 10
14.400000000000318
 20
115.39999999999947
 30
0.0
 11
8.6000000000003638
 21
115.39999999999947
 31
0.0
  0
LINE
  5
3F1
100
AcDbEntity
  8
0
  6
CONTINUOUS
 62
               4
100
AcDbLine
 10
18.600000000000364
 20
108.59999999999928
 30
0.0
 11
24.400000000000318
 21
108.59999999999928
 31
0.0
  0
LINE
  5
3F2
100
AcDbEntity
  8
0
  6
CONTINUOUS
 62
               4
100
AcDbLine
 10
18.600000000000364
 20
115.39999999999924
 30
0.0
 11
18.600000000000364
 21
108.59999999999928
 31
0.0
  0
LINE
  5
3F3
100
AcDbEntity
  8
0
  6
CONTINUOUS
 62
               4
100
AcDbLine
 10
24.400000000000318
 20
115.39999999999924
 30
0.0
 11
24.400000000000318
 21
108.59999999999928
 31
0.0
  0
LINE
  5
3F4
100
AcDbEntity
  8
0
  6
CONTINUOUS
 62
               4
100
AcDbLine
 10
18.600000000000364
 20
115.39999999999924
 30
0.0
 11
24.400000000000318
 21
115.39999999999924
 31
0.0
  0
LINE
  5
3F5
100
AcDbEntity
  8
0
  6
CONTINUOUS
 62
               4
100
AcDbLine
 10
8.5000000000002274
 20
115.49999999999937
 30
0.0
 11
8.5000000000002274
 21
108.49999999999937
 31
0.0
  0
LINE
  5
3F6
100
AcDbEntity
  8
0
  6
CONTINUOUS
 62
               4
100
AcDbLine
 10
14.500000000000227
 20
115.49999999999937
 30
0.0
 11
14.500000000000227
 21
108.49999999999937
 31
0.0
  0
LINE
  5
3F7
100
AcDbEntity
  8
0
  6
CONTINUOUS
 62
               4
100
AcDbLine
 10
14.500000000000227
 20
108.49999999999937
 30
0.0
 11
8.5000000000002274
 21
108.49999999999937
 31
0.0
  0
LINE
  5
3F8
100
AcDbEntity
  8
0
  6
CONTINUOUS
 62
               4
100
AcDbLine
 10
14.500000000000227
 20
115.49999999999937
 30
0.0
 11
8.5000000000002274
 21
115.49999999999937
 31
0.0
  0
LINE
  5
3F9
100
AcDbEntity
  8
0
  6
CONTINUOUS
 62
               4
100
AcDbLine
 10
18.500000000000227
 20
108.49999999999937
 30
0.0
 11
24.500000000000227
 21
108.49999999999915
 31
0.0
  0
LINE
  5
3FA
100
AcDbEntity
  8
0
  6
CONTINUOUS
 62
               4
100
AcDbLine
 10
18.500000000000455
 20
115.49999999999937
 30
0.0
 11
24.500000000000455
 21
115.49999999999915
 31
0.0
  0
LINE
  5
3FB
100
AcDbEntity
  8
0
  6
CONTINUOUS
 62
               4
100
AcDbLine
 10
24.400000000000091
 20
100.29999999424814
 30
0.0
 11
24.400000000000091
 21
100.70020753607952
 31
0.0
  0
ARC
  5
3FC
100
AcDbEntity
  8
0
  6
CONTINUOUS
 62
               4
100
AcDbCircle
 10
24.100000000000136
 20
100.29999999424814
 30
0.0
 40
0.3
100
AcDbArc
 50
269.9999999999979
 51
359.99999999999767
  0
LINE
  5
3FD
100
AcDbEntity
  8
0
  6
CONTINUOUS
 62
               4
100
AcDbLine
 10
24.400000000000091
 20
100.70020753607952
 30
0.0
 11
25.799999987451883
 21
100.70020753607929
 31
0.0
  0
ARC
  5
3FE
100
AcDbEntity
  8
0
  6
CONTINUOUS
 62
               4
100
AcDbCircle
 10
8.9000000000000909
 20
100.29999999424837
 30
0.0
 40
0.3
100
AcDbArc
 50
179.99999999999963
 51
269.99999999999937
  0
LINE
  5
3FF
100
AcDbEntity
  8
0
  6
CONTINUOUS
 62
               4
100
AcDbLine
 10
23.600000000000136
 20
98.400000000000375
 30
0.0
 11
23.600000000000136
 21
99.999999994248185
 31
0.0
  0
LINE
  5
400
100
AcDbEntity
  8
0
  6
CONTINUOUS
 62
               4
100
AcDbLine
 10
8.6000000000001364
 20
100.29999999424837
 30
0.0
 11
8.6000000000001364
 21
100.70020753607974
 31
0.0
  0
LINE
  5
401
100
AcDbEntity
  8
0
  6
CONTINUOUS
 62
               4
100
AcDbLine
 10
23.600000000000136
 20
99.999999994248185
 30
0.0
 11
25.800000000000182
 21
99.999999994248185
 31
0.0
  0
LINE
  5
402
100
AcDbEntity
  8
0
  6
CONTINUOUS
 62
               4
100
AcDbLine
 10
8.6000000000001364
 20
100.70020753607974
 30
0.0
 11
7.2000000125483439
 21
100.70020753607974
 31
0.0
  0
LINE
  5
403
100
AcDbEntity
  8
0
  6
CONTINUOUS
 62
               4
100
AcDbLine
 10
9.4000000000000909
 20
99.999999994248412
 30
0.0
 11
7.2000000000002728
 21
99.999999994248412
 31
0.0
  0
LINE
  5
404
100
AcDbEntity
  8
0
  6
CONTINUOUS
 62
               4
100
AcDbLine
 10
25.799999999999955
 20
90.400000000000603
 30
0.0
 11
25.800000000000182
 21
100.70020753607929
 31
0.0
  0
ARC
  5
405
100
AcDbEntity
  8
0
  6
CONTINUOUS
 62
               4
100
AcDbCircle
 10
13.0
 20
89.200000000000784
 30
0.0
 40
0.5
100
AcDbArc
 50
179.99999999999807
 51
269.9999999999979
  0
LINE
  5
406
100
AcDbEntity
  8
0
  6
CONTINUOUS
 62
               4
100
AcDbLine
 10
12.5
 20
89.200000000000784
 30
0.0
 11
12.5
 21
89.900000000000603
 31
0.0
  0
ARC
  5
407
100
AcDbEntity
  8
0
  6
CONTINUOUS
 62
               4
100
AcDbCircle
 10
20.0
 20
89.200000000000557
 30
0.0
 40
0.5
100
AcDbArc
 50
269.99999999999937
 51
0.0
  0
LINE
  5
408
100
AcDbEntity
  8
0
  6
CONTINUOUS
 62
               4
100
AcDbLine
 10
20.5
 20
89.200000000000557
 30
0.0
 11
20.5
 21
89.900000000000603
 31
0.0
  0
LINE
  5
409
100
AcDbEntity
  8
0
  6
CONTINUOUS
 62
               4
100
AcDbLine
 10
20.0
 20
88.700000000000557
 30
0.0
 11
13.0
 21
88.700000000000557
 31
0.0
  0
ARC
  5
40A
100
AcDbEntity
  8
0
  6
CONTINUOUS
 62
               4
100
AcDbCircle
 10
23.100000000000136
 20
98.400000000000603
 30
0.0
 40
0.5
100
AcDbArc
 50
269.99999999999937
 51
0.0
  0
ARC
  5
40B
100
AcDbEntity
  8
0
  6
CONTINUOUS
 62
               4
100
AcDbCircle
 10
9.9000000000000909
 20
98.400000000000603
 30
0.0
 40
0.5
100
AcDbArc
 50
179.99999999999963
 51
269.99999999999937
  0
LINE
  5
40C
100
AcDbEntity
  8
0
  6
CONTINUOUS
 62
               4
100
AcDbLine
 10
9.4000000000000909
 20
98.400000000000603
 30
0.0
 11
9.4000000000000909
 21
99.999999994248412
 31
0.0
  0
ARC
  5
40D
100
AcDbEntity
  8
0
  6
CONTINUOUS
 62
               4
100
AcDbCircle
 10
7.7000000000000455
 20
90.400000000000603
 30
0.0
 40
0.5
100
AcDbArc
 50
179.99999999999963
 51
269.99999999999937
  0
LINE
  5
40E
100
AcDbEntity
  8
0
  6
CONTINUOUS
 62
               4
100
AcDbLine
 10
7.2000000000000455
 20
90.40000000000083
 30
0.0
 11
7.2000000000002728
 21
100.70020753607974
 31
0.0
  0
ARC
  5
40F
100
AcDbEntity
  8
0
  6
CONTINUOUS
 62
               4
100
AcDbCircle
 10
25.299999999999955
 20
90.400000000000603
 30
0.0
 40
0.5
100
AcDbArc
 50
269.99999999999937
 51
0.0
  0
LINE
  5
410
100
AcDbEntity
  8
0
  6
CONTINUOUS
 62
               4
100
AcDbLine
 10
25.299999999999955
 20
89.900000000000603
 30
0.0
 11
20.5
 21
89.900000000000603
 31
0.0
  0
LINE
  5
411
100
AcDbEntity
  8
0
  6
CONTINUOUS
 62
               4
100
AcDbLine
 10
23.100000000000136
 20
97.900000000000603
 30
0.0
 11
9.9000000000000909
 21
97.900000000000603
 31
0.0
  0
LINE
  5
412
100
AcDbEntity
  8
0
  6
CONTINUOUS
 62
               7
100
AcDbLine
 10
27.100000011293105
 20
69.999999999999375
 30
0.0
 11
27.899999993411711
 21
69.999999999999375
 31
0.0
  0
ARC
  5
413
100
AcDbEntity
  8
0
  6
CONTINUOUS
 62
               7
100
AcDbCircle
 10
27.899999999999864
 20
70.499999999999375
 30
0.0
 40
0.5
100
AcDbArc
 50
269.9999999999979
 51
359.99999999999767
  0
LINE
  5
414
100
AcDbEntity
  8
0
  6
CONTINUOUS
 62
               7
100
AcDbLine
 10
27.099999999999909
 20
68.499999999798376
 30
0.0
 11
27.099999999999909
 21
75.99999999999892
 31
0.0
  0
ARC
  5
415
100
AcDbEntity
  8
0
  6
CONTINUOUS
 62
               7
100
AcDbCircle
 10
5.0999999999996817
 20
70.499999999999602
 30
0.0
 40
0.5
100
AcDbArc
 50
179.99999999999963
 51
269.99999999999937
  0
LINE
  5
416
100
AcDbEntity
  8
0
  6
CONTINUOUS
 62
               7
100
AcDbLine
 10
5.8999999887064405
 20
69.999999999999602
 30
0.0
 11
5.1000000065878339
 21
69.999999999999602
 31
0.0
  0
LINE
  5
417
100
AcDbEntity
  8
0
  6
CONTINUOUS
 62
               7
100
AcDbLine
 10
5.8999999999994088
 20
68.499999999798376
 30
0.0
 11
5.8999999999998636
 21
75.999999999999375
 31
0.0
  0
LINE
  5
418
100
AcDbEntity
  8
0
  6
CONTINUOUS
 62
               7
100
AcDbLine
 10
4.5999999999996817
 20
75.999999999999375
 30
0.0
 11
28.399999999999864
 21
75.99999999999892
 31
0.0
  0
LINE
  5
419
100
AcDbEntity
  8
0
  6
CONTINUOUS
 62
               4
100
AcDbLine
 10
5.8000000006275059
 20
116.90000000000174
 30
0.0
 11
4.6000000065878339
 21
116.90000000000174
 31
0.0
  0
LINE
  5
41A
100
AcDbEntity
  8
0
  6
CONTINUOUS
 62
               4
100
AcDbLine
 10
5.8000000000004093
 20
116.90000000000174
 30
0.0
 11
5.8000000000004093
 21
120.10000000000178
 31
0.0
  0
LINE
  5
41B
100
AcDbEntity
  8
0
  6
CONTINUOUS
 62
               4
100
AcDbLine
 10
18.500000000000455
 20
115.49999999999937
 30
0.0
 11
18.500000000000227
 21
108.49999999999937
 31
0.0
  0
LINE
  5
41C
100
AcDbEntity
  8
0
  6
CONTINUOUS
 62
               4
100
AcDbLine
 10
24.500000000000455
 20
115.49999999999915
 30
0.0
 11
24.500000000000227
 21
108.49999999999915
 31
0.0
  0
LINE
  5
41D
100
AcDbEntity
  8
0
  6
CONTINUOUS
 62
               4
100
AcDbLine
 10
5.8000000006275059
 20
120.10000000000178
 30
0.0
 11
4.6000000065878339
 21
120.10000000000178
 31
0.0
  0
LINE
  5
41E
100
AcDbEntity
  8
0
  6
CONTINUOUS
 62
               4
100
AcDbLine
 10
27.200000000000273
 20
116.90000000000151
 30
0.0
 11
27.2000000000005
 21
120.10000000000156
 31
0.0
  0
LINE
  5
41F
100
AcDbEntity
  8
0
  6
CONTINUOUS
 62
               4
100
AcDbLine
 10
27.199999999373404
 20
120.10000000000156
 30
0.0
 11
28.399999993413076
 21
120.10000000000156
 31
0.0
  0
LINE
  5
420
100
AcDbEntity
  8
0
  6
CONTINUOUS
 62
               4
100
AcDbLine
 10
27.199999999373404
 20
116.90000000000151
 30
0.0
 11
28.399999993412848
 21
116.90000000000151
 31
0.0
  0
ARC
  5
421
100
AcDbEntity
  8
0
  6
CONTINUOUS
 62
               4
100
AcDbCircle
 10
20.017157286864631
 20
91.699999999999193
 30
0.0
 40
0.2
100
AcDbArc
 50
269.99999999999937
 51
45.000000000000966
  0
ARC
  5
422
100
AcDbEntity
  8
0
  6
CONTINUOUS
 62
               4
100
AcDbCircle
 10
12.982842713135369
 20
91.699999999999193
 30
0.0
 40
0.2
100
AcDbArc
 50
134.99999999999793
 51
269.99999999999937
  0
ARC
  5
423
100
AcDbEntity
  8
0
  6
CONTINUOUS
 62
               4
100
AcDbCircle
 10
16.5
 20
95.217157286863824
 30
0.0
 40
0.2
100
AcDbArc
 50
44.99999999999919
 51
134.99999999999898
  0
LINE
  5
424
100
AcDbEntity
  8
0
  6
CONTINUOUS
 62
               4
100
AcDbLine
 10
16.641421356237288
 20
95.358578643101112
 30
0.0
 11
20.158578643101919
 21
91.841421356236481
 31
0.0
  0
LINE
  5
425
100
AcDbEntity
  8
0
  6
CONTINUOUS
 62
               4
100
AcDbLine
 10
16.358578643762712
 20
95.358578643101112
 30
0.0
 11
12.841421356898081
 21
91.841421356236481
 31
0.0
  0
LINE
  5
426
100
AcDbEntity
  8
0
  6
CONTINUOUS
 62
               4
100
AcDbLine
 10
20.017157286864631
 20
91.499999999999375
 30
0.0
 11
12.982842713135369
 21
91.499999999999375
 31
0.0
  0
LINE
  5
427
100
AcDbEntity
  8
0
  6
CONTINUOUS
 62
               4
100
AcDbLine
 10
8.6000000000001364
 20
97.799999999999557
 30
0.0
 11
8.6000000000001364
 21
99.899999999999466
 31
0.0
  0
LINE
  5
428
100
AcDbEntity
  8
0
  6
CONTINUOUS
 62
               4
100
AcDbLine
 10
8.6000000000001364
 20
99.899999999999466
 30
0.0
 11
7.2000000000002728
 21
99.899999999999466
 31
0.0
  0
ARC
  5
429
100
AcDbEntity
  8
0
  6
CONTINUOUS
 62
               4
100
AcDbCircle
 10
7.7000000000000455
 20
90.499999999999375
 30
0.0
 40
0.5
100
AcDbArc
 50
179.99999999999963
 51
269.99999999999937
  0
LINE
  5
42A
100
AcDbEntity
  8
0
  6
CONTINUOUS
 62
               4
100
AcDbLine
 10
25.299999999999955
 20
89.999999999999375
 30
0.0
 11
7.7000000000000455
 21
89.999999999999375
 31
0.0
  0
ARC
  5
42B
100
AcDbEntity
  8
0
  6
CONTINUOUS
 62
               4
100
AcDbCircle
 10
25.299999999999955
 20
90.499999999999147
 30
0.0
 40
0.5
100
AcDbArc
 50
269.9999999999979
 51
359.99999999999767
  0
LINE
  5
42C
100
AcDbEntity
  8
0
  6
CONTINUOUS
 62
               4
100
AcDbLine
 10
24.400000000000091
 20
97.799999999999557
 30
0.0
 11
24.400000000000091
 21
99.899999999999011
 31
0.0
  0
LINE
  5
42D
100
AcDbEntity
  8
0
  6
CONTINUOUS
 62
               4
100
AcDbLine
 10
24.400000000000091
 20
99.899999999999011
 30
0.0
 11
25.800000000000182
 21
99.899999999999011
 31
0.0
  0
LINE
  5
42E
100
AcDbEntity
  8
0
  6
CONTINUOUS
 62
               4
100
AcDbLine
 10
25.800000000000118
 20
97.799999999999557
 30
0.0
 11
7.2000000000000455
 21
97.799999999999557
 31
0.0
  0
ARC
  5
42F
100
AcDbEntity
  8
0
  6
CONTINUOUS
 62
               7
100
AcDbCircle
 10
9.0
 20
75.000000000000057
 30
0.0
 40
5.0
100
AcDbArc
 50
151.64236342367738
 51
179.99999999999963
  0
ARC
  5
430
100
AcDbEntity
  8
0
  6
CONTINUOUS
 62
               7
100
AcDbCircle
 10
34.0
 20
75.000000000000057
 30
0.0
 40
5.0
100
AcDbArc
 50
0.0
 51
89.999999999999815
  0
LINE
  5
431
100
AcDbEntity
  8
0
  6
CONTINUOUS
 62
               7
100
AcDbLine
 10
28.400000000001
 20
80.000000000000057
 30
0.0
 11
34.0
 21
80.000000000000057
 31
0.0
  0
LINE
  5
432
100
AcDbEntity
  8
0
  6
CONTINUOUS
 62
               7
100
AcDbLine
 10
38.0
 20
-11.0
 30
0.0
 11
28.399999999998954
 21
-11.0
 31
0.0
  0
LINE
  5
433
100
AcDbEntity
  8
0
  6
CONTINUOUS
 62
               7
100
AcDbLine
 10
-4.9999999999995453
 20
0.0
 30
0.0
 11
-5.0
 21
59.000000000000057
 31
0.0
  0
LINE
  5
434
100
AcDbEntity
  8
0
  6
CONTINUOUS
 62
               7
100
AcDbLine
 10
39.0
 20
-10.0
 30
0.0
 11
39.0
 21
75.000000000000057
 31
0.0
  0
LINE
  5
435
100
AcDbEntity
  8
0
  6
CENTER
 62
               2
100
AcDbLine
 10
34.0
 20
71.269653850984071
 30
0.0
 11
34.0
 21
78.90417721939599
 31
0.0
  0
LINE
  5
436
100
AcDbEntity
  8
0
  6
CENTER
 62
               2
100
AcDbLine
 10
0.0
 20
-4.240734955477194
 30
0.0
 11
0.0
 21
4.4336281086322629
 31
0.0
  0
LINE
  5
437
100
AcDbEntity
  8
0
  6
CENTER
 62
               2
100
AcDbLine
 10
6.6782932201736003
 20
0.0
 30
0.0
 11
-4.6277648756251892
 21
0.0
 31
0.0
  0
LINE
  5
438
100
AcDbEntity
  8
0
  6
CONTINUOUS
 62
               7
100
AcDbLine
 10
4.0
 20
61.000000000000057
 30
0.0
 11
4.0
 21
75.000000000000057
 31
0.0
  0
LINE
  5
439
100
AcDbEntity
  8
0
  6
CONTINUOUS
 62
               7
100
AcDbLine
 10
-4.0
 20
60.000000000000057
 30
0.0
 11
3.0
 21
60.000000000000057
 31
0.0
  0
ARC
  5
43A
100
AcDbEntity
  8
0
  6
CONTINUOUS
 62
               7
100
AcDbCircle
 10
3.0
 20
61.000000000000057
 30
0.0
 40
1.0
100
AcDbArc
 50
269.99999999999937
 51
0.0
  0
LINE
  5
43B
100
AcDbEntity
  8
0
  6
CONTINUOUS
 62
               7
100
AcDbLine
 10
4.0000000000004547
 20
-10.0
 30
0.0
 11
4.0000000000004547
 21
-6.0
 31
0.0
  0
ARC
  5
43C
100
AcDbEntity
  8
0
  6
CONTINUOUS
 62
               7
100
AcDbCircle
 10
5.0000000000004547
 20
-10.0
 30
0.0
 40
1.0
100
AcDbArc
 50
179.99999999999963
 51
246.4218215216647
  0
ARC
  5
43D
100
AcDbEntity
  8
0
  6
CONTINUOUS
 62
               7
100
AcDbCircle
 10
0.0
 20
0.0
 30
0.0
 40
5.0
100
AcDbArc
 50
179.99999999999963
 51
269.99999999999937
  0
LINE
  5
43E
100
AcDbEntity
  8
0
  6
CONTINUOUS
 62
               7
100
AcDbLine
 10
3.0000000119212018
 20
-5.0
 30
0.0
 11
0.0
 21
-5.0
 31
0.0
  0
ARC
  5
43F
100
AcDbEntity
  8
0
  6
CONTINUOUS
 62
               7
100
AcDbCircle
 10
3.0000000000004547
 20
-6.0
 30
0.0
 40
1.0
100
AcDbArc
 50
0.0
 51
89.999999999999815
  0
ARC
  5
440
100
AcDbEntity
  8
0
  6
CONTINUOUS
 62
               7
100
AcDbCircle
 10
38.0
 20
-10.0
 30
0.0
 40
1.0
100
AcDbArc
 50
270.00000000000023
 51
0.0
  0
LINE
  5
441
100
AcDbEntity
  8
0
  6
CENTER
 62
               2
100
AcDbLine
 10
30.042568627498895
 20
75.000000000000057
 30
0.0
 11
39.196056725390008
 21
75.000000000000057
 31
0.0
  0
ARC
  5
442
100
AcDbEntity
  8
0
  6
CONTINUOUS
 62
               7
100
AcDbCircle
 10
-4.0
 20
59.000000000000057
 30
0.0
 40
1.0
100
AcDbArc
 50
89.999999999999815
 51
179.99999999999963
  0
CIRCLE
  5
443
100
AcDbEntity
  8
0
  6
CONTINUOUS
 62
               7
100
AcDbCircle
 10
34.0
 20
75.000000000000057
 30
0.0
 40
2.7000000000000002
  0
CIRCLE
  5
444
100
AcDbEntity
  8
0
  6
CONTINUOUS
 62
               7
100
AcDbCircle
 10
0.0
 20
0.0
 30
0.0
 40
2.7000000000000002
  0
LINE
  5
445
100
AcDbEntity
  8
0
  6
CENTER
 62
               2
100
AcDbLine
 10
16.499999999998636
 20
-40.189318247902861
 30
0.0
 11
16.500000000001592
 21
82.500000000000711
 31
0.0
  0
LINE
  5
446
100
AcDbEntity
  8
0
  6
CONTINUOUS
 62
               7
100
AcDbLine
 10
28.399999999999068
 20
-2.7320505583235786
 30
0.0
 11
28.399999999998272
 21
-37.499999999999773
 31
0.0
  0
LINE
  5
447
100
AcDbEntity
  8
0
  6
CONTINUOUS
 62
               7
100
AcDbLine
 10
25.800000000001489
 20
61.999999999999602
 30
0.0
 11
28.400000000000603
 21
61.999999999999602
 31
0.0
  0
LINE
  5
448
100
AcDbEntity
  8
0
  6
CONTINUOUS
 62
               7
100
AcDbLine
 10
25.800000000001319
 20
53.999999999999602
 30
0.0
 11
28.40000000000029
 21
53.999999999999602
 31
0.0
  0
ARC
  5
449
100
AcDbEntity
  8
0
  6
CONTINUOUS
 62
               7
100
AcDbCircle
 10
7.199999999999136
 20
1.0000001192099148
 30
0.0
 40
4.0
100
AcDbArc
 50
269.99999999999801
 51
89.999999999997556
  0
CIRCLE
  5
44A
100
AcDbEntity
  8
0
  6
CONTINUOUS
 62
               7
100
AcDbCircle
 10
7.199999999999136
 20
1.0000000000006253
 30
0.0
 40
2.9803848266601563
  0
CIRCLE
  5
44B
100
AcDbEntity
  8
0
  6
CONTINUOUS
 62
               7
100
AcDbCircle
 10
7.199999999999136
 20
1.0000001192099148
 30
0.0
 40
3.5
  0
LINE
  5
44C
100
AcDbEntity
  8
0
  6
CONTINUOUS
 62
               7
100
AcDbLine
 10
5.6999996001370619
 20
1.866025380256076
 30
0.0
 11
7.1999997527690311
 21
2.7320507248630861
 31
0.0
  0
LINE
  5
44D
100
AcDbEntity
  8
0
  6
CONTINUOUS
 62
               7
100
AcDbLine
 10
5.6999996001370619
 20
0.133974858163981
 30
0.0
 11
7.1999997527688038
 21
-0.7320504864433701
 31
0.0
  0
LINE
  5
44E
100
AcDbEntity
  8
0
  6
CENTER
 62
               2
100
AcDbLine
 10
7.1999999999989086
 20
-4.7040875892793679
 30
0.0
 11
7.1999999999993634
 21
6.9844548936382012
 31
0.0
  0
LINE
  5
44F
100
AcDbEntity
  8
0
  6
CONTINUOUS
 62
               7
100
AcDbLine
 10
7.1999999999989654
 20
-2.9999998807900852
 30
0.0
 11
4.5999999999998522
 21
-2.9999998807900852
 31
0.0
  0
LINE
  5
450
100
AcDbEntity
  8
0
  6
CONTINUOUS
 62
               7
100
AcDbLine
 10
7.199999999999136
 20
5.0000001192099148
 30
0.0
 11
4.6000000000001648
 21
5.0000001192099148
 31
0.0
  0
LINE
  5
451
100
AcDbEntity
  8
0
  6
CONTINUOUS
 62
               7
100
AcDbLine
 10
8.699999999999136
 20
0.1339747309689869
 30
0.0
 11
8.699999999999136
 21
1.8660255074506154
 31
0.0
  0
LINE
  5
452
100
AcDbEntity
  8
0
  6
CONTINUOUS
 62
               7
100
AcDbLine
 10
7.1999993574393102
 20
2.7320501373754382
 30
0.0
 11
8.6999995100710521
 21
1.8660247927682008
 31
0.0
  0
LINE
  5
453
100
AcDbEntity
  8
0
  6
CONTINUOUS
 62
               7
100
AcDbLine
 10
7.1999993574390828
 20
-0.7320498989557223
 30
0.0
 11
8.6999995100709384
 21
0.1339754456514015
 31
0.0
  0
LINE
  5
454
100
AcDbEntity
  8
0
  6
CENTER
 62
               2
100
AcDbLine
 10
3.3533438735590835
 20
1.0000001192100285
 30
0.0
 11
12.563610480615921
 21
1.0000001192096875
 31
0.0
  0
LINE
  5
455
100
AcDbEntity
  8
0
  6
CONTINUOUS
 62
               7
100
AcDbLine
 10
5.699999999999136
 20
0.1339744329459904
 30
0.0
 11
5.699999999999136
 21
1.8660258054740666
 31
0.0
  0
LINE
  5
456
100
AcDbEntity
  8
0
  6
CONTINUOUS
 62
               7
100
AcDbLine
 10
4.5999999999984311
 20
-1.3430747835614625
 30
0.0
 11
4.5999999999978627
 21
-37.499999999999773
 31
0.0
  0
LINE
  5
457
100
AcDbEntity
  8
0
  6
CONTINUOUS
 62
               7
100
AcDbLine
 10
4.5999999999997669
 20
82.500000000001435
 30
0.0
 11
4.599999999999568
 21
61.732051033595951
 31
0.0
  0
LINE
  5
458
100
AcDbEntity
  8
0
  6
CONTINUOUS
 62
               7
100
AcDbLine
 10
28.400000000001114
 20
82.5
 30
0.0
 11
28.400000000000546
 21
60.343074902772571
 31
0.0
  0
LINE
  5
459
100
AcDbEntity
  8
0
  6
DASHED
 62
               2
100
AcDbLine
 10
4.5999999999997669
 20
82.500000000001435
 30
0.0
 11
28.400000000001114
 21
82.5
 31
0.0
  0
LINE
  5
45A
100
AcDbEntity
  8
0
  6
CENTER
 62
             200
100
AcDbLine
 10
16.500000000001592
 20
82.500000000000711
 30
0.0
 11
16.500000000002615
 21
124.7686818489471
 31
0.0
  0
ARC
  5
45B
100
AcDbEntity
  8
0
  6
CONTINUOUS
 62
               4
100
AcDbCircle
 10
27.400000000000318
 20
120.99999999999915
 30
0.0
 40
1.0
100
AcDbArc
 50
359.99999999999847
 51
89.999999999998266
  0
ARC
  5
45C
100
AcDbEntity
  8
0
  6
CONTINUOUS
 62
               4
100
AcDbCircle
 10
5.6000000000005912
 20
120.99999999999937
 30
0.0
 40
1.0
100
AcDbArc
 50
89.999999999999815
 51
179.99999999999963
  0
ENDBLK
  5
45D
100
AcDbEntity
  8
0
100
AcDbBlockEnd
  0
BLOCK
  5
45E
100
AcDbEntity
  8
0
100
AcDbBlockBegin
  2
PA24A7-11
 70
               0
 10
0.0
 20
0.0
 30
0.0
  3
PA24A7-11
  1

  0
LINE
  5
45F
100
AcDbEntity
  8
0
  6
CENTER
 62
               2
100
AcDbLine
 10
-4.9999999825548116
 20
0.0
 30
0.0
 11
5.0
 21
0.0
 31
0.0
  0
LINE
  5
460
100
AcDbEntity
  8
0
  6
CENTER
 62
               2
100
AcDbLine
 10
-4.9999999825548116
 20
75.000000000000057
 30
0.0
 11
5.0
 21
75.000000000000057
 31
0.0
  0
LINE
  5
461
100
AcDbEntity
  8
0
  6
CONTINUOUS
 62
               4
100
AcDbLine
 10
37.899999999984743
 20
122.5000000000021
 30
0.0
 11
68.799999999985516
 21
122.50000000000233
 31
0.0
  0
LINE
  5
462
100
AcDbEntity
  8
0
  6
CONTINUOUS
 62
               4
100
AcDbLine
 10
68.799999999985516
 20
122.50000000000233
 30
0.0
 11
69.399999999985653
 21
122.50000000000256
 31
0.0
  0
ARC
  5
463
100
AcDbEntity
  8
0
  6
CONTINUOUS
 62
               4
100
AcDbCircle
 10
69.399999999985653
 20
122.00000000000256
 30
0.0
 40
0.5
100
AcDbArc
 50
0.0000000000006361
 51
90.000000000000441
  0
LINE
  5
464
100
AcDbEntity
  8
0
  6
CONTINUOUS
 62
               7
100
AcDbLine
 10
43.399999999999295
 20
-37.09999999998837
 30
0.0
 11
42.999999999999432
 21
-37.499999999988347
 31
0.0
  0
ARC
  5
465
100
AcDbEntity
  8
0
  6
CONTINUOUS
 62
               7
100
AcDbCircle
 10
33.499999999999432
 20
-36.999999999988347
 30
0.0
 40
0.5
100
AcDbArc
 50
179.99999999999963
 51
269.99999999999937
  0
LINE
  5
466
100
AcDbEntity
  8
0
  6
CONTINUOUS
 62
               7
100
AcDbLine
 10
33.499999999999432
 20
-37.499999999988347
 30
0.0
 11
42.999999999999432
 21
-37.499999999988347
 31
0.0
  0
LINE
  5
467
100
AcDbEntity
  8
0
  6
CONTINUOUS
 62
               7
100
AcDbLine
 10
32.99999999998829
 20
82.500000000001876
 30
0.0
 11
32.999999999999432
 21
-36.999999999988347
 31
0.0
  0
LINE
  5
468
100
AcDbEntity
  8
0
  6
CONTINUOUS
 62
               7
100
AcDbLine
 10
65.899999999986221
 20
82.300000000002058
 30
0.0
 11
68.7999999999887
 21
82.300000000002285
 31
0.0
  0
ARC
  5
469
100
AcDbEntity
  8
0
  6
CONTINUOUS
 62
               7
100
AcDbCircle
 10
67.399999999986335
 20
72.500000000002103
 30
0.0
 40
2.0
100
AcDbArc
 50
180.00000000000196
 51
0.0000000000015267
  0
LINE
  5
46A
100
AcDbEntity
  8
0
  6
CONTINUOUS
 62
               7
100
AcDbLine
 10
69.399999999986335
 20
72.499999994250913
 30
0.0
 11
69.399999999986335
 21
76.499999994250913
 31
0.0
  0
ARC
  5
46B
100
AcDbEntity
  8
0
  6
CONTINUOUS
 62
               7
100
AcDbCircle
 10
69.399999999986335
 20
77.000000000001876
 30
0.0
 40
0.5
100
AcDbArc
 50
270.00000000000091
 51
0.0000000000015267
  0
ARC
  5
46C
100
AcDbEntity
  8
0
  6
CONTINUOUS
 62
               7
100
AcDbCircle
 10
65.899999999986221
 20
81.800000000002058
 30
0.0
 40
0.5
100
AcDbArc
 50
90.00000000000135
 51
180.00000000000114
  0
LINE
  5
46D
100
AcDbEntity
  8
0
  6
CONTINUOUS
 62
               7
100
AcDbLine
 10
69.999999999989313
 20
76.500000000006423
 30
0.0
 11
68.799999999989154
 21
76.500000000006196
 31
0.0
  0
LINE
  5
46E
100
AcDbEntity
  8
0
  6
CONTINUOUS
 62
               7
100
AcDbLine
 10
65.399999999988495
 20
82.500000000005741
 30
0.0
 11
65.399999999989859
 21
72.419155751121082
 31
0.0
  0
LINE
  5
46F
100
AcDbEntity
  8
0
  6
CONTINUOUS
 62
               7
100
AcDbLine
 10
69.999999999558554
 20
69.000000000006423
 30
0.0
 11
66.55476355508506
 21
70.606540143495806
 31
0.0
  0
ARC
  5
470
100
AcDbEntity
  8
0
  6
CONTINUOUS
 62
               7
100
AcDbCircle
 10
67.399999999989859
 20
72.419155751121309
 30
0.0
 40
2.0
100
AcDbArc
 50
180.00000000000682
 51
245.00000149217658
  0
LINE
  5
471
100
AcDbEntity
  8
0
  6
CONTINUOUS
 62
               7
100
AcDbLine
 10
59.599999999999341
 20
-37.09999999998837
 30
0.0
 11
59.999999999999432
 21
-37.499999999988347
 31
0.0
  0
LINE
  5
472
100
AcDbEntity
  8
0
  6
CONTINUOUS
 62
               7
100
AcDbLine
 10
69.99999999999693
 20
-36.999999999988347
 30
0.0
 11
70.000000000011084
 21
76.500000000006423
 31
0.0
  0
LINE
  5
473
100
AcDbEntity
  8
0
  6
CONTINUOUS
 62
               7
100
AcDbLine
 10
59.999999999999432
 20
-37.499999999988347
 30
0.0
 11
69.499999999999432
 21
-37.499999999988347
 31
0.0
  0
ARC
  5
474
100
AcDbEntity
  8
0
  6
CONTINUOUS
 62
               7
100
AcDbCircle
 10
69.499999999999432
 20
-36.999999999988347
 30
0.0
 40
0.5
100
AcDbArc
 50
269.99999999999937
 51
0.0
  0
LINE
  5
475
100
AcDbEntity
  8
0
  6
CENTER
 62
               2
100
AcDbLine
 10
65.328629636664516
 20
1.5000000000090381
 30
0.0
 11
71.239852399631729
 21
1.5000000000075602
 31
0.0
  0
LINE
  5
476
100
AcDbEntity
  8
0
  6
CONTINUOUS
 62
               7
100
AcDbLine
 10
66.000000000008697
 20
5.5000001192098011
 30
0.0
 11
66.000000000006736
 21
-2.4999998807901989
 31
0.0
  0
LINE
  5
477
100
AcDbEntity
  8
0
  6
CONTINUOUS
 62
               7
100
AcDbLine
 10
69.700000000008572
 20
5.0000001192098011
 30
0.0
 11
69.700000000006867
 21
-1.9999998807901989
 31
0.0
  0
LINE
  5
478
100
AcDbEntity
  8
0
  6
CONTINUOUS
 62
               7
100
AcDbLine
 10
70.000000000000568
 20
5.5000001192098011
 30
0.0
 11
66.000000000008697
 21
5.5000001192098011
 31
0.0
  0
LINE
  5
479
100
AcDbEntity
  8
0
  6
CONTINUOUS
 62
               7
100
AcDbLine
 10
70.000000000000597
 20
-2.4999998807901989
 30
0.0
 11
66.000000000006764
 21
-2.4999998807901989
 31
0.0
  0
LINE
  5
47A
100
AcDbEntity
  8
0
  6
CONTINUOUS
 62
               7
100
AcDbLine
 10
69.700000000008572
 20
5.0000001192098011
 30
0.0
 11
66.000000000008583
 21
5.0000001192098011
 31
0.0
  0
LINE
  5
47B
100
AcDbEntity
  8
0
  6
CONTINUOUS
 62
               7
100
AcDbLine
 10
69.700000000006867
 20
-1.9999998807901989
 30
0.0
 11
66.000000000006878
 21
-1.9999998807901989
 31
0.0
  0
LINE
  5
47C
100
AcDbEntity
  8
0
  6
CONTINUOUS
 62
               7
100
AcDbLine
 10
69.700000000008572
 20
5.0000001192098011
 30
0.0
 11
70.000000000000597
 21
4.4803850650792469
 31
0.0
  0
LINE
  5
47D
100
AcDbEntity
  8
0
  6
CONTINUOUS
 62
               7
100
AcDbLine
 10
69.700000000006867
 20
-1.9999998807901989
 30
0.0
 11
70.000000000000597
 21
-1.4803845882410656
 31
0.0
  0
LINE
  5
47E
100
AcDbEntity
  8
0
  6
CONTINUOUS
 62
               7
100
AcDbLine
 10
43.399999999999295
 20
-37.09999999998837
 30
0.0
 11
59.599999999999341
 21
-37.09999999998837
 31
0.0
  0
LINE
  5
47F
100
AcDbEntity
  8
0
  6
CONTINUOUS
 62
               7
100
AcDbLine
 10
32.999999999989996
 20
-23.999999999990052
 30
0.0
 11
69.999999999990223
 21
-23.999999999986642
 31
0.0
  0
LINE
  5
480
100
AcDbEntity
  8
0
  6
CONTINUOUS
 62
               7
100
AcDbLine
 10
32.999999999990109
 20
67.500000000002785
 30
0.0
 11
69.99999999999045
 21
67.500000000006423
 31
0.0
  0
LINE
  5
481
100
AcDbEntity
  8
0
  6
CONTINUOUS
 62
               7
100
AcDbLine
 10
32.999999999988972
 20
82.500000000001876
 30
0.0
 11
68.799999999988927
 21
82.500000000003922
 31
0.0
  0
LINE
  5
482
100
AcDbEntity
  8
0
  6
CONTINUOUS
 62
               7
100
AcDbLine
 10
32.0
 20
-7.4999999999971578
 30
0.0
 11
69.99999999999045
 21
-7.4999999999935767
 31
0.0
  0
LINE
  5
483
100
AcDbEntity
  8
0
  6
CONTINUOUS
 62
               7
100
AcDbLine
 10
32.999999999997954
 20
54.767949172766578
 30
0.0
 11
69.999999999998408
 21
54.767949172766578
 31
0.0
  0
LINE
  5
484
100
AcDbEntity
  8
0
  6
CONTINUOUS
 62
               7
100
AcDbLine
 10
32.999999999998181
 20
56.500000000015746
 30
0.0
 11
70.000000000000455
 21
56.500000000015746
 31
0.0
  0
LINE
  5
485
100
AcDbEntity
  8
0
  6
CONTINUOUS
 62
               7
100
AcDbLine
 10
32.999999999998749
 20
60.500000000015746
 30
0.0
 11
69.999999999999091
 21
60.500000000015746
 31
0.0
  0
LINE
  5
486
100
AcDbEntity
  8
0
  6
CONTINUOUS
 62
               7
100
AcDbLine
 10
32.999999999998863
 20
62.232050867692863
 30
0.0
 11
69.999999999999318
 21
62.232050867692863
 31
0.0
  0
LINE
  5
487
100
AcDbEntity
  8
0
  6
CONTINUOUS
 62
             200
100
AcDbLine
 10
22.31912739113011
 20
100.20000000000238
 30
0.0
 11
21.45912739113021
 21
103.40000000000242
 31
0.0
  0
LINE
  5
488
100
AcDbEntity
  8
0
  6
CONTINUOUS
 62
             200
100
AcDbLine
 10
23.349127391130082
 20
100.20000000000238
 30
0.0
 11
22.489127391130182
 21
103.40000000000242
 31
0.0
  0
LINE
  5
489
100
AcDbEntity
  8
0
  6
CONTINUOUS
 62
               4
100
AcDbLine
 10
25.899999999997931
 20
100.10000000000235
 30
0.0
 11
25.899999999998158
 21
103.50000000000244
 31
0.0
  0
ARC
  5
48A
100
AcDbEntity
  8
0
  6
CONTINUOUS
 62
               4
100
AcDbCircle
 10
26.199999999998113
 20
103.50000000000233
 30
0.0
 40
0.3
100
AcDbArc
 50
89.999999999999815
 51
179.99999999999963
  0
LINE
  5
48B
100
AcDbEntity
  8
0
  6
CONTINUOUS
 62
               4
100
AcDbLine
 10
26.199999999998113
 20
103.8000000000024
 30
0.0
 11
26.899999999998158
 21
103.8000000000024
 31
0.0
  0
LINE
  5
48C
100
AcDbEntity
  8
0
  6
CONTINUOUS
 62
               4
100
AcDbLine
 10
27.899999998700991
 20
119.49999998217748
 30
0.0
 11
36.399999998700991
 21
119.49999998217748
 31
0.0
  0
ARC
  5
48D
100
AcDbEntity
  8
0
  6
CONTINUOUS
 62
               4
100
AcDbCircle
 10
27.899999999985425
 20
118.49999998217748
 30
0.0
 40
1.0
100
AcDbArc
 50
89.999999999999815
 51
179.99999999999963
  0
ARC
  5
48E
100
AcDbEntity
  8
0
  6
CONTINUOUS
 62
               4
100
AcDbCircle
 10
36.399999999984743
 20
119.99999998217748
 30
0.0
 40
0.5
100
AcDbArc
 50
269.99999999999937
 51
0.0
  0
LINE
  5
48F
100
AcDbEntity
  8
0
  6
CONTINUOUS
 62
               4
100
AcDbLine
 10
36.899999999984743
 20
121.5000000000021
 30
0.0
 11
36.899999999984743
 21
119.99999998217748
 31
0.0
  0
LINE
  5
490
100
AcDbEntity
  8
0
  6
CONTINUOUS
 62
               4
100
AcDbLine
 10
15.39912739113015
 20
102.05000000000251
 30
0.0
 11
15.39912739113015
 21
101.55000000000251
 31
0.0
  0
LINE
  5
491
100
AcDbEntity
  8
0
  6
CONTINUOUS
 62
               4
100
AcDbLine
 10
18.89912739113015
 20
102.5500000000024
 30
0.0
 11
18.89912739113015
 21
101.05000000000251
 31
0.0
  0
LINE
  5
492
100
AcDbEntity
  8
0
  6
CONTINUOUS
 62
               4
100
AcDbLine
 10
18.89912739113015
 20
102.05000000000251
 30
0.0
 11
15.39912739113015
 21
102.05000000000251
 31
0.0
  0
LINE
  5
493
100
AcDbEntity
  8
0
  6
CONTINUOUS
 62
               4
100
AcDbLine
 10
18.89912739113015
 20
101.55000000000251
 30
0.0
 11
15.39912739113015
 21
101.55000000000251
 31
0.0
  0
LINE
  5
494
100
AcDbEntity
  8
0
  6
CONTINUOUS
 62
               4
100
AcDbLine
 10
22.059127391130119
 20
101.05000000000251
 30
0.0
 11
18.89912739113015
 21
101.05000000000251
 31
0.0
  0
LINE
  5
495
100
AcDbEntity
  8
0
  6
CONTINUOUS
 62
               4
100
AcDbLine
 10
21.687564891130137
 20
102.5500000000024
 30
0.0
 11
18.89912739113015
 21
102.5500000000024
 31
0.0
  0
ARC
  5
496
100
AcDbEntity
  8
0
  6
CONTINUOUS
 62
               4
100
AcDbCircle
 10
26.199999999998113
 20
100.10000000000235
 30
0.0
 40
0.3
100
AcDbArc
 50
179.99999999999963
 51
269.99999999999937
  0
LINE
  5
497
100
AcDbEntity
  8
0
  6
CONTINUOUS
 62
               4
100
AcDbLine
 10
26.199999999998113
 20
99.800000000002399
 30
0.0
 11
26.899999999998158
 21
99.800000000002399
 31
0.0
  0
LINE
  5
498
100
AcDbEntity
  8
0
  6
CONTINUOUS
 62
               4
100
AcDbLine
 10
25.899999999998045
 20
101.0500000000024
 30
0.0
 11
23.120689891130155
 21
101.0500000000024
 31
0.0
  0
LINE
  5
499
100
AcDbEntity
  8
0
  6
CONTINUOUS
 62
               4
100
AcDbLine
 10
25.899999999998158
 20
102.5500000000024
 30
0.0
 11
22.71756489113011
 21
102.5500000000024
 31
0.0
  0
LINE
  5
49A
100
AcDbEntity
  8
0
  6
CENTER
 62
             200
100
AcDbLine
 10
28.389104190847661
 20
101.80000000000251
 30
0.0
 11
14.489390149000201
 21
101.80000000000285
 31
0.0
  0
LINE
  5
49B
100
AcDbEntity
  8
0
  6
CONTINUOUS
 62
               4
100
AcDbLine
 10
26.899999999986335
 20
96.565826257582955
 30
0.0
 11
26.899999999985425
 21
118.49999997340166
 31
0.0
  0
LINE
  5
49C
100
AcDbEntity
  8
0
  6
CONTINUOUS
 62
               4
100
AcDbLine
 10
69.89999999545455
 20
120.60000000000451
 30
0.0
 11
68.799999999985289
 21
120.60000000000429
 31
0.0
  0
LINE
  5
49D
100
AcDbEntity
  8
0
  6
CONTINUOUS
 62
               4
100
AcDbLine
 10
69.899999995454777
 20
117.40000000000447
 30
0.0
 11
68.799999999985857
 21
117.40000000000447
 31
0.0
  0
LINE
  5
49E
100
AcDbEntity
  8
0
  6
CONTINUOUS
 62
               4
100
AcDbLine
 10
69.999999995454573
 20
109.10000000000247
 30
0.0
 11
69.999999995454459
 21
115.89999999547155
 31
0.0
  0
LINE
  5
49F
100
AcDbEntity
  8
0
  6
CONTINUOUS
 62
               4
100
AcDbLine
 10
69.899999990923675
 20
116.00000000000233
 30
0.0
 11
69.999999995454459
 21
115.89999999547155
 31
0.0
  0
LINE
  5
4A0
100
AcDbEntity
  8
0
  6
CONTINUOUS
 62
               4
100
AcDbLine
 10
69.999999995454573
 20
109.10000000000247
 30
0.0
 11
69.89999999545455
 21
109.00000000000233
 31
0.0
  0
LINE
  5
4A1
100
AcDbEntity
  8
0
  6
CONTINUOUS
 62
               4
100
AcDbLine
 10
37.99999999998829
 20
90.700000009395637
 30
0.0
 11
37.99999999998829
 21
90.500000000002103
 31
0.0
  0
ARC
  5
4A2
100
AcDbEntity
  8
0
  6
CONTINUOUS
 62
               4
100
AcDbCircle
 10
40.09999999999161
 20
91.200000009395637
 30
0.0
 40
0.5
100
AcDbArc
 50
270.00000000000267
 51
0.0000000000025444
  0
ARC
  5
4A3
100
AcDbEntity
  8
0
  6
CONTINUOUS
 62
               4
100
AcDbCircle
 10
40.099999999990928
 20
94.000000000002103
 30
0.0
 40
0.5
100
AcDbArc
 50
0.000000000002519
 51
90.000000000002316
  0
LINE
  5
4A4
100
AcDbEntity
  8
0
  6
CONTINUOUS
 62
               4
100
AcDbLine
 10
40.59999999999161
 20
91.200000009395865
 30
0.0
 11
40.599999999990928
 21
94.000000000002331
 31
0.0
  0
LINE
  5
4A5
100
AcDbEntity
  8
0
  6
CONTINUOUS
 62
               4
100
AcDbLine
 10
34.499999999990109
 20
94.500000000001876
 30
0.0
 11
34.499999999990109
 21
95.500000000001876
 31
0.0
  0
LINE
  5
4A6
100
AcDbEntity
  8
0
  6
CONTINUOUS
 62
               4
100
AcDbLine
 10
33.499999999990109
 20
94.500000000001876
 30
0.0
 11
33.499999999990109
 21
95.500000000001876
 31
0.0
  0
LINE
  5
4A7
100
AcDbEntity
  8
0
  6
CONTINUOUS
 62
               4
100
AcDbLine
 10
28.087511073623887
 20
94.500000000001648
 30
0.0
 11
40.099999999990928
 21
94.500000000002103
 31
0.0
  0
LINE
  5
4A8
100
AcDbEntity
  8
0
  6
CONTINUOUS
 62
               4
100
AcDbLine
 10
29.221432297654815
 20
90.70000000939541
 30
0.0
 11
40.09999999999161
 21
90.700000009395637
 31
0.0
  0
ARC
  5
4A9
100
AcDbEntity
  8
0
  6
CONTINUOUS
 62
               4
100
AcDbCircle
 10
40.400000000000318
 20
96.000000000002103
 30
0.0
 40
0.5
100
AcDbArc
 50
270.00000000000193
 51
0.0000000000025444
  0
LINE
  5
4AA
100
AcDbEntity
  8
0
  6
CONTINUOUS
 62
               4
100
AcDbLine
 10
27.16794919477195
 20
95.500000000001648
 30
0.0
 11
40.400000000000432
 21
95.500000000002103
 31
0.0
  0
LINE
  5
4AB
100
AcDbEntity
  8
0
  6
CONTINUOUS
 62
               4
100
AcDbLine
 10
28.255506476348501
 20
91.441180969016898
 30
0.0
 11
26.917037086841788
 21
96.436416735031855
 31
0.0
  0
ARC
  5
4AC
100
AcDbEntity
  8
0
  6
CONTINUOUS
 62
               4
100
AcDbCircle
 10
29.221432297654019
 20
91.700000009397911
 30
0.0
 40
1.0
100
AcDbArc
 50
194.99999981259796
 51
269.99999999999937
  0
ARC
  5
4AD
100
AcDbEntity
  8
0
  6
CONTINUOUS
 62
               4
100
AcDbCircle
 10
39.900000000000659
 20
95.800000000002058
 30
0.0
 40
1.0
100
AcDbArc
 50
197.4576031237236
 51
11.309932474184668
  0
ARC
  5
4AE
100
AcDbEntity
  8
0
  6
CONTINUOUS
 62
               4
100
AcDbCircle
 10
28.087511073623887
 20
94.000000000001648
 30
0.0
 40
0.5
100
AcDbArc
 50
89.999999999999815
 51
194.99999999999952
  0
ARC
  5
4AF
100
AcDbEntity
  8
0
  6
CONTINUOUS
 62
               4
100
AcDbCircle
 10
27.399999999986335
 20
96.565826257583069
 30
0.0
 40
0.5
100
AcDbArc
 50
179.99999999999963
 51
194.99999999999918
  0
LINE
  5
4B0
100
AcDbEntity
  8
0
  6
CONTINUOUS
 62
               4
100
AcDbLine
 10
33.749999999988404
 20
89.000000000001194
 30
0.0
 11
38.249999999988404
 21
89.000000000000739
 31
0.0
  0
ARC
  5
4B1
100
AcDbEntity
  8
0
  6
CONTINUOUS
 62
               4
100
AcDbCircle
 10
69.399999999985653
 20
118.00000000000438
 30
0.0
 40
0.5
100
AcDbArc
 50
270.00000000000125
 51
0.000000000001832
  0
ARC
  5
4B2
100
AcDbEntity
  8
0
  6
CONTINUOUS
 62
               4
100
AcDbCircle
 10
69.399999999985653
 20
120.00000000000438
 30
0.0
 40
0.5
100
AcDbArc
 50
0.0000000000018066
 51
90.000000000001606
  0
LINE
  5
4B3
100
AcDbEntity
  8
0
  6
CONTINUOUS
 62
               4
100
AcDbLine
 10
68.799999999985744
 20
120.50000000000438
 30
0.0
 11
69.399999999985653
 21
120.50000000000438
 31
0.0
  0
LINE
  5
4B4
100
AcDbEntity
  8
0
  6
CONTINUOUS
 62
               4
100
AcDbLine
 10
68.799999999985744
 20
117.50000000000438
 30
0.0
 11
69.39999999998588
 21
117.50000000000438
 31
0.0
  0
LINE
  5
4B5
100
AcDbEntity
  8
0
  6
CONTINUOUS
 62
               4
100
AcDbLine
 10
36.099999999995475
 20
94.500000000001876
 30
0.0
 11
36.65355339058226
 21
95.053553390588661
 31
0.0
  0
LINE
  5
4B6
100
AcDbEntity
  8
0
  6
CONTINUOUS
 62
               4
100
AcDbLine
 10
38.799999999988472
 20
94.69999999171597
 30
0.0
 11
38.799999999988472
 21
95.199999999995782
 31
0.0
  0
LINE
  5
4B7
100
AcDbEntity
  8
0
  6
CONTINUOUS
 62
               4
100
AcDbLine
 10
37.007106781175366
 20
95.199999999995555
 30
0.0
 11
38.799999999988472
 21
95.199999999995782
 31
0.0
  0
LINE
  5
4B8
100
AcDbEntity
  8
0
  6
CONTINUOUS
 62
               4
100
AcDbLine
 10
38.799999999988472
 20
94.699999999995782
 30
0.0
 11
40.899999999988495
 21
94.69999999999601
 31
0.0
  0
LINE
  5
4B9
100
AcDbEntity
  8
0
  6
CONTINUOUS
 62
               4
100
AcDbLine
 10
40.899999999986107
 20
116.59999999890266
 30
0.0
 11
40.799999999986198
 21
116.59999999890266
 31
0.0
  0
LINE
  5
4BA
100
AcDbEntity
  8
0
  6
CONTINUOUS
 62
               4
100
AcDbLine
 10
40.799999999987108
 20
96.800000000002058
 30
0.0
 11
40.899999999987699
 21
96.800000000002058
 31
0.0
  0
LINE
  5
4BB
100
AcDbEntity
  8
0
  6
CONTINUOUS
 62
               4
100
AcDbLine
 10
33.749999999988518
 20
89.693745613099111
 30
0.0
 11
33.749999999988404
 21
88.300000000000921
 31
0.0
  0
LINE
  5
4BC
100
AcDbEntity
  8
0
  6
CONTINUOUS
 62
               4
100
AcDbLine
 10
38.249999999988518
 20
89.693745613098656
 30
0.0
 11
38.249999999988404
 21
88.300000000000466
 31
0.0
  0
ARC
  5
4BD
100
AcDbEntity
  8
0
  6
CONTINUOUS
 62
               4
100
AcDbCircle
 10
35.999999999988063
 20
84.699999809265876
 30
0.0
 40
6.0
100
AcDbArc
 50
73.80871737482147
 51
106.19135456952553
  0
ARC
  5
4BE
100
AcDbEntity
  8
0
  6
CONTINUOUS
 62
               4
100
AcDbCircle
 10
34.550000190723381
 20
89.693745613098883
 30
0.0
 40
0.800000011920929
100
AcDbArc
 50
106.19135456952553
 51
180.00001798608395
  0
ARC
  5
4BF
100
AcDbEntity
  8
0
  6
CONTINUOUS
 62
               4
100
AcDbCircle
 10
37.449999809253654
 20
89.693745613098656
 30
0.0
 40
0.800000011920929
100
AcDbArc
 50
359.99998201390565
 51
73.808645430464111
  0
LINE
  5
4C0
100
AcDbEntity
  8
0
  6
CONTINUOUS
 62
               4
100
AcDbLine
 10
34.999999999989086
 20
90.616079592365679
 30
0.0
 11
34.999999999989086
 21
90.700000009395637
 31
0.0
  0
LINE
  5
4C1
100
AcDbEntity
  8
0
  6
CONTINUOUS
 62
               4
100
AcDbLine
 10
33.499999999988518
 20
88.300000000001148
 30
0.0
 11
38.799999999988472
 21
88.300000000000693
 31
0.0
  0
ARC
  5
4C2
100
AcDbEntity
  8
0
  6
CONTINUOUS
 62
               4
100
AcDbCircle
 10
37.007106781176162
 20
94.699999999994645
 30
0.0
 40
0.5
100
AcDbArc
 50
89.999999999994813
 51
134.9999999999944
  0
LINE
  5
4C3
100
AcDbEntity
  8
0
  6
CONTINUOUS
 62
               4
100
AcDbLine
 10
37.999999999988745
 20
95.199999999994645
 30
0.0
 11
37.999999999988745
 21
94.500000000002103
 31
0.0
  0
ARC
  5
4C4
100
AcDbEntity
  8
0
  6
CONTINUOUS
 62
               4
100
AcDbCircle
 10
33.499999999988518
 20
87.800000000001148
 30
0.0
 40
0.5
100
AcDbArc
 50
89.999999999999815
 51
179.99999999999963
  0
LINE
  5
4C5
100
AcDbEntity
  8
0
  6
CONTINUOUS
 62
               4
100
AcDbLine
 10
38.799999999988472
 20
88.300000000000693
 30
0.0
 11
38.799999999988586
 21
90.000000000001648
 31
0.0
  0
ARC
  5
4C6
100
AcDbEntity
  8
0
  6
CONTINUOUS
 62
               4
100
AcDbCircle
 10
39.299999999988586
 20
90.000000000001421
 30
0.0
 40
0.5
100
AcDbArc
 50
89.999999999999815
 51
179.99999999999963
  0
LINE
  5
4C7
100
AcDbEntity
  8
0
  6
CONTINUOUS
 62
               4
100
AcDbLine
 10
37.536228429443213
 20
90.500000000001421
 30
0.0
 11
40.899999999989973
 21
90.500000000001421
 31
0.0
  0
LINE
  5
4C8
100
AcDbEntity
  8
0
  6
CONTINUOUS
 62
               4
100
AcDbLine
 10
32.99999999998829
 20
82.500000000001421
 30
0.0
 11
32.999999999988518
 21
87.800000000001148
 31
0.0
  0
LINE
  5
4C9
100
AcDbEntity
  8
0
  6
CONTINUOUS
 62
               7
100
AcDbLine
 10
69.899999995455801
 20
76.999999994251141
 30
0.0
 11
69.89999999545563
 21
82.500000000003979
 31
0.0
  0
LINE
  5
4CA
100
AcDbEntity
  8
0
  6
CONTINUOUS
 62
               7
100
AcDbLine
 10
68.799999999989154
 20
76.500000000006196
 30
0.0
 11
68.799999999988671
 21
82.500000000003922
 31
0.0
  0
LINE
  5
4CB
100
AcDbEntity
  8
0
  6
CONTINUOUS
 62
               7
100
AcDbLine
 10
32.0
 20
80.500000000000057
 30
0.0
 11
32.0
 21
-10.499999999999943
 31
0.0
  0
CIRCLE
  5
4CC
100
AcDbEntity
  8
0
  6
CONTINUOUS
 62
               7
100
AcDbCircle
 10
25.0
 20
72.500000000000057
 30
0.0
 40
2.1000000000000001
  0
CIRCLE
  5
4CD
100
AcDbEntity
  8
0
  6
CONTINUOUS
 62
               2
100
AcDbCircle
 10
25.0
 20
72.500000000000057
 30
0.0
 40
2.5
  0
LINE
  5
4CE
100
AcDbEntity
  8
0
  6
CENTER
 62
               2
100
AcDbLine
 10
20.497207413440492
 20
72.500000000000057
 30
0.0
 11
28.715853138184912
 21
72.500000000000057
 31
0.0
  0
LINE
  5
4CF
100
AcDbEntity
  8
0
  6
CENTER
 62
               2
100
AcDbLine
 10
25.0
 20
68.660632359892986
 30
0.0
 11
25.0
 21
76.71322222591067
 31
0.0
  0
LINE
  5
4D0
100
AcDbEntity
  8
0
  6
CONTINUOUS
 62
               7
100
AcDbLine
 10
0.0
 20
60.500000000000057
 30
0.0
 11
32.000000017780167
 21
60.500000000000057
 31
0.0
  0
LINE
  5
4D1
100
AcDbEntity
  8
0
  6
CONTINUOUS
 62
               7
100
AcDbLine
 10
0.0
 20
80.500000000000057
 30
0.0
 11
32.999999999988518
 21
80.500000000000057
 31
0.0
  0
LINE
  5
4D2
100
AcDbEntity
  8
0
  6
CONTINUOUS
 62
               7
100
AcDbLine
 10
25.5
 20
75.500000002253557
 30
0.0
 11
25.5
 21
75.501316017355464
 31
0.0
  0
LINE
  5
4D3
100
AcDbEntity
  8
0
  6
CONTINUOUS
 62
               7
100
AcDbLine
 10
0.0
 20
-4.4999999999999432
 30
0.0
 11
32.000000017780167
 21
-4.4999999999999432
 31
0.0
  0
LINE
  5
4D4
100
AcDbEntity
  8
0
  6
CONTINUOUS
 62
               7
100
AcDbLine
 10
0.0
 20
-10.499999999999943
 30
0.0
 11
32.0
 21
-10.499999999999943
 31
0.0
  0
LINE
  5
4D5
100
AcDbEntity
  8
0
  6
CONTINUOUS
 62
               7
100
AcDbLine
 10
0.0
 20
80.500000000000057
 30
0.0
 11
0.0
 21
-10.499999999999943
 31
0.0
  0
LINE
  5
4D6
100
AcDbEntity
  8
0
  6
CENTER
 62
               2
100
AcDbLine
 10
17.0
 20
57.814040183245709
 30
0.0
 11
17.0
 21
4.3963224814256137
 31
0.0
  0
LINE
  5
4D7
100
AcDbEntity
  8
0
  6
CENTER
 62
               2
100
AcDbLine
 10
3.7727611842710758
 20
17.500000000000057
 30
0.0
 11
29.322530344882807
 21
17.500000000000057
 31
0.0
  0
LINE
  5
4D8
100
AcDbEntity
  8
0
  6
CENTER
 62
               2
100
AcDbLine
 10
3.7727611842710758
 20
45.500000000000057
 30
0.0
 11
29.322530344882807
 21
45.500000000000057
 31
0.0
  0
CIRCLE
  5
4D9
100
AcDbEntity
  8
0
  6
CONTINUOUS
 62
               2
100
AcDbCircle
 10
17.0
 20
45.500000000000057
 30
0.0
 40
10.477499999999999
  0
CIRCLE
  5
4DA
100
AcDbEntity
  8
0
  6
CONTINUOUS
 62
               7
100
AcDbCircle
 10
17.0
 20
45.500000000000057
 30
0.0
 40
9.3155000000000001
  0
CIRCLE
  5
4DB
100
AcDbEntity
  8
0
  6
CONTINUOUS
 62
               2
100
AcDbCircle
 10
17.0
 20
17.500000000000057
 30
0.0
 40
10.477499999999999
  0
CIRCLE
  5
4DC
100
AcDbEntity
  8
0
  6
CONTINUOUS
 62
               7
100
AcDbCircle
 10
17.0
 20
17.500000000000057
 30
0.0
 40
9.3155000000000001
  0
LINE
  5
4DD
100
AcDbEntity
  8
0
  6
CONTINUOUS
 62
               4
100
AcDbLine
 10
68.799999999988671
 20
82.500000000003922
 30
0.0
 11
68.799999999985857
 21
117.50000000000438
 31
0.0
  0
LINE
  5
4DE
100
AcDbEntity
  8
0
  6
CONTINUOUS
 62
               4
100
AcDbLine
 10
69.89999999545563
 20
82.500000000003979
 30
0.0
 11
69.89999999545455
 21
122.00000000000256
 31
0.0
  0
LINE
  5
4DF
100
AcDbEntity
  8
0
  6
CONTINUOUS
 62
               4
100
AcDbLine
 10
40.899999999989745
 20
90.500000000002331
 30
0.0
 11
40.899999999985425
 21
122.5000000000021
 31
0.0
  0
LINE
  5
4E0
100
AcDbEntity
  8
0
  6
CONTINUOUS
 62
               4
100
AcDbLine
 10
68.799999999985744
 20
120.4999999857651
 30
0.0
 11
68.799999999985516
 21
122.4999999857651
 31
0.0
  0
ARC
  5
4E1
100
AcDbEntity
  8
0
  6
CONTINUOUS
 62
               4
100
AcDbCircle
 10
37.899999999984743
 20
121.5000000000021
 30
0.0
 40
1.0
100
AcDbArc
 50
89.999999999999815
 51
179.99999999999963
  0
ENDBLK
  5
4E2
100
AcDbEntity
  8
0
100
AcDbBlockEnd
  0
BLOCK
  5
4E3
100
AcDbEntity
  8
0
100
AcDbBlockBegin
  2
PA24A7-12
 70
               0
 10
0.0
 20
0.0
 30
0.0
  3
PA24A7-12
  1

  0
LINE
  5
4E4
100
AcDbEntity
  8
0
  6
CENTER
 62
               2
100
AcDbLine
 10
-4.9999999825548116
 20
0.0
 30
0.0
 11
5.0
 21
0.0
 31
0.0
  0
LINE
  5
4E5
100
AcDbEntity
  8
0
  6
CENTER
 62
               2
100
AcDbLine
 10
-4.9999999825548116
 20
75.000000000000057
 30
0.0
 11
5.0
 21
75.000000000000057
 31
0.0
  0
LINE
  5
4E6
100
AcDbEntity
  8
0
  6
CONTINUOUS
 62
               4
100
AcDbLine
 10
-68.799999999985175
 20
122.49999999999596
 30
0.0
 11
-69.399999999985312
 21
122.49999999999608
 31
0.0
  0
ARC
  5
4E7
100
AcDbEntity
  8
0
  6
CONTINUOUS
 62
               4
100
AcDbCircle
 10
-69.399999999985312
 20
121.99999999999608
 30
0.0
 40
0.5
100
AcDbArc
 50
89.999999999999162
 51
179.99999999999895
  0
LINE
  5
4E8
100
AcDbEntity
  8
0
  6
CONTINUOUS
 62
               4
100
AcDbLine
 10
-37.899999999984402
 20
122.49999999999574
 30
0.0
 11
-68.799999999985175
 21
122.49999999999596
 31
0.0
  0
ARC
  5
4E9
100
AcDbEntity
  8
0
  6
CONTINUOUS
 62
               7
100
AcDbCircle
 10
-33.500000000000341
 20
-36.999999999998295
 30
0.0
 40
0.5
100
AcDbArc
 50
269.99999999999937
 51
0.0
  0
LINE
  5
4EA
100
AcDbEntity
  8
0
  6
CONTINUOUS
 62
               7
100
AcDbLine
 10
-33.000000000002842
 20
-36.999999999998295
 30
0.0
 11
-32.999999999987949
 21
82.499999999995396
 31
0.0
  0
LINE
  5
4EB
100
AcDbEntity
  8
0
  6
CONTINUOUS
 62
               7
100
AcDbLine
 10
-70.0
 20
80.500000000000057
 30
0.0
 11
-70.000000000000341
 21
-36.999999999998295
 31
0.0
  0
LINE
  5
4EC
100
AcDbEntity
  8
0
  6
CONTINUOUS
 62
               7
100
AcDbLine
 10
-65.89999999998588
 20
82.299999999995691
 30
0.0
 11
-68.799999999988358
 21
82.299999999995805
 31
0.0
  0
ARC
  5
4ED
100
AcDbEntity
  8
0
  6
CONTINUOUS
 62
               7
100
AcDbCircle
 10
-67.399999999985994
 20
72.499999999995737
 30
0.0
 40
2.0
100
AcDbArc
 50
179.99999999999804
 51
359.99999999999767
  0
LINE
  5
4EE
100
AcDbEntity
  8
0
  6
CONTINUOUS
 62
               7
100
AcDbLine
 10
-69.399999999985994
 20
72.499999994244547
 30
0.0
 11
-69.399999999985994
 21
76.499999994244547
 31
0.0
  0
ARC
  5
4EF
100
AcDbEntity
  8
0
  6
CONTINUOUS
 62
               7
100
AcDbCircle
 10
-69.399999999985994
 20
76.999999999995396
 30
0.0
 40
0.5
100
AcDbArc
 50
179.99999999999807
 51
269.9999999999979
  0
ARC
  5
4F0
100
AcDbEntity
  8
0
  6
CONTINUOUS
 62
               7
100
AcDbCircle
 10
-65.89999999998588
 20
81.799999999995691
 30
0.0
 40
0.5
100
AcDbArc
 50
359.99999999999767
 51
89.999999999998266
  0
LINE
  5
4F1
100
AcDbEntity
  8
0
  6
CONTINUOUS
 62
               7
100
AcDbLine
 10
-69.999999999988972
 20
76.499999999999943
 30
0.0
 11
-68.899999999555348
 21
76.499999999999829
 31
0.0
  0
LINE
  5
4F2
100
AcDbEntity
  8
0
  6
CONTINUOUS
 62
               7
100
AcDbLine
 10
-68.899999999554666
 20
82.499999999999829
 30
0.0
 11
-68.899999999555348
 21
76.499999999999829
 31
0.0
  0
LINE
  5
4F3
100
AcDbEntity
  8
0
  6
CONTINUOUS
 62
               7
100
AcDbLine
 10
-65.399999999988154
 20
82.499999999999375
 30
0.0
 11
-65.399999999989518
 21
72.419155751114602
 31
0.0
  0
LINE
  5
4F4
100
AcDbEntity
  8
0
  6
CONTINUOUS
 62
               7
100
AcDbLine
 10
-69.999999999558213
 20
68.999999999999943
 30
0.0
 11
-66.554763555084719
 21
70.60654014348944
 31
0.0
  0
ARC
  5
4F5
100
AcDbEntity
  8
0
  6
CONTINUOUS
 62
               7
100
AcDbCircle
 10
-67.399999999989518
 20
72.419155751114829
 30
0.0
 40
2.0
100
AcDbArc
 50
294.99999850782217
 51
359.99999999999199
  0
LINE
  5
4F6
100
AcDbEntity
  8
0
  6
CONTINUOUS
 62
               7
100
AcDbLine
 10
-69.500000000000341
 20
-37.499999999998295
 30
0.0
 11
-60.000000000000341
 21
-37.499999999998295
 31
0.0
  0
ARC
  5
4F7
100
AcDbEntity
  8
0
  6
CONTINUOUS
 62
               7
100
AcDbCircle
 10
-69.500000000000341
 20
-36.999999999998295
 30
0.0
 40
0.5
100
AcDbArc
 50
179.99999999999963
 51
269.99999999999937
  0
LINE
  5
4F8
100
AcDbEntity
  8
0
  6
CONTINUOUS
 62
               7
100
AcDbLine
 10
-59.600000000000477
 20
-37.099999999998317
 30
0.0
 11
-43.400000000000432
 21
-37.099999999998317
 31
0.0
  0
LINE
  5
4F9
100
AcDbEntity
  8
0
  6
CONTINUOUS
 62
               7
100
AcDbLine
 10
-43.400000000000432
 20
-37.099999999998317
 30
0.0
 11
-43.000000000000341
 21
-37.499999999998295
 31
0.0
  0
LINE
  5
4FA
100
AcDbEntity
  8
0
  6
CONTINUOUS
 62
               7
100
AcDbLine
 10
-59.600000000000477
 20
-37.099999999998317
 30
0.0
 11
-60.000000000000341
 21
-37.499999999998295
 31
0.0
  0
LINE
  5
4FB
100
AcDbEntity
  8
0
  6
CENTER
 62
               2
100
AcDbLine
 10
-65.328629636672758
 20
58.499999999998977
 30
0.0
 11
-71.239852399639972
 21
58.500000000000455
 31
0.0
  0
LINE
  5
4FC
100
AcDbEntity
  8
0
  6
CONTINUOUS
 62
               7
100
AcDbLine
 10
-69.699999999999136
 20
61.999999880798214
 30
0.0
 11
-69.999999999992951
 21
61.48038458824908
 31
0.0
  0
LINE
  5
4FD
100
AcDbEntity
  8
0
  6
CONTINUOUS
 62
               7
100
AcDbLine
 10
-69.700000000000841
 20
54.999999880798214
 30
0.0
 11
-69.999999999992895
 21
55.519614934928768
 31
0.0
  0
LINE
  5
4FE
100
AcDbEntity
  8
0
  6
CONTINUOUS
 62
               7
100
AcDbLine
 10
-69.699999999999136
 20
61.999999880798214
 30
0.0
 11
-65.999999999999204
 21
61.999999880798214
 31
0.0
  0
LINE
  5
4FF
100
AcDbEntity
  8
0
  6
CONTINUOUS
 62
               7
100
AcDbLine
 10
-69.700000000000841
 20
54.999999880798214
 30
0.0
 11
-66.000000000000909
 21
54.999999880798214
 31
0.0
  0
LINE
  5
500
100
AcDbEntity
  8
0
  6
CONTINUOUS
 62
               7
100
AcDbLine
 10
-69.999999999992895
 20
62.499999880798214
 30
0.0
 11
-65.999999999999091
 21
62.499999880798214
 31
0.0
  0
LINE
  5
501
100
AcDbEntity
  8
0
  6
CONTINUOUS
 62
               7
100
AcDbLine
 10
-69.999999999992895
 20
54.499999880798214
 30
0.0
 11
-66.000000000001023
 21
54.499999880798214
 31
0.0
  0
LINE
  5
502
100
AcDbEntity
  8
0
  6
CONTINUOUS
 62
               7
100
AcDbLine
 10
-69.700000000000841
 20
54.999999880798214
 30
0.0
 11
-69.699999999999136
 21
61.999999880798214
 31
0.0
  0
LINE
  5
503
100
AcDbEntity
  8
0
  6
CONTINUOUS
 62
               7
100
AcDbLine
 10
-66.000000000001023
 20
54.499999880798214
 30
0.0
 11
-65.999999999999091
 21
62.499999880798214
 31
0.0
  0
LINE
  5
504
100
AcDbEntity
  8
0
  6
CONTINUOUS
 62
               7
100
AcDbLine
 10
-70.000000000009777
 20
-24.0
 30
0.0
 11
-33.00000000000955
 21
-23.999999999996589
 31
0.0
  0
LINE
  5
505
100
AcDbEntity
  8
0
  6
CONTINUOUS
 62
               7
100
AcDbLine
 10
-43.000000000000341
 20
-37.499999999998295
 30
0.0
 11
-33.500000000000341
 21
-37.499999999998295
 31
0.0
  0
LINE
  5
506
100
AcDbEntity
  8
0
  6
CONTINUOUS
 62
               7
100
AcDbLine
 10
-32.999999999989768
 20
67.499999999996419
 30
0.0
 11
-69.999999999990109
 21
67.499999999999943
 31
0.0
  0
LINE
  5
507
100
AcDbEntity
  8
0
  6
CONTINUOUS
 62
               7
100
AcDbLine
 10
-32.999999999988631
 20
82.499999999995396
 30
0.0
 11
-68.799999999988586
 21
82.499999999997556
 31
0.0
  0
LINE
  5
508
100
AcDbEntity
  8
0
  6
CONTINUOUS
 62
               7
100
AcDbLine
 10
-32.0
 20
-7.500000000003638
 30
0.0
 11
-69.999999999990109
 21
-7.5
 31
0.0
  0
LINE
  5
509
100
AcDbEntity
  8
0
  6
CONTINUOUS
 62
               7
100
AcDbLine
 10
-70.000000000000227
 20
5.2320509159537778
 30
0.0
 11
-32.999999999990564
 21
5.2320509159537778
 31
0.0
  0
LINE
  5
50A
100
AcDbEntity
  8
0
  6
CONTINUOUS
 62
               7
100
AcDbLine
 10
-70.000000000000227
 20
3.5000001083848815
 30
0.0
 11
-33.000000000000227
 21
3.5000001083848815
 31
0.0
  0
LINE
  5
50B
100
AcDbEntity
  8
0
  6
CONTINUOUS
 62
               7
100
AcDbLine
 10
-70.000000000000227
 20
-0.4999998807912789
 30
0.0
 11
-32.99999999999136
 21
-0.4999998807912789
 31
0.0
  0
LINE
  5
50C
100
AcDbEntity
  8
0
  6
CONTINUOUS
 62
               7
100
AcDbLine
 10
-70.000000000000227
 20
-2.232050748467941
 30
0.0
 11
-32.999999999991587
 21
-2.232050748467941
 31
0.0
  0
LINE
  5
50D
100
AcDbEntity
  8
0
  6
CONTINUOUS
 62
               4
100
AcDbLine
 10
-36.899999999984402
 20
121.49999999999574
 30
0.0
 11
-36.899999999984402
 21
119.99999998217112
 31
0.0
  0
ARC
  5
50E
100
AcDbEntity
  8
0
  6
CONTINUOUS
 62
               4
100
AcDbCircle
 10
-36.399999999984402
 20
119.99999998217112
 30
0.0
 40
0.5
100
AcDbArc
 50
179.99999999999963
 51
269.99999999999937
  0
LINE
  5
50F
100
AcDbEntity
  8
0
  6
CENTER
 62
             200
100
AcDbLine
 10
-28.38910419084732
 20
101.79999999999615
 30
0.0
 11
-14.48939014899986
 21
101.7999999999966
 31
0.0
  0
LINE
  5
510
100
AcDbEntity
  8
0
  6
CONTINUOUS
 62
               4
100
AcDbLine
 10
-25.899999999997817
 20
102.54999999999615
 30
0.0
 11
-22.717564891129769
 21
102.54999999999615
 31
0.0
  0
LINE
  5
511
100
AcDbEntity
  8
0
  6
CONTINUOUS
 62
               4
100
AcDbLine
 10
-25.899999999997704
 20
101.04999999999615
 30
0.0
 11
-23.120689891129814
 21
101.04999999999615
 31
0.0
  0
LINE
  5
512
100
AcDbEntity
  8
0
  6
CONTINUOUS
 62
               4
100
AcDbLine
 10
-26.199999999997772
 20
99.799999999996146
 30
0.0
 11
-26.899999999997817
 21
99.799999999996146
 31
0.0
  0
ARC
  5
513
100
AcDbEntity
  8
0
  6
CONTINUOUS
 62
               4
100
AcDbCircle
 10
-26.199999999997772
 20
100.0999999999961
 30
0.0
 40
0.3
100
AcDbArc
 50
270.00000000000023
 51
0.0
  0
LINE
  5
514
100
AcDbEntity
  8
0
  6
CONTINUOUS
 62
               4
100
AcDbLine
 10
-21.687564891129796
 20
102.54999999999615
 30
0.0
 11
-18.899127391129809
 21
102.54999999999615
 31
0.0
  0
LINE
  5
515
100
AcDbEntity
  8
0
  6
CONTINUOUS
 62
               4
100
AcDbLine
 10
-22.059127391129778
 20
101.04999999999615
 30
0.0
 11
-18.899127391129809
 21
101.04999999999615
 31
0.0
  0
LINE
  5
516
100
AcDbEntity
  8
0
  6
CONTINUOUS
 62
               4
100
AcDbLine
 10
-18.899127391129809
 20
101.54999999999615
 30
0.0
 11
-15.399127391129809
 21
101.54999999999615
 31
0.0
  0
LINE
  5
517
100
AcDbEntity
  8
0
  6
CONTINUOUS
 62
               4
100
AcDbLine
 10
-18.899127391129809
 20
102.04999999999615
 30
0.0
 11
-15.399127391129809
 21
102.04999999999615
 31
0.0
  0
LINE
  5
518
100
AcDbEntity
  8
0
  6
CONTINUOUS
 62
               4
100
AcDbLine
 10
-18.899127391129809
 20
102.54999999999615
 30
0.0
 11
-18.899127391129809
 21
101.04999999999615
 31
0.0
  0
LINE
  5
519
100
AcDbEntity
  8
0
  6
CONTINUOUS
 62
               4
100
AcDbLine
 10
-15.399127391129809
 20
102.04999999999615
 30
0.0
 11
-15.399127391129809
 21
101.54999999999615
 31
0.0
  0
ARC
  5
51A
100
AcDbEntity
  8
0
  6
CONTINUOUS
 62
               4
100
AcDbCircle
 10
-27.899999999985084
 20
118.49999998217112
 30
0.0
 40
1.0
100
AcDbArc
 50
0.0
 51
89.999999999999815
  0
LINE
  5
51B
100
AcDbEntity
  8
0
  6
CONTINUOUS
 62
               4
100
AcDbLine
 10
-26.199999999997772
 20
103.79999999999615
 30
0.0
 11
-26.899999999997817
 21
103.79999999999615
 31
0.0
  0
ARC
  5
51C
100
AcDbEntity
  8
0
  6
CONTINUOUS
 62
               4
100
AcDbCircle
 10
-26.199999999997772
 20
103.49999999999596
 30
0.0
 40
0.3
100
AcDbArc
 50
0.0
 51
89.999999999999815
  0
LINE
  5
51D
100
AcDbEntity
  8
0
  6
CONTINUOUS
 62
               4
100
AcDbLine
 10
-25.89999999999759
 20
100.0999999999961
 30
0.0
 11
-25.899999999997817
 21
103.49999999999619
 31
0.0
  0
LINE
  5
51E
100
AcDbEntity
  8
0
  6
CONTINUOUS
 62
             200
100
AcDbLine
 10
-23.349127391129741
 20
100.19999999999601
 30
0.0
 11
-22.489127391129841
 21
103.39999999999606
 31
0.0
  0
LINE
  5
51F
100
AcDbEntity
  8
0
  6
CONTINUOUS
 62
             200
100
AcDbLine
 10
-22.319127391129769
 20
100.19999999999601
 30
0.0
 11
-21.459127391129869
 21
103.39999999999606
 31
0.0
  0
LINE
  5
520
100
AcDbEntity
  8
0
  6
CONTINUOUS
 62
               4
100
AcDbLine
 10
-26.899999999985994
 20
96.565826257576703
 30
0.0
 11
-26.899999999985084
 21
118.49999997339529
 31
0.0
  0
LINE
  5
521
100
AcDbEntity
  8
0
  6
CONTINUOUS
 62
               4
100
AcDbLine
 10
-27.89999999870065
 20
119.49999998217112
 30
0.0
 11
-36.39999999870065
 21
119.49999998217112
 31
0.0
  0
ARC
  5
522
100
AcDbEntity
  8
0
  6
PHANTOM
 62
             200
100
AcDbCircle
 10
-68.900000006121218
 20
99.899999999997419
 30
0.0
 40
9.4000000000000004
100
AcDbArc
 50
178.7811247648682
 51
263.9275436570785
  0
LINE
  5
523
100
AcDbEntity
  8
0
  6
PHANTOM
 62
             200
100
AcDbLine
 10
-70.500000006120899
 20
100.39999999999753
 30
0.0
 11
-68.900000006121331
 21
100.39999999999742
 31
0.0
  0
ARC
  5
524
100
AcDbEntity
  8
0
  6
PHANTOM
 62
             200
100
AcDbCircle
 10
-68.900000006121218
 20
99.899999999997419
 30
0.0
 40
0.5
100
AcDbArc
 50
269.99999999997169
 51
90.000000000028294
  0
LINE
  5
525
100
AcDbEntity
  8
0
  6
PHANTOM
 62
             200
100
AcDbLine
 10
-70.500000006121013
 20
100.39999999999753
 30
0.0
 11
-70.500000006121127
 21
99.399999999994236
 31
0.0
  0
LINE
  5
526
100
AcDbEntity
  8
0
  6
PHANTOM
 62
             200
100
AcDbLine
 10
-77.800000006121536
 20
99.399999999994122
 30
0.0
 11
-68.900000006121559
 21
99.399999999994236
 31
0.0
  0
LINE
  5
527
100
AcDbEntity
  8
0
  6
PHANTOM
 62
             200
100
AcDbLine
 10
-77.300000006121536
 20
97.2999999999941
 30
0.0
 11
-71.500000006121581
 21
97.2999999999941
 31
0.0
  0
LINE
  5
528
100
AcDbEntity
  8
0
  6
PHANTOM
 62
             200
100
AcDbLine
 10
-77.800000006121763
 20
97.999999999994259
 30
0.0
 11
-71.000000006121581
 21
97.999999999994145
 31
0.0
  0
LINE
  5
529
100
AcDbEntity
  8
0
  6
PHANTOM
 62
             200
100
AcDbLine
 10
-77.80000000612165
 20
99.199999999994077
 30
0.0
 11
-71.000000006121581
 21
99.199999999994077
 31
0.0
  0
LINE
  5
52A
100
AcDbEntity
  8
0
  6
PHANTOM
 62
             200
100
AcDbLine
 10
-71.600000006121491
 20
99.199999999994304
 30
0.0
 11
-71.600000006121491
 21
97.999999999994031
 31
0.0
  0
LINE
  5
52B
100
AcDbEntity
  8
0
  6
PHANTOM
 62
             200
100
AcDbLine
 10
-71.000000006121581
 20
97.999999999994145
 30
0.0
 11
-71.000000006121581
 21
97.7999999999941
 31
0.0
  0
LINE
  5
52C
100
AcDbEntity
  8
0
  6
PHANTOM
 62
             200
100
AcDbLine
 10
-71.000000006121468
 20
99.399999995466999
 30
0.0
 11
-71.000000006121468
 21
99.200000013348415
 31
0.0
  0
LINE
  5
52D
100
AcDbEntity
  8
0
  6
PHANTOM
 62
             200
100
AcDbLine
 10
-77.250000006121809
 20
99.199999999994191
 30
0.0
 11
-77.250000006121923
 21
97.999999999994031
 31
0.0
  0
LINE
  5
52E
100
AcDbEntity
  8
0
  6
PHANTOM
 62
             200
100
AcDbLine
 10
-77.800000006121763
 20
97.999999999994259
 30
0.0
 11
-77.800000006121536
 21
97.799999999993645
 31
0.0
  0
LINE
  5
52F
100
AcDbEntity
  8
0
  6
PHANTOM
 62
             200
100
AcDbLine
 10
-77.800000006121422
 20
100.09999999999746
 30
0.0
 11
-77.800000006121536
 21
99.20000001334796
 31
0.0
  0
LINE
  5
530
100
AcDbEntity
  8
0
  6
PHANTOM
 62
             200
100
AcDbLine
 10
-78.300000006122218
 20
100.59999999999746
 30
0.0
 11
-78.300000006122332
 21
100.09999999999746
 31
0.0
  0
LINE
  5
531
100
AcDbEntity
  8
0
  6
PHANTOM
 62
             200
100
AcDbLine
 10
-78.000000006122264
 20
100.89999999999742
 30
0.0
 11
-70.800000006120968
 21
100.89999999999742
 31
0.0
  0
ARC
  5
532
100
AcDbEntity
  8
0
  6
PHANTOM
 62
             200
100
AcDbCircle
 10
-70.800000006120968
 20
100.59999999999746
 30
0.0
 40
0.3
100
AcDbArc
 50
0.0
 51
89.999999999999815
  0
ARC
  5
533
100
AcDbEntity
  8
0
  6
PHANTOM
 62
             200
100
AcDbCircle
 10
-78.000000006122264
 20
100.59999999999746
 30
0.0
 40
0.3
100
AcDbArc
 50
89.999999999999815
 51
179.99999999999963
  0
LINE
  5
534
100
AcDbEntity
  8
0
  6
CENTER
 62
             200
100
AcDbLine
 10
-74.400000006121672
 20
101.52757406876896
 30
0.0
 11
-74.400000006121672
 21
96.221963881074828
 31
0.0
  0
ARC
  5
535
100
AcDbEntity
  8
0
  6
PHANTOM
 62
             200
100
AcDbCircle
 10
-71.500000006121581
 20
97.7999999999941
 30
0.0
 40
0.5
100
AcDbArc
 50
269.99999999999937
 51
0.0
  0
ARC
  5
536
100
AcDbEntity
  8
0
  6
PHANTOM
 62
             200
100
AcDbCircle
 10
-77.300000006121536
 20
97.7999999999941
 30
0.0
 40
0.5
100
AcDbArc
 50
179.99999999999963
 51
269.99999999999937
  0
CIRCLE
  5
537
100
AcDbEntity
  8
0
  6
PHANTOM
 62
             200
100
AcDbCircle
 10
-76.900000006121218
 20
99.899999999997419
 30
0.0
 40
0.45
  0
LINE
  5
538
100
AcDbEntity
  8
0
  6
PHANTOM
 62
             200
100
AcDbLine
 10
-78.300000006122332
 20
100.09999999999746
 30
0.0
 11
-77.800000006121422
 21
100.09999999999746
 31
0.0
  0
LINE
  5
539
100
AcDbEntity
  8
0
  6
PHANTOM
 62
             200
100
AcDbLine
 10
-70.500000006120899
 20
100.59999999422513
 30
0.0
 11
-70.500000006120899
 21
100.40000000614606
 31
0.0
  0
LINE
  5
53A
100
AcDbEntity
  8
0
  6
CONTINUOUS
 62
               4
100
AcDbLine
 10
-69.899999995454209
 20
120.59999999999803
 30
0.0
 11
-68.799999999984948
 21
120.59999999999792
 31
0.0
  0
LINE
  5
53B
100
AcDbEntity
  8
0
  6
CONTINUOUS
 62
               4
100
AcDbLine
 10
-69.899999995454436
 20
117.39999999999799
 30
0.0
 11
-68.799999999985516
 21
117.39999999999799
 31
0.0
  0
LINE
  5
53C
100
AcDbEntity
  8
0
  6
CONTINUOUS
 62
               4
100
AcDbLine
 10
-69.999999995454232
 20
109.09999999999599
 30
0.0
 11
-69.999999995454118
 21
115.89999999546518
 31
0.0
  0
LINE
  5
53D
100
AcDbEntity
  8
0
  6
CONTINUOUS
 62
               4
100
AcDbLine
 10
-69.899999990923334
 20
115.99999999999596
 30
0.0
 11
-69.999999995454118
 21
115.89999999546518
 31
0.0
  0
LINE
  5
53E
100
AcDbEntity
  8
0
  6
CONTINUOUS
 62
               4
100
AcDbLine
 10
-69.999999995454232
 20
109.09999999999599
 30
0.0
 11
-69.899999995454209
 21
108.99999999999596
 31
0.0
  0
ARC
  5
53F
100
AcDbEntity
  8
0
  6
CONTINUOUS
 62
               4
100
AcDbCircle
 10
-40.099999999991269
 20
91.200000009389271
 30
0.0
 40
0.5
100
AcDbArc
 50
179.99999999999707
 51
269.99999999999687
  0
ARC
  5
540
100
AcDbEntity
  8
0
  6
CONTINUOUS
 62
               4
100
AcDbCircle
 10
-40.099999999990587
 20
93.999999999995737
 30
0.0
 40
0.5
100
AcDbArc
 50
89.999999999997286
 51
179.99999999999707
  0
LINE
  5
541
100
AcDbEntity
  8
0
  6
CONTINUOUS
 62
               4
100
AcDbLine
 10
-40.599999999991269
 20
91.200000009389385
 30
0.0
 11
-40.599999999990587
 21
93.99999999999585
 31
0.0
  0
LINE
  5
542
100
AcDbEntity
  8
0
  6
CONTINUOUS
 62
               4
100
AcDbLine
 10
-34.499999999989768
 20
94.499999999995509
 30
0.0
 11
-34.499999999989768
 21
95.499999999995509
 31
0.0
  0
LINE
  5
543
100
AcDbEntity
  8
0
  6
CONTINUOUS
 62
               4
100
AcDbLine
 10
-33.499999999989768
 20
94.499999999995509
 30
0.0
 11
-33.499999999989768
 21
95.499999999995509
 31
0.0
  0
LINE
  5
544
100
AcDbEntity
  8
0
  6
CONTINUOUS
 62
               4
100
AcDbLine
 10
-28.087511073623546
 20
94.499999999995168
 30
0.0
 11
-40.099999999990587
 21
94.499999999995737
 31
0.0
  0
LINE
  5
545
100
AcDbEntity
  8
0
  6
CONTINUOUS
 62
               4
100
AcDbLine
 10
-29.221432297654474
 20
90.700000009389043
 30
0.0
 11
-40.099999999991269
 21
90.700000009389271
 31
0.0
  0
ARC
  5
546
100
AcDbEntity
  8
0
  6
CONTINUOUS
 62
               4
100
AcDbCircle
 10
-40.399999999999977
 20
95.999999999995737
 30
0.0
 40
0.5
100
AcDbArc
 50
179.99999999999704
 51
269.99999999999687
  0
LINE
  5
547
100
AcDbEntity
  8
0
  6
CONTINUOUS
 62
               4
100
AcDbLine
 10
-27.167949194771609
 20
95.499999999995168
 30
0.0
 11
-40.400000000000091
 21
95.499999999995737
 31
0.0
  0
LINE
  5
548
100
AcDbEntity
  8
0
  6
CONTINUOUS
 62
               4
100
AcDbLine
 10
-28.25550647634816
 20
91.441180969010531
 30
0.0
 11
-26.917037086841447
 21
96.436416735025375
 31
0.0
  0
ARC
  5
549
100
AcDbEntity
  8
0
  6
CONTINUOUS
 62
               4
100
AcDbCircle
 10
-29.221432297653678
 20
91.700000009391545
 30
0.0
 40
1.0
100
AcDbArc
 50
269.99999999999937
 51
345.00000018740081
  0
ARC
  5
54A
100
AcDbEntity
  8
0
  6
CONTINUOUS
 62
               4
100
AcDbCircle
 10
-39.900000000000318
 20
95.799999999995691
 30
0.0
 40
1.0
100
AcDbArc
 50
168.69006752581495
 51
342.54239687627518
  0
ARC
  5
54B
100
AcDbEntity
  8
0
  6
CONTINUOUS
 62
               4
100
AcDbCircle
 10
-28.087511073623546
 20
93.999999999995168
 30
0.0
 40
0.5
100
AcDbArc
 50
345.00000000000006
 51
89.999999999999801
  0
ARC
  5
54C
100
AcDbEntity
  8
0
  6
CONTINUOUS
 62
               4
100
AcDbCircle
 10
-27.399999999985994
 20
96.565826257576703
 30
0.0
 40
0.5
100
AcDbArc
 50
344.99999999999966
 51
0.0
  0
ARC
  5
54D
100
AcDbEntity
  8
0
  6
CONTINUOUS
 62
               4
100
AcDbCircle
 10
-69.399999999985312
 20
117.99999999999801
 30
0.0
 40
0.5
100
AcDbArc
 50
179.99999999999775
 51
269.99999999999756
  0
ARC
  5
54E
100
AcDbEntity
  8
0
  6
CONTINUOUS
 62
               4
100
AcDbCircle
 10
-69.399999999985312
 20
119.99999999999801
 30
0.0
 40
0.5
100
AcDbArc
 50
89.999999999997996
 51
179.99999999999778
  0
LINE
  5
54F
100
AcDbEntity
  8
0
  6
CONTINUOUS
 62
               4
100
AcDbLine
 10
-68.799999999985403
 20
120.49999999999801
 30
0.0
 11
-69.399999999985312
 21
120.49999999999801
 31
0.0
  0
LINE
  5
550
100
AcDbEntity
  8
0
  6
CONTINUOUS
 62
               4
100
AcDbLine
 10
-68.799999999985403
 20
117.49999999999801
 30
0.0
 11
-69.399999999985539
 21
117.49999999999801
 31
0.0
  0
LINE
  5
551
100
AcDbEntity
  8
0
  6
CONTINUOUS
 62
               4
100
AcDbLine
 10
-36.099999999995134
 20
94.499999999995509
 30
0.0
 11
-36.653553390581919
 21
95.053553390582294
 31
0.0
  0
LINE
  5
552
100
AcDbEntity
  8
0
  6
CONTINUOUS
 62
               4
100
AcDbLine
 10
-38.799999999988131
 20
94.69999999170949
 30
0.0
 11
-38.799999999988131
 21
95.199999999989302
 31
0.0
  0
LINE
  5
553
100
AcDbEntity
  8
0
  6
CONTINUOUS
 62
               4
100
AcDbLine
 10
-37.007106781175025
 20
95.199999999989075
 30
0.0
 11
-38.799999999988131
 21
95.199999999989302
 31
0.0
  0
LINE
  5
554
100
AcDbEntity
  8
0
  6
CONTINUOUS
 62
               4
100
AcDbLine
 10
-38.799999999988131
 20
94.699999999989302
 30
0.0
 11
-40.899999999988154
 21
94.699999999989643
 31
0.0
  0
LINE
  5
555
100
AcDbEntity
  8
0
  6
CONTINUOUS
 62
               4
100
AcDbLine
 10
-40.899999999985766
 20
116.59999999889629
 30
0.0
 11
-40.799999999985857
 21
116.59999999889629
 31
0.0
  0
ARC
  5
556
100
AcDbEntity
  8
0
  6
CONTINUOUS
 62
               4
100
AcDbCircle
 10
-37.007106781175821
 20
94.699999999988279
 30
0.0
 40
0.5
100
AcDbArc
 50
45.000000000005194
 51
90.000000000004789
  0
LINE
  5
557
100
AcDbEntity
  8
0
  6
CONTINUOUS
 62
               4
100
AcDbLine
 10
-37.999999999988404
 20
95.199999999988279
 30
0.0
 11
-37.999999999988404
 21
94.499999999995623
 31
0.0
  0
LINE
  5
558
100
AcDbEntity
  8
0
  6
CONTINUOUS
 62
               4
100
AcDbLine
 10
-37.536228429442872
 20
90.49999999999352
 30
0.0
 11
-40.899999999989632
 21
90.499999999992326
 31
0.0
  0
LINE
  5
559
100
AcDbEntity
  8
0
  6
CONTINUOUS
 62
               4
100
AcDbLine
 10
-37.999999999988063
 20
90.700000009387566
 30
0.0
 11
-37.999999999987949
 21
90.499999999994031
 31
0.0
  0
LINE
  5
55A
100
AcDbEntity
  8
0
  6
CONTINUOUS
 62
               4
100
AcDbLine
 10
-33.499999999987438
 20
88.299999999994498
 30
0.0
 11
-38.799999999987392
 21
88.299999999992224
 31
0.0
  0
LINE
  5
55B
100
AcDbEntity
  8
0
  6
CONTINUOUS
 62
               4
100
AcDbLine
 10
-33.749999999987551
 20
88.999999999994429
 30
0.0
 11
-38.249999999987551
 21
88.99999999999244
 31
0.0
  0
ARC
  5
55C
100
AcDbEntity
  8
0
  6
CONTINUOUS
 62
               4
100
AcDbCircle
 10
-35.999999999985732
 20
84.699999809258372
 30
0.0
 40
6.0
100
AcDbArc
 50
73.808645430493712
 51
106.19128262519777
  0
ARC
  5
55D
100
AcDbEntity
  8
0
  6
CONTINUOUS
 62
               4
100
AcDbCircle
 10
-39.299999999988074
 20
89.999999999992895
 30
0.0
 40
0.5
100
AcDbArc
 50
0.0000000000196431
 51
90.00000000001944
  0
LINE
  5
55E
100
AcDbEntity
  8
0
  6
CONTINUOUS
 62
               4
100
AcDbLine
 10
-38.799999999987392
 20
88.299999999992224
 30
0.0
 11
-38.799999999988074
 21
89.999999999993179
 31
0.0
  0
ARC
  5
55F
100
AcDbEntity
  8
0
  6
CONTINUOUS
 62
               4
100
AcDbCircle
 10
-37.449999809253029
 20
89.693745613090755
 30
0.0
 40
0.800000011920929
100
AcDbArc
 50
106.19135456955514
 51
180.00001798611356
  0
LINE
  5
560
100
AcDbEntity
  8
0
  6
CONTINUOUS
 62
               4
100
AcDbLine
 10
-38.249999999987892
 20
89.693745613090357
 30
0.0
 11
-38.249999999987324
 21
88.299999999992281
 31
0.0
  0
ARC
  5
561
100
AcDbEntity
  8
0
  6
CONTINUOUS
 62
               4
100
AcDbCircle
 10
-33.499999999987267
 20
87.799999999994498
 30
0.0
 40
0.5
100
AcDbArc
 50
0.0000000000196431
 51
90.00000000001944
  0
LINE
  5
562
100
AcDbEntity
  8
0
  6
CONTINUOUS
 62
               4
100
AcDbLine
 10
-33.749999999987892
 20
89.693745613092347
 30
0.0
 11
-33.749999999987324
 21
88.299999999994156
 31
0.0
  0
ARC
  5
563
100
AcDbEntity
  8
0
  6
CONTINUOUS
 62
               4
100
AcDbCircle
 10
-34.550000190722756
 20
89.693745613092005
 30
0.0
 40
0.800000011920929
100
AcDbArc
 50
359.99998201393447
 51
73.808645430493726
  0
LINE
  5
564
100
AcDbEntity
  8
0
  6
CONTINUOUS
 62
               4
100
AcDbLine
 10
-32.999999999987949
 20
82.499999999995055
 30
0.0
 11
-32.999999999988177
 21
87.799999999994498
 31
0.0
  0
LINE
  5
565
100
AcDbEntity
  8
0
  6
CONTINUOUS
 62
               7
100
AcDbLine
 10
-69.89999999545546
 20
76.999999994244661
 30
0.0
 11
-69.899999995455346
 21
82.499999999997627
 31
0.0
  0
LINE
  5
566
100
AcDbEntity
  8
0
  6
CONTINUOUS
 62
               7
100
AcDbLine
 10
-68.799999999988358
 20
82.299999999995805
 30
0.0
 11
-68.799999999988358
 21
82.499999999997556
 31
0.0
  0
LINE
  5
567
100
AcDbEntity
  8
0
  6
CONTINUOUS
 62
               7
100
AcDbLine
 10
-32.0
 20
80.500000000000057
 30
0.0
 11
-32.0
 21
-10.499999999999943
 31
0.0
  0
LINE
  5
568
100
AcDbEntity
  8
0
  6
CONTINUOUS
 62
               7
100
AcDbLine
 10
0.0
 20
-10.499999999999943
 30
0.0
 11
-32.0
 21
-10.499999999999943
 31
0.0
  0
LINE
  5
569
100
AcDbEntity
  8
0
  6
CONTINUOUS
 62
               7
100
AcDbLine
 10
0.0
 20
80.500000000000057
 30
0.0
 11
-32.999999999988177
 21
80.500000000000057
 31
0.0
  0
LINE
  5
56A
100
AcDbEntity
  8
0
  6
CONTINUOUS
 62
               7
100
AcDbLine
 10
0.0
 20
80.500000000000057
 30
0.0
 11
0.0
 21
-10.499999999999943
 31
0.0
  0
LINE
  5
56B
100
AcDbEntity
  8
0
  6
CENTER
 62
               2
100
AcDbLine
 10
-4.1774670426325429
 20
31.500000000000057
 30
0.0
 11
-29.726510171894802
 21
31.500000000000057
 31
0.0
  0
LINE
  5
56C
100
AcDbEntity
  8
0
  6
CENTER
 62
               2
100
AcDbLine
 10
-3.0383377311368349
 20
3.5000000000000568
 30
0.0
 11
-28.099182584043774
 21
3.5000000000000568
 31
0.0
  0
LINE
  5
56D
100
AcDbEntity
  8
0
  6
CENTER
 62
               2
100
AcDbLine
 10
-3.0383377311368349
 20
59.500000000000057
 30
0.0
 11
-28.099182584043774
 21
59.500000000000057
 31
0.0
  0
CIRCLE
  5
56E
100
AcDbEntity
  8
0
  6
CONTINUOUS
 62
               2
100
AcDbCircle
 10
-15.0
 20
59.500000000000057
 30
0.0
 40
10.477499999999999
  0
CIRCLE
  5
56F
100
AcDbEntity
  8
0
  6
CONTINUOUS
 62
               7
100
AcDbCircle
 10
-15.0
 20
59.500000000000057
 30
0.0
 40
9.3155000000000001
  0
CIRCLE
  5
570
100
AcDbEntity
  8
0
  6
CONTINUOUS
 62
               2
100
AcDbCircle
 10
-15.0
 20
3.5000000000000568
 30
0.0
 40
10.477499999999999
  0
CIRCLE
  5
571
100
AcDbEntity
  8
0
  6
CONTINUOUS
 62
               7
100
AcDbCircle
 10
-15.0
 20
3.5000000000000568
 30
0.0
 40
9.3155000000000001
  0
LINE
  5
572
100
AcDbEntity
  8
0
  6
CENTER
 62
               2
100
AcDbLine
 10
-17.0
 20
44.174442732188368
 30
0.0
 11
-17.0
 21
19.76452891442193
 31
0.0
  0
CIRCLE
  5
573
100
AcDbEntity
  8
0
  6
CONTINUOUS
 62
               2
100
AcDbCircle
 10
-17.0
 20
31.500000000000057
 30
0.0
 40
10.477499999999999
  0
CIRCLE
  5
574
100
AcDbEntity
  8
0
  6
CONTINUOUS
 62
               7
100
AcDbCircle
 10
-17.0
 20
31.500000000000057
 30
0.0
 40
9.3155000000000001
  0
LINE
  5
575
100
AcDbEntity
  8
0
  6
CENTER
 62
               2
100
AcDbLine
 10
-15.0
 20
-9.0391693905423836
 30
0.0
 11
-15.0
 21
72.978141037152739
 31
0.0
  0
LINE
  5
576
100
AcDbEntity
  8
0
  6
CONTINUOUS
 62
               4
100
AcDbLine
 10
-68.799999999988358
 20
82.499999999997556
 30
0.0
 11
-68.799999999985516
 21
117.49999999999801
 31
0.0
  0
LINE
  5
577
100
AcDbEntity
  8
0
  6
CONTINUOUS
 62
               4
100
AcDbLine
 10
-69.899999995455346
 20
82.499999999997627
 30
0.0
 11
-69.899999995454209
 21
121.99999999999608
 31
0.0
  0
LINE
  5
578
100
AcDbEntity
  8
0
  6
CONTINUOUS
 62
               4
100
AcDbLine
 10
-40.899999999989404
 20
90.499999999992326
 30
0.0
 11
-40.899999999985084
 21
122.49999999999574
 31
0.0
  0
LINE
  5
579
100
AcDbEntity
  8
0
  6
CONTINUOUS
 62
               4
100
AcDbLine
 10
-68.799999999985403
 20
120.49999998575862
 30
0.0
 11
-68.799999999985175
 21
122.49999998575862
 31
0.0
  0
ARC
  5
57A
100
AcDbEntity
  8
0
  6
CONTINUOUS
 62
               4
100
AcDbCircle
 10
-37.899999999984402
 20
121.49999999999574
 30
0.0
 40
1.0
100
AcDbArc
 50
0.0
 51
89.999999999999815
  0
ENDBLK
  5
57B
100
AcDbEntity
  8
0
100
AcDbBlockEnd
  0
BLOCK
  5
57C
100
AcDbEntity
  8
0
100
AcDbBlockBegin
  2
PA24A7-13
 70
               0
 10
0.0
 20
0.0
 30
0.0
  3
PA24A7-13
  1

  0
LINE
  5
57D
100
AcDbEntity
  8
0
  6
CENTER
 62
               2
100
AcDbLine
 10
34.0
 20
-4.9999999920354128
 30
0.0
 11
34.0
 21
5.0000000079645872
 31
0.0
  0
LINE
  5
57E
100
AcDbEntity
  8
0
  6
CENTER
 62
               2
100
AcDbLine
 10
0.0
 20
-4.9999999920354128
 30
0.0
 11
0.0
 21
5.0000000079645872
 31
0.0
  0
LINE
  5
57F
100
AcDbEntity
  8
0
  6
CONTINUOUS
 62
               7
100
AcDbLine
 10
4.5999999999991132
 20
33.0
 30
0.0
 11
4.5999999999991132
 21
32.0
 31
0.0
  0
LINE
  5
580
100
AcDbEntity
  8
0
  6
CONTINUOUS
 62
               7
100
AcDbLine
 10
5.5999999999987722
 20
33.0
 30
0.0
 11
4.5999999999991132
 21
33.0
 31
0.0
  0
LINE
  5
581
100
AcDbEntity
  8
0
  6
CONTINUOUS
 62
               7
100
AcDbLine
 10
28.399999999999068
 20
33.0
 30
0.0
 11
27.39999999999884
 21
33.0
 31
0.0
  0
LINE
  5
582
100
AcDbEntity
  8
0
  6
CONTINUOUS
 62
               7
100
AcDbLine
 10
28.399999999999068
 20
33.0
 30
0.0
 11
28.399999999999068
 21
32.0
 31
0.0
  0
LINE
  5
583
100
AcDbEntity
  8
0
  6
CONTINUOUS
 62
               7
100
AcDbLine
 10
4.0000000000004547
 20
-0.0000000214458282
 30
0.0
 11
4.0000000000004547
 21
31.999999978554172
 31
0.0
  0
LINE
  5
584
100
AcDbEntity
  8
0
  6
CONTINUOUS
 62
               7
100
AcDbLine
 10
-4.9999999991091499
 20
0.0
 30
0.0
 11
39.0
 21
0.0
 31
0.0
  0
LINE
  5
585
100
AcDbEntity
  8
0
  6
CONTINUOUS
 62
               7
100
AcDbLine
 10
-4.9999999991091499
 20
32.0
 30
0.0
 11
39.0
 21
32.0
 31
0.0
  0
LINE
  5
586
100
AcDbEntity
  8
0
  6
CONTINUOUS
 62
               7
100
AcDbLine
 10
39.0
 20
-0.0000000214458282
 30
0.0
 11
39.0
 21
32.0
 31
0.0
  0
LINE
  5
587
100
AcDbEntity
  8
0
  6
CONTINUOUS
 62
               7
100
AcDbLine
 10
-4.9999999999995453
 20
-0.0000000214458282
 30
0.0
 11
-4.9999999999995453
 21
31.999999978554172
 31
0.0
  0
ARC
  5
588
100
AcDbEntity
  8
0
  6
CONTINUOUS
 62
               7
100
AcDbCircle
 10
5.5999999999987722
 20
34.0
 30
0.0
 40
1.0
100
AcDbArc
 50
179.99999999999963
 51
269.99999999999937
  0
ARC
  5
589
100
AcDbEntity
  8
0
  6
CONTINUOUS
 62
               7
100
AcDbCircle
 10
27.399999999998727
 20
34.0
 30
0.0
 40
1.0
100
AcDbArc
 50
269.99999999999937
 51
0.0
  0
LINE
  5
58A
100
AcDbEntity
  8
0
  6
CONTINUOUS
 62
               7
100
AcDbLine
 10
5.5999999999987722
 20
33.0
 30
0.0
 11
27.399999999998727
 21
33.0
 31
0.0
  0
LINE
  5
58B
100
AcDbEntity
  8
0
  6
CENTER
 62
               2
100
AcDbLine
 10
25.0
 20
20.07670978547327
 30
0.0
 11
25.0
 21
29.213222225910613
 31
0.0
  0
CIRCLE
  5
58C
100
AcDbEntity
  8
0
  6
DASHED
 62
               2
100
AcDbCircle
 10
25.0
 20
25.0
 30
0.0
 40
2.5
  0
CIRCLE
  5
58D
100
AcDbEntity
  8
0
  6
DASHED
 62
               7
100
AcDbCircle
 10
25.0
 20
25.0
 30
0.0
 40
2.1000000000000001
  0
LINE
  5
58E
100
AcDbEntity
  8
0
  6
CENTER
 62
               2
100
AcDbLine
 10
21.318436273870901
 20
25.0
 30
0.0
 11
29.255089448080071
 21
25.0
 31
0.0
  0
CIRCLE
  5
58F
100
AcDbEntity
  8
0
  6
CONTINUOUS
 62
               7
100
AcDbCircle
 10
16.499999999998749
 20
65.75
 30
0.0
 40
4.0
  0
LINE
  5
590
100
AcDbEntity
  8
0
  6
CONTINUOUS
 62
               7
100
AcDbLine
 10
14.802943880883618
 20
64.052944023936107
 30
0.0
 11
18.197056793463503
 21
67.447056650413515
 31
0.0
  0
LINE
  5
591
100
AcDbEntity
  8
0
  6
CONTINUOUS
 62
               7
100
AcDbLine
 10
18.197055871754628
 20
64.05294377657674
 30
0.0
 11
14.802943245277106
 21
67.447056689156625
 31
0.0
  0
LINE
  5
592
100
AcDbEntity
  8
0
  6
CONTINUOUS
 62
               7
100
AcDbLine
 10
14.802943880883618
 20
38.947055976064121
 30
0.0
 11
18.197056793463503
 21
35.552943349586485
 31
0.0
  0
LINE
  5
593
100
AcDbEntity
  8
0
  6
CONTINUOUS
 62
               7
100
AcDbLine
 10
18.197055871754628
 20
38.94705622342326
 30
0.0
 11
14.802943245276992
 21
35.552943310843375
 31
0.0
  0
CIRCLE
  5
594
100
AcDbEntity
  8
0
  6
CONTINUOUS
 62
               7
100
AcDbCircle
 10
16.499999999998749
 20
65.75
 30
0.0
 40
4.0999999999999996
  0
CIRCLE
  5
595
100
AcDbEntity
  8
0
  6
CONTINUOUS
 62
               7
100
AcDbCircle
 10
8.9999999999987494
 20
38.549999999751208
 30
0.0
 40
2.25
  0
CIRCLE
  5
596
100
AcDbEntity
  8
0
  6
CONTINUOUS
 62
               7
100
AcDbCircle
 10
23.999999999998863
 20
64.450000000248792
 30
0.0
 40
2.25
  0
LINE
  5
597
100
AcDbEntity
  8
0
  6
CENTER
 62
               2
100
AcDbLine
 10
27.188191971272317
 20
64.500000000248974
 30
0.0
 11
21.245776841576571
 21
64.500000000248974
 31
0.0
  0
LINE
  5
598
100
AcDbEntity
  8
0
  6
CENTER
 62
               2
100
AcDbLine
 10
23.999999999998863
 20
61.715034761150264
 30
0.0
 11
23.999999999998863
 21
67.694866788804347
 31
0.0
  0
LINE
  5
599
100
AcDbEntity
  8
0
  6
CENTER
 62
               2
100
AcDbLine
 10
5.8118080287250677
 20
38.499999999751253
 30
0.0
 11
12.16083105737323
 21
38.499999999751253
 31
0.0
  0
LINE
  5
59A
100
AcDbEntity
  8
0
  6
CENTER
 62
               2
100
AcDbLine
 10
8.9999999999987494
 20
41.784965238849736
 30
0.0
 11
8.9999999999987494
 21
35.305133211195653
 31
0.0
  0
LINE
  5
59B
100
AcDbEntity
  8
0
  6
CENTER
 62
               2
100
AcDbLine
 10
2.8842427451352251
 20
51.5
 30
0.0
 11
29.705902948465337
 21
51.5
 31
0.0
  0
ARC
  5
59C
100
AcDbEntity
  8
0
  6
CONTINUOUS
 62
               7
100
AcDbCircle
 10
5.5999999999987722
 20
69.0
 30
0.0
 40
1.0
100
AcDbArc
 50
89.999999999999815
 51
179.99999999999963
  0
ARC
  5
59D
100
AcDbEntity
  8
0
  6
CONTINUOUS
 62
               7
100
AcDbCircle
 10
27.399999999998727
 20
69.0
 30
0.0
 40
1.0
100
AcDbArc
 50
0.0
 51
89.999999999999815
  0
LINE
  5
59E
100
AcDbEntity
  8
0
  6
CONTINUOUS
 62
               7
100
AcDbLine
 10
5.5999999999987722
 20
70.0
 30
0.0
 11
27.399999999998727
 21
70.0
 31
0.0
  0
LINE
  5
59F
100
AcDbEntity
  8
0
  6
CONTINUOUS
 62
               7
100
AcDbLine
 10
28.400000005589618
 20
59.599999999999909
 30
0.0
 11
4.5999999936688027
 21
59.599999999999909
 31
0.0
  0
LINE
  5
5A0
100
AcDbEntity
  8
0
  6
CONTINUOUS
 62
               7
100
AcDbLine
 10
28.400000005589618
 20
43.399999999999977
 30
0.0
 11
4.5999999936688027
 21
43.399999999999977
 31
0.0
  0
LINE
  5
5A1
100
AcDbEntity
  8
0
  6
CONTINUOUS
 62
               7
100
AcDbLine
 10
28.400000005589618
 20
60.0
 30
0.0
 11
4.5999999936688027
 21
60.0
 31
0.0
  0
LINE
  5
5A2
100
AcDbEntity
  8
0
  6
CONTINUOUS
 62
               7
100
AcDbLine
 10
28.400000005589618
 20
43.0
 30
0.0
 11
4.5999999936688027
 21
43.0
 31
0.0
  0
CIRCLE
  5
5A3
100
AcDbEntity
  8
0
  6
CONTINUOUS
 62
               7
100
AcDbCircle
 10
16.499999999998749
 20
37.25
 30
0.0
 40
4.0999999999999996
  0
CIRCLE
  5
5A4
100
AcDbEntity
  8
0
  6
CONTINUOUS
 62
               7
100
AcDbCircle
 10
16.499999999998749
 20
37.25
 30
0.0
 40
4.0
  0
LINE
  5
5A5
100
AcDbEntity
  8
0
  6
CONTINUOUS
 62
               7
100
AcDbLine
 10
4.6000000000019554
 20
69.0
 30
0.0
 11
4.5999999999991132
 21
34.000000000000057
 31
0.0
  0
LINE
  5
5A6
100
AcDbEntity
  8
0
  6
CONTINUOUS
 62
               7
100
AcDbLine
 10
28.40000000000191
 20
69.0
 30
0.0
 11
28.399999999999068
 21
33.999999999999886
 31
0.0
  0
LINE
  5
5A7
100
AcDbEntity
  8
0
  6
CENTER
 62
               2
100
AcDbLine
 10
16.499999999998749
 20
70.75
 30
0.0
 11
16.499999999998636
 21
29.324520201449729
 31
0.0
  0
ENDBLK
  5
5A8
100
AcDbEntity
  8
0
100
AcDbBlockEnd
  0
BLOCK
  5
5A9
100
AcDbEntity
  8
0
100
AcDbBlockBegin
  2
PA24A7-14
 70
               0
 10
0.0
 20
0.0
 30
0.0
  3
PA24A7-14
  1

  0
LINE
  5
5AA
100
AcDbEntity
  8
0
  6
CONTINUOUS
 62
               4
100
AcDbLine
 10
-3.9999999999998153
 20
7.8999999999998636
 30
0.0
 11
-8.7999999999998835
 21
7.8999999999998636
 31
0.0
  0
LINE
  5
5AB
100
AcDbEntity
  8
0
  6
CONTINUOUS
 62
               4
100
AcDbLine
 10
-2.0999999999997243
 20
26.599999999998658
 30
0.0
 11
-7.8999999999996788
 21
26.599999999998772
 31
0.0
  0
LINE
  5
5AC
100
AcDbEntity
  8
0
  6
CONTINUOUS
 62
               4
100
AcDbLine
 10
-2.0999999999996106
 20
33.399999999998613
 30
0.0
 11
-2.0999999999997243
 21
26.599999999998658
 31
0.0
  0
LINE
  5
5AD
100
AcDbEntity
  8
0
  6
CONTINUOUS
 62
               4
100
AcDbLine
 10
-7.8999999999995651
 20
33.399999999998727
 30
0.0
 11
-7.8999999999996788
 21
26.599999999998772
 31
0.0
  0
LINE
  5
5AE
100
AcDbEntity
  8
0
  6
CONTINUOUS
 62
               4
100
AcDbLine
 10
-2.0999999999996106
 20
33.399999999998613
 30
0.0
 11
-7.8999999999995651
 21
33.399999999998727
 31
0.0
  0
LINE
  5
5AF
100
AcDbEntity
  8
0
  6
CONTINUOUS
 62
               4
100
AcDbLine
 10
2.1000000000004349
 20
26.599999999998658
 30
0.0
 11
7.9000000000005031
 21
26.599999999998545
 31
0.0
  0
LINE
  5
5B0
100
AcDbEntity
  8
0
  6
CONTINUOUS
 62
               4
100
AcDbLine
 10
2.1000000000005485
 20
33.399999999998613
 30
0.0
 11
2.1000000000004349
 21
26.599999999998658
 31
0.0
  0
LINE
  5
5B1
100
AcDbEntity
  8
0
  6
CONTINUOUS
 62
               4
100
AcDbLine
 10
7.9000000000005031
 20
33.399999999998499
 30
0.0
 11
7.9000000000005031
 21
26.599999999998545
 31
0.0
  0
LINE
  5
5B2
100
AcDbEntity
  8
0
  6
CONTINUOUS
 62
               4
100
AcDbLine
 10
2.1000000000005485
 20
33.399999999998613
 30
0.0
 11
7.9000000000005031
 21
33.399999999998499
 31
0.0
  0
LINE
  5
5B3
100
AcDbEntity
  8
0
  6
CONTINUOUS
 62
               4
100
AcDbLine
 10
-7.9999999999995879
 20
33.499999999998749
 30
0.0
 11
-7.9999999999997016
 21
26.499999999998749
 31
0.0
  0
LINE
  5
5B4
100
AcDbEntity
  8
0
  6
CONTINUOUS
 62
               4
100
AcDbLine
 10
-1.9999999999995879
 20
33.499999999998636
 30
0.0
 11
-1.9999999999997016
 21
26.499999999998636
 31
0.0
  0
LINE
  5
5B5
100
AcDbEntity
  8
0
  6
CONTINUOUS
 62
               4
100
AcDbLine
 10
-1.9999999999997016
 20
26.499999999998636
 30
0.0
 11
-7.9999999999997016
 21
26.499999999998749
 31
0.0
  0
LINE
  5
5B6
100
AcDbEntity
  8
0
  6
CONTINUOUS
 62
               4
100
AcDbLine
 10
-1.9999999999995879
 20
33.499999999998636
 30
0.0
 11
-7.9999999999995879
 21
33.499999999998749
 31
0.0
  0
LINE
  5
5B7
100
AcDbEntity
  8
0
  6
CONTINUOUS
 62
               4
100
AcDbLine
 10
2.0000000000004121
 20
26.499999999998636
 30
0.0
 11
8.0000000000004121
 21
26.499999999998522
 31
0.0
  0
LINE
  5
5B8
100
AcDbEntity
  8
0
  6
CONTINUOUS
 62
               4
100
AcDbLine
 10
2.0000000000005258
 20
33.499999999998636
 30
0.0
 11
8.0000000000005258
 21
33.499999999998522
 31
0.0
  0
LINE
  5
5B9
100
AcDbEntity
  8
0
  6
CONTINUOUS
 62
               4
100
AcDbLine
 10
7.9000000000002757
 20
18.299999994247401
 30
0.0
 11
7.9000000000002757
 21
18.700207536078665
 31
0.0
  0
ARC
  5
5BA
100
AcDbEntity
  8
0
  6
CONTINUOUS
 62
               4
100
AcDbCircle
 10
7.6000000000002075
 20
18.299999994247401
 30
0.0
 40
0.3
100
AcDbArc
 50
269.9999999999979
 51
359.99999999999767
  0
LINE
  5
5BB
100
AcDbEntity
  8
0
  6
CONTINUOUS
 62
               4
100
AcDbLine
 10
7.9000000000002757
 20
18.700207536078665
 30
0.0
 11
9.2999999874520682
 21
18.700207536078665
 31
0.0
  0
ARC
  5
5BC
100
AcDbEntity
  8
0
  6
CONTINUOUS
 62
               4
100
AcDbCircle
 10
-7.5999999999997243
 20
18.299999994247628
 30
0.0
 40
0.3
100
AcDbArc
 50
179.99999999999963
 51
269.99999999999937
  0
LINE
  5
5BD
100
AcDbEntity
  8
0
  6
CONTINUOUS
 62
               4
100
AcDbLine
 10
7.1000000000002075
 20
16.399999999999636
 30
0.0
 11
7.1000000000002075
 21
17.999999994247446
 31
0.0
  0
LINE
  5
5BE
100
AcDbEntity
  8
0
  6
CONTINUOUS
 62
               4
100
AcDbLine
 10
-7.8999999999996788
 20
18.299999994247742
 30
0.0
 11
-7.8999999999996788
 21
18.700207536078892
 31
0.0
  0
LINE
  5
5BF
100
AcDbEntity
  8
0
  6
CONTINUOUS
 62
               4
100
AcDbLine
 10
7.1000000000002075
 20
17.999999994247446
 30
0.0
 11
9.300000000000253
 21
17.999999994247446
 31
0.0
  0
LINE
  5
5C0
100
AcDbEntity
  8
0
  6
CONTINUOUS
 62
               4
100
AcDbLine
 10
-7.8999999999996788
 20
18.700207536078892
 30
0.0
 11
-9.2999999874515851
 21
18.700207536078892
 31
0.0
  0
LINE
  5
5C1
100
AcDbEntity
  8
0
  6
CONTINUOUS
 62
               4
100
AcDbLine
 10
-7.0999999999997243
 20
17.999999994247673
 30
0.0
 11
-9.2999999999996561
 21
17.999999994247673
 31
0.0
  0
LINE
  5
5C2
100
AcDbEntity
  8
0
  6
CONTINUOUS
 62
               4
100
AcDbLine
 10
9.3000000000001393
 20
8.3999999999998636
 30
0.0
 11
9.300000000000253
 21
18.700207536078665
 31
0.0
  0
ARC
  5
5C3
100
AcDbEntity
  8
0
  6
CONTINUOUS
 62
               4
100
AcDbCircle
 10
-3.4999999999998153
 20
7.1999999999999318
 30
0.0
 40
0.5
100
AcDbArc
 50
179.99999999999807
 51
269.9999999999979
  0
LINE
  5
5C4
100
AcDbEntity
  8
0
  6
CONTINUOUS
 62
               4
100
AcDbLine
 10
-3.9999999999998153
 20
7.1999999999999318
 30
0.0
 11
-3.9999999999998153
 21
7.8999999999999773
 31
0.0
  0
ARC
  5
5C5
100
AcDbEntity
  8
0
  6
CONTINUOUS
 62
               4
100
AcDbCircle
 10
3.5000000000001847
 20
7.1999999999998181
 30
0.0
 40
0.5
100
AcDbArc
 50
269.99999999999937
 51
0.0
  0
LINE
  5
5C6
100
AcDbEntity
  8
0
  6
CONTINUOUS
 62
               4
100
AcDbLine
 10
4.0000000000001847
 20
7.1999999999998181
 30
0.0
 11
4.0000000000001847
 21
7.8999999999998636
 31
0.0
  0
LINE
  5
5C7
100
AcDbEntity
  8
0
  6
CONTINUOUS
 62
               4
100
AcDbLine
 10
3.5000000000001847
 20
6.6999999999998181
 30
0.0
 11
-3.4999999999998153
 21
6.6999999999998181
 31
0.0
  0
ARC
  5
5C8
100
AcDbEntity
  8
0
  6
CONTINUOUS
 62
               4
100
AcDbCircle
 10
6.6000000000002075
 20
16.399999999999864
 30
0.0
 40
0.5
100
AcDbArc
 50
269.99999999999937
 51
0.0
  0
ARC
  5
5C9
100
AcDbEntity
  8
0
  6
CONTINUOUS
 62
               4
100
AcDbCircle
 10
-6.5999999999997243
 20
16.399999999999864
 30
0.0
 40
0.5
100
AcDbArc
 50
179.99999999999963
 51
269.99999999999937
  0
LINE
  5
5CA
100
AcDbEntity
  8
0
  6
CONTINUOUS
 62
               4
100
AcDbLine
 10
-7.0999999999997243
 20
16.399999999999864
 30
0.0
 11
-7.0999999999997243
 21
17.999999994247673
 31
0.0
  0
ARC
  5
5CB
100
AcDbEntity
  8
0
  6
CONTINUOUS
 62
               4
100
AcDbCircle
 10
-8.7999999999998835
 20
8.3999999999998636
 30
0.0
 40
0.5
100
AcDbArc
 50
179.99999999999963
 51
269.99999999999937
  0
LINE
  5
5CC
100
AcDbEntity
  8
0
  6
CONTINUOUS
 62
               4
100
AcDbLine
 10
-9.2999999999998835
 20
8.4000000000000909
 30
0.0
 11
-9.2999999999996561
 21
18.700207536078892
 31
0.0
  0
ARC
  5
5CD
100
AcDbEntity
  8
0
  6
CONTINUOUS
 62
               4
100
AcDbCircle
 10
8.8000000000001393
 20
8.3999999999998636
 30
0.0
 40
0.5
100
AcDbArc
 50
269.99999999999937
 51
0.0
  0
LINE
  5
5CE
100
AcDbEntity
  8
0
  6
CONTINUOUS
 62
               4
100
AcDbLine
 10
8.8000000000001393
 20
7.8999999999998636
 30
0.0
 11
4.0000000000001847
 21
7.8999999999998636
 31
0.0
  0
LINE
  5
5CF
100
AcDbEntity
  8
0
  6
CONTINUOUS
 62
               4
100
AcDbLine
 10
6.6000000000002075
 20
15.899999999999864
 30
0.0
 11
-6.5999999999997243
 21
15.899999999999864
 31
0.0
  0
LINE
  5
5D0
100
AcDbEntity
  8
0
  6
CONTINUOUS
 62
               4
100
AcDbLine
 10
-10.699999999372423
 20
34.900000000001
 30
0.0
 11
-11.899999993412095
 21
34.900000000001
 31
0.0
  0
LINE
  5
5D1
100
AcDbEntity
  8
0
  6
CONTINUOUS
 62
               4
100
AcDbLine
 10
-10.69999999999952
 20
34.900000000001
 30
0.0
 11
-10.69999999999952
 21
38.100000000001046
 31
0.0
  0
LINE
  5
5D2
100
AcDbEntity
  8
0
  6
CONTINUOUS
 62
               4
100
AcDbLine
 10
2.0000000000005258
 20
33.499999999998636
 30
0.0
 11
2.0000000000004121
 21
26.499999999998636
 31
0.0
  0
LINE
  5
5D3
100
AcDbEntity
  8
0
  6
CONTINUOUS
 62
               4
100
AcDbLine
 10
8.0000000000005258
 20
33.499999999998522
 30
0.0
 11
8.0000000000004121
 21
26.499999999998522
 31
0.0
  0
LINE
  5
5D4
100
AcDbEntity
  8
0
  6
CONTINUOUS
 62
               4
100
AcDbLine
 10
-10.699999999372423
 20
38.100000000001046
 30
0.0
 11
-11.899999993412095
 21
38.100000000001046
 31
0.0
  0
ARC
  5
5D5
100
AcDbEntity
  8
0
  6
CONTINUOUS
 62
               4
100
AcDbCircle
 10
-10.899999999999338
 20
38.999999999998749
 30
0.0
 40
1.0
100
AcDbArc
 50
89.999999999999815
 51
179.99999999999963
  0
LINE
  5
5D6
100
AcDbEntity
  8
0
  6
CONTINUOUS
 62
               4
100
AcDbLine
 10
10.700000000000458
 20
34.900000000000773
 30
0.0
 11
10.700000000000571
 21
38.100000000000819
 31
0.0
  0
LINE
  5
5D7
100
AcDbEntity
  8
0
  6
CONTINUOUS
 62
               4
100
AcDbLine
 10
-10.899999999999338
 20
39.999999999998749
 30
0.0
 11
10.900000000000617
 21
39.999999999998522
 31
0.0
  0
ARC
  5
5D8
100
AcDbEntity
  8
0
  6
CONTINUOUS
 62
               4
100
AcDbCircle
 10
10.900000000000503
 20
38.999999999998408
 30
0.0
 40
1.0
100
AcDbArc
 50
359.99999999999847
 51
89.999999999998266
  0
LINE
  5
5D9
100
AcDbEntity
  8
0
  6
CONTINUOUS
 62
               4
100
AcDbLine
 10
10.699999999373588
 20
38.100000000000819
 30
0.0
 11
11.899999993413147
 21
38.100000000000705
 31
0.0
  0
LINE
  5
5DA
100
AcDbEntity
  8
0
  6
CONTINUOUS
 62
               4
100
AcDbLine
 10
10.699999999373588
 20
34.900000000000773
 30
0.0
 11
11.899999993413033
 21
34.900000000000659
 31
0.0
  0
ARC
  5
5DB
100
AcDbEntity
  8
0
  6
CONTINUOUS
 62
               4
100
AcDbCircle
 10
3.5171572868647019
 20
9.6999999999985675
 30
0.0
 40
0.2
100
AcDbArc
 50
269.99999999999937
 51
45.000000000000966
  0
ARC
  5
5DC
100
AcDbEntity
  8
0
  6
CONTINUOUS
 62
               4
100
AcDbCircle
 10
-3.5171572868644461
 20
9.6999999999985675
 30
0.0
 40
0.2
100
AcDbArc
 50
134.99999999999793
 51
269.99999999999937
  0
ARC
  5
5DD
100
AcDbEntity
  8
0
  6
CONTINUOUS
 62
               4
100
AcDbCircle
 10
0.0000000000001847
 20
13.217157286862971
 30
0.0
 40
0.2
100
AcDbArc
 50
44.99999999999919
 51
134.99999999999898
  0
LINE
  5
5DE
100
AcDbEntity
  8
0
  6
CONTINUOUS
 62
               4
100
AcDbLine
 10
0.1414213562374727
 20
13.358578643100259
 30
0.0
 11
3.6585786431019898
 21
9.8414213562358555
 31
0.0
  0
LINE
  5
5DF
100
AcDbEntity
  8
0
  6
CONTINUOUS
 62
               4
100
AcDbLine
 10
-0.1414213562371032
 20
13.358578643100259
 30
0.0
 11
-3.658578643101734
 21
9.8414213562358555
 31
0.0
  0
LINE
  5
5E0
100
AcDbEntity
  8
0
  6
CONTINUOUS
 62
               4
100
AcDbLine
 10
3.5171572868647019
 20
9.4999999999985221
 30
0.0
 11
-3.5171572868644461
 21
9.4999999999985221
 31
0.0
  0
LINE
  5
5E1
100
AcDbEntity
  8
0
  6
CONTINUOUS
 62
               4
100
AcDbLine
 10
-7.8999999999997925
 20
15.799999999998704
 30
0.0
 11
-7.8999999999996788
 21
17.899999999998613
 31
0.0
  0
LINE
  5
5E2
100
AcDbEntity
  8
0
  6
CONTINUOUS
 62
               4
100
AcDbLine
 10
-7.8999999999996788
 20
17.899999999998613
 30
0.0
 11
-9.2999999999996561
 21
17.899999999998613
 31
0.0
  0
ARC
  5
5E3
100
AcDbEntity
  8
0
  6
CONTINUOUS
 62
               4
100
AcDbCircle
 10
-8.7999999999998835
 20
8.4999999999985221
 30
0.0
 40
0.5
100
AcDbArc
 50
179.99999999999963
 51
269.99999999999937
  0
LINE
  5
5E4
100
AcDbEntity
  8
0
  6
CONTINUOUS
 62
               4
100
AcDbLine
 10
8.8000000000001393
 20
7.9999999999985221
 30
0.0
 11
-8.7999999999998835
 21
7.9999999999985221
 31
0.0
  0
ARC
  5
5E5
100
AcDbEntity
  8
0
  6
CONTINUOUS
 62
               4
100
AcDbCircle
 10
8.8000000000001393
 20
8.4999999999982947
 30
0.0
 40
0.5
100
AcDbArc
 50
269.9999999999979
 51
359.99999999999767
  0
LINE
  5
5E6
100
AcDbEntity
  8
0
  6
CONTINUOUS
 62
               4
100
AcDbLine
 10
7.9000000000002757
 20
15.799999999998704
 30
0.0
 11
7.9000000000002757
 21
17.899999999998158
 31
0.0
  0
LINE
  5
5E7
100
AcDbEntity
  8
0
  6
CONTINUOUS
 62
               4
100
AcDbLine
 10
7.9000000000002757
 20
17.899999999998158
 30
0.0
 11
9.300000000000253
 21
17.899999999998158
 31
0.0
  0
LINE
  5
5E8
100
AcDbEntity
  8
0
  6
CONTINUOUS
 62
               4
100
AcDbLine
 10
9.300000000000221
 20
15.799999999998704
 30
0.0
 11
-9.2999999999997698
 21
15.799999999998704
 31
0.0
  0
LINE
  5
5E9
100
AcDbEntity
  8
0
  6
DASHED
 62
               2
100
AcDbLine
 10
-11.900000000003544
 20
0.0
 30
0.0
 11
11.89999999999857
 21
0.0
 31
0.0
  0
LINE
  5
5EA
100
AcDbEntity
  8
0
  6
CENTER
 62
             200
100
AcDbLine
 10
-0.0000000000000426
 20
-4.9708179906839405
 30
0.0
 11
0.0000000000005258
 21
60.661108033213281
 31
0.0
  0
LINE
  5
5EB
100
AcDbEntity
  8
0
  6
CONTINUOUS
 62
               4
100
AcDbLine
 10
11.89999999999857
 20
0.0
 30
0.0
 11
11.900000000018238
 21
38.999999991078425
 31
0.0
  0
LINE
  5
5EC
100
AcDbEntity
  8
0
  6
CONTINUOUS
 62
               4
100
AcDbLine
 10
-11.899999999981489
 20
39.000000000006821
 30
0.0
 11
-11.900000000003544
 21
0.0
 31
0.0
  0
LINE
  5
5ED
100
AcDbEntity
  8
0
  6
CENTER
 62
             200
100
AcDbLine
 10
-10.280775623268184
 20
50.49999999997226
 30
0.0
 11
10.493518005540707
 21
50.49999999997226
 31
0.0
  0
LINE
  5
5EE
100
AcDbEntity
  8
0
  6
CONTINUOUS
 62
               4
100
AcDbLine
 10
7.0000000000005258
 20
46.99999999997226
 30
0.0
 11
6.4951905283838443
 21
46.99999999997226
 31
0.0
  0
LINE
  5
5EF
100
AcDbEntity
  8
0
  6
CONTINUOUS
 62
               4
100
AcDbLine
 10
7.0000000000005258
 20
46.99999999997226
 30
0.0
 11
7.0000000000005258
 21
53.99999999997226
 31
0.0
  0
LINE
  5
5F0
100
AcDbEntity
  8
0
  6
CONTINUOUS
 62
               4
100
AcDbLine
 10
7.0000000000005258
 20
53.99999999997226
 30
0.0
 11
6.4951905283838443
 21
53.99999999997226
 31
0.0
  0
LINE
  5
5F1
100
AcDbEntity
  8
0
  6
CONTINUOUS
 62
               4
100
AcDbLine
 10
-6.9999999999994742
 20
46.99999999997226
 30
0.0
 11
-6.4951905283827926
 21
46.99999999997226
 31
0.0
  0
LINE
  5
5F2
100
AcDbEntity
  8
0
  6
CONTINUOUS
 62
               4
100
AcDbLine
 10
-6.9999999999994742
 20
53.99999999997226
 30
0.0
 11
-6.4951905283827926
 21
53.99999999997226
 31
0.0
  0
LINE
  5
5F3
100
AcDbEntity
  8
0
  6
CONTINUOUS
 62
               4
100
AcDbLine
 10
-6.9999999999994742
 20
46.99999999997226
 30
0.0
 11
-6.9999999999994742
 21
53.99999999997226
 31
0.0
  0
CIRCLE
  5
5F4
100
AcDbEntity
  8
0
  6
CONTINUOUS
 62
               4
100
AcDbCircle
 10
0.0000000000005258
 20
50.49999999997226
 30
0.0
 40
3.5
  0
ARC
  5
5F5
100
AcDbEntity
  8
0
  6
CONTINUOUS
 62
               4
100
AcDbCircle
 10
7.2500000000005258
 20
54.99999999997226
 30
0.0
 40
0.5
100
AcDbArc
 50
0.0
 51
89.999999999999815
  0
ARC
  5
5F6
100
AcDbEntity
  8
0
  6
CONTINUOUS
 62
               4
100
AcDbCircle
 10
-7.2499999999994742
 20
54.99999999997226
 30
0.0
 40
0.5
100
AcDbArc
 50
89.999999999999815
 51
179.99999999999963
  0
LINE
  5
5F7
100
AcDbEntity
  8
0
  6
CONTINUOUS
 62
               4
100
AcDbLine
 10
4.8989794855670681
 20
55.49999999997226
 30
0.0
 11
7.2500000000005258
 21
55.49999999997226
 31
0.0
  0
ARC
  5
5F8
100
AcDbEntity
  8
0
  6
CONTINUOUS
 62
               4
100
AcDbCircle
 10
0.0000000000005258
 20
50.49999999997226
 30
0.0
 40
7.0
100
AcDbArc
 50
38.107391093313929
 51
81.892608906685837
  0
ARC
  5
5F9
100
AcDbEntity
  8
0
  6
CONTINUOUS
 62
               4
100
AcDbCircle
 10
0.0000000000005258
 20
50.49999999997226
 30
0.0
 40
7.0
100
AcDbArc
 50
338.10739109331331
 51
21.892608906685858
  0
ARC
  5
5FA
100
AcDbEntity
  8
0
  6
CONTINUOUS
 62
               4
100
AcDbCircle
 10
0.0000000000005258
 20
50.49999999997226
 30
0.0
 40
7.0
100
AcDbArc
 50
278.10739109331342
 51
321.89260890668527
  0
ARC
  5
5FB
100
AcDbEntity
  8
0
  6
CONTINUOUS
 62
               4
100
AcDbCircle
 10
0.0000000000005258
 20
50.49999999997226
 30
0.0
 40
7.0
100
AcDbArc
 50
218.10739109331354
 51
261.89260890668538
  0
ARC
  5
5FC
100
AcDbEntity
  8
0
  6
CONTINUOUS
 62
               4
100
AcDbCircle
 10
0.0000000000005258
 20
50.49999999997226
 30
0.0
 40
7.0
100
AcDbArc
 50
158.10739109331371
 51
201.89260890668552
  0
ARC
  5
5FD
100
AcDbEntity
  8
0
  6
CONTINUOUS
 62
               4
100
AcDbCircle
 10
0.0000000000005258
 20
50.49999999997226
 30
0.0
 40
7.0
100
AcDbArc
 50
98.107391093313822
 51
141.89260890668567
  0
LINE
  5
5FE
100
AcDbEntity
  8
0
  6
CONTINUOUS
 62
               4
100
AcDbLine
 10
-7.2499999999994742
 20
55.49999999997226
 30
0.0
 11
-4.8989794855657891
 21
55.49999999997226
 31
0.0
  0
ARC
  5
5FF
100
AcDbEntity
  8
0
  6
CONTINUOUS
 62
               4
100
AcDbCircle
 10
0.0000000000005258
 20
50.49999999997226
 30
0.0
 40
6.5
100
AcDbArc
 50
225.8533523675616
 51
254.14664763243732
  0
ARC
  5
600
100
AcDbEntity
  8
0
  6
CONTINUOUS
 62
               4
100
AcDbCircle
 10
0.0000000000005258
 20
50.49999999997226
 30
0.0
 40
6.5
100
AcDbArc
 50
285.85335236756146
 51
314.14664763243718
  0
ARC
  5
601
100
AcDbEntity
  8
0
  6
CONTINUOUS
 62
               4
100
AcDbCircle
 10
0.0000000000005258
 20
50.49999999997226
 30
0.0
 40
6.5
100
AcDbArc
 50
345.85335236756129
 51
14.146647632437864
  0
ARC
  5
602
100
AcDbEntity
  8
0
  6
CONTINUOUS
 62
               4
100
AcDbCircle
 10
0.0000000000005258
 20
50.49999999997226
 30
0.0
 40
6.5
100
AcDbArc
 50
45.853352367561996
 51
74.146647632437677
  0
ARC
  5
603
100
AcDbEntity
  8
0
  6
CONTINUOUS
 62
               4
100
AcDbCircle
 10
0.0000000000005258
 20
50.49999999997226
 30
0.0
 40
6.5
100
AcDbArc
 50
105.85335236756191
 51
134.14664763243758
  0
LINE
  5
604
100
AcDbEntity
  8
0
  6
CONTINUOUS
 62
               4
100
AcDbLine
 10
-4.7631397208137258
 20
55.24999999997226
 30
0.0
 11
-4.5272320069556571
 21
55.164136614094105
 31
0.0
  0
LINE
  5
605
100
AcDbEntity
  8
0
  6
CONTINUOUS
 62
               4
100
AcDbLine
 10
-6.4951905283827926
 20
52.24999999997226
 30
0.0
 11
-6.3028767980280662
 21
52.088629619761377
 31
0.0
  0
LINE
  5
606
100
AcDbEntity
  8
0
  6
CONTINUOUS
 62
               4
100
AcDbLine
 10
-6.4951905283827926
 20
48.74999999997226
 30
0.0
 11
-6.3028767980280662
 21
48.911370380183143
 31
0.0
  0
LINE
  5
607
100
AcDbEntity
  8
0
  6
CONTINUOUS
 62
               4
100
AcDbLine
 10
-4.7631397208137258
 20
45.74999999997226
 30
0.0
 11
-4.5272320069556571
 21
45.835863385850416
 31
0.0
  0
LINE
  5
608
100
AcDbEntity
  8
0
  6
CONTINUOUS
 62
               4
100
AcDbLine
 10
-1.7320508075683136
 20
43.99999999997226
 30
0.0
 11
-1.7756447910718833
 21
44.247233766061299
 31
0.0
  0
LINE
  5
609
100
AcDbEntity
  8
0
  6
CONTINUOUS
 62
               4
100
AcDbLine
 10
1.7320508075695926
 20
43.99999999997226
 30
0.0
 11
1.7756447910731623
 21
44.247233766061299
 31
0.0
  0
LINE
  5
60A
100
AcDbEntity
  8
0
  6
CONTINUOUS
 62
               4
100
AcDbLine
 10
4.7631397208150048
 20
45.74999999997226
 30
0.0
 11
4.5272320069567087
 21
45.835863385850416
 31
0.0
  0
LINE
  5
60B
100
AcDbEntity
  8
0
  6
CONTINUOUS
 62
               4
100
AcDbLine
 10
6.4951905283838443
 20
48.74999999997226
 30
0.0
 11
6.3028767980293452
 21
48.911370380183143
 31
0.0
  0
LINE
  5
60C
100
AcDbEntity
  8
0
  6
CONTINUOUS
 62
               4
100
AcDbLine
 10
6.4951905283838443
 20
52.24999999997226
 30
0.0
 11
6.3028767980293452
 21
52.088629619761377
 31
0.0
  0
LINE
  5
60D
100
AcDbEntity
  8
0
  6
CONTINUOUS
 62
               4
100
AcDbLine
 10
4.7631397208150048
 20
55.24999999997226
 30
0.0
 11
4.5272320069567087
 21
55.164136614094105
 31
0.0
  0
LINE
  5
60E
100
AcDbEntity
  8
0
  6
CONTINUOUS
 62
               4
100
AcDbLine
 10
1.7320508075695926
 20
56.99999999997226
 30
0.0
 11
1.7756447910731623
 21
56.752766233883222
 31
0.0
  0
LINE
  5
60F
100
AcDbEntity
  8
0
  6
CONTINUOUS
 62
               4
100
AcDbLine
 10
-1.7320508075683136
 20
56.99999999997226
 30
0.0
 11
-1.7756447910718833
 21
56.752766233883222
 31
0.0
  0
ARC
  5
610
100
AcDbEntity
  8
0
  6
CONTINUOUS
 62
               4
100
AcDbCircle
 10
0.0000000000005258
 20
50.49999999997226
 30
0.0
 40
6.5
100
AcDbArc
 50
165.85335236756171
 51
194.14664763243749
  0
LINE
  5
611
100
AcDbEntity
  8
0
  6
CONTINUOUS
 62
               4
100
AcDbLine
 10
-6.4951905283827926
 20
54.24999999997226
 30
0.0
 11
-4.7631397208137258
 21
55.24999999997226
 31
0.0
  0
LINE
  5
612
100
AcDbEntity
  8
0
  6
CONTINUOUS
 62
               4
100
AcDbLine
 10
-6.4951905283827926
 20
54.24999999997226
 30
0.0
 11
-6.4951905283827926
 21
52.24999999997226
 31
0.0
  0
LINE
  5
613
100
AcDbEntity
  8
0
  6
CONTINUOUS
 62
               4
100
AcDbLine
 10
-6.4951905283827926
 20
46.74999999997226
 30
0.0
 11
-6.4951905283827926
 21
48.74999999997226
 31
0.0
  0
LINE
  5
614
100
AcDbEntity
  8
0
  6
CONTINUOUS
 62
               4
100
AcDbLine
 10
-6.4951905283827926
 20
46.74999999997226
 30
0.0
 11
-4.7631397208137258
 21
45.74999999997226
 31
0.0
  0
LINE
  5
615
100
AcDbEntity
  8
0
  6
CONTINUOUS
 62
               4
100
AcDbLine
 10
0.0000000000005258
 20
42.99999999997226
 30
0.0
 11
-1.7320508075683136
 21
43.99999999997226
 31
0.0
  0
LINE
  5
616
100
AcDbEntity
  8
0
  6
CONTINUOUS
 62
               4
100
AcDbLine
 10
0.0000000000005258
 20
42.99999999997226
 30
0.0
 11
1.7320508075695926
 21
43.99999999997226
 31
0.0
  0
LINE
  5
617
100
AcDbEntity
  8
0
  6
CONTINUOUS
 62
               4
100
AcDbLine
 10
6.4951905283838443
 20
46.74999999997226
 30
0.0
 11
4.7631397208150048
 21
45.74999999997226
 31
0.0
  0
LINE
  5
618
100
AcDbEntity
  8
0
  6
CONTINUOUS
 62
               4
100
AcDbLine
 10
6.4951905283838443
 20
46.74999999997226
 30
0.0
 11
6.4951905283838443
 21
48.74999999997226
 31
0.0
  0
LINE
  5
619
100
AcDbEntity
  8
0
  6
CONTINUOUS
 62
               4
100
AcDbLine
 10
6.4951905283838443
 20
54.24999999997226
 30
0.0
 11
6.4951905283838443
 21
52.24999999997226
 31
0.0
  0
LINE
  5
61A
100
AcDbEntity
  8
0
  6
CONTINUOUS
 62
               4
100
AcDbLine
 10
6.4951905283838443
 20
54.24999999997226
 30
0.0
 11
4.7631397208150048
 21
55.24999999997226
 31
0.0
  0
LINE
  5
61B
100
AcDbEntity
  8
0
  6
CONTINUOUS
 62
               4
100
AcDbLine
 10
0.0000000000005258
 20
57.99999999997226
 30
0.0
 11
-1.7320508075683136
 21
56.99999999997226
 31
0.0
  0
LINE
  5
61C
100
AcDbEntity
  8
0
  6
CONTINUOUS
 62
               4
100
AcDbLine
 10
0.0000000000005258
 20
57.99999999997226
 30
0.0
 11
1.7320508075695926
 21
56.99999999997226
 31
0.0
  0
LINE
  5
61D
100
AcDbEntity
  8
0
  6
CONTINUOUS
 62
               4
100
AcDbLine
 10
-7.7499999999994742
 20
39.999999999998636
 30
0.0
 11
-7.7499999999994742
 21
54.99999999997226
 31
0.0
  0
LINE
  5
61E
100
AcDbEntity
  8
0
  6
CONTINUOUS
 62
               4
100
AcDbLine
 10
7.7500000000005258
 20
39.999999999998408
 30
0.0
 11
7.7500000000005258
 21
54.99999999997226
 31
0.0
  0
ENDBLK
  5
61F
100
AcDbEntity
  8
0
100
AcDbBlockEnd
  0
BLOCK
  5
64E
100
AcDbEntity
  8
0
  6
ByBlock
 62
               0
100
AcDbBlockBegin
  2
_OPEN30
 70
               2
 10
0.0
 20
0.0
 30
0.0
  3
_OPEN30
  1

  0
LINE
  5
64F
100
AcDbEntity
  8
0
  6
ByBlock
 62
               0
100
AcDbLine
 10
-1.0
 20
0.267949
 30
0.0
 11
0.0
 21
0.0
 31
0.0
  0
LINE
  5
650
100
AcDbEntity
  8
0
  6
ByBlock
 62
               0
100
AcDbLine
 10
0.0
 20
0.0
 30
0.0
 11
-1.0
 21
-0.267949
 31
0.0
  0
LINE
  5
651
100
AcDbEntity
  8
0
  6
ByBlock
 62
               0
100
AcDbLine
 10
0.0
 20
0.0
 30
0.0
 11
-1.0
 21
0.0
 31
0.0
  0
ENDBLK
  5
652
100
AcDbEntity
  8
0
  6
ByBlock
 62
               0
100
AcDbBlockEnd
  0
ENDSEC
  0
SECTION
  2
ENTITIES
  0
INSERT
  5
620
100
AcDbEntity
  8
0
  6
ByBlock
100
AcDbBlockReference
  2
PA24A7-1
 10
-216.2624511718744
 20
36.481533383311984
 30
0.0
  0
INSERT
  5
621
100
AcDbEntity
  8
0
  6
ByBlock
100
AcDbBlockReference
  2
PA24A7-8
 10
-66.562451171874159
 20
36.481533383311984
 30
0.0
  0
INSERT
  5
622
100
AcDbEntity
  8
0
  6
ByBlock
100
AcDbBlockReference
  2
PA24A7-9
 10
-216.2624511718744
 20
-91.124280162669635
 30
0.0
  0
INSERT
  5
623
100
AcDbEntity
  8
0
  6
ByBlock
100
AcDbBlockReference
  2
PA24A7-10
 10
183.2624511718756
 20
36.481533383311984
 30
0.0
  0
INSERT
  5
624
100
AcDbEntity
  8
0
  6
ByBlock
100
AcDbBlockReference
  2
PA24A7-11
 10
60.96245117187587
 20
35.981533383311984
 30
0.0
  0
INSERT
  5
625
100
AcDbEntity
  8
0
  6
ByBlock
100
AcDbBlockReference
  2
PA24A7-12
 10
340.96245117187584
 20
35.981533383311984
 30
0.0
  0
INSERT
  5
626
100
AcDbEntity
  8
0
  6
ByBlock
100
AcDbBlockReference
  2
PA24A7-13
 10
183.2624511718756
 20
-99.124280162669635
 30
0.0
  0
INSERT
  5
627
100
AcDbEntity
  8
0
  6
ByBlock
100
AcDbBlockReference
  2
PA24A7-14
 10
-86.331235660298901
 20
-203.49999999999983
 30
0.0
  0
INSERT
  5
628
100
AcDbEntity
  8
0
  6
ByBlock
100
AcDbBlockReference
  2
PA24A7-2
 10
-195.83637472814257
 20
-203.50000000000017
 30
0.0
 50
359.99999999999869
  0
INSERT
  5
629
100
AcDbEntity
  8
0
  6
ByBlock
100
AcDbBlockReference
  2
PA24A7-3
 10
-281.4979083083158
 20
-203.5
 30
0.0
  0
INSERT
  5
62A
100
AcDbEntity
  8
0
  6
ByBlock
100
AcDbBlockReference
  2
PA24A7-4
 10
62.755732950831387
 20
-203.50000000000037
 30
0.0
 50
359.99999999999869
  0
INSERT
  5
62B
100
AcDbEntity
  8
0
  6
ByBlock
100
AcDbBlockReference
  2
PA24A7-5
 10
313.69589922977605
 20
-203.50000000000017
 30
0.0
  0
INSERT
  5
62C
100
AcDbEntity
  8
0
  6
ByBlock
100
AcDbBlockReference
  2
PA24A7-6
 10
211.83190131077333
 20
-203.50000000000034
 30
0.0
 50
359.99999999999869
  0
INSERT
  5
62D
100
AcDbEntity
  8
0
  6
ByBlock
100
AcDbBlockReference
  2
PA24A7-7
 10
-340.56245117187416
 20
36.481533383311984
 30
0.0
  0
LINE
  5
62E
100
AcDbEntity
  8
0
  6
CONTINUOUS
 62
               7
100
AcDbLine
 10
399.52490234375
 20
276.5
 30
0.0
 11
399.52490234375
 21
-276.5
 31
0.0
  0
LINE
  5
62F
100
AcDbEntity
  8
0
  6
CONTINUOUS
 62
               7
100
AcDbLine
 10
-399.52490234375
 20
276.5
 30
0.0
 11
-399.52490234375
 21
-276.5
 31
0.0
  0
LINE
  5
630
100
AcDbEntity
  8
0
  6
CONTINUOUS
 62
               7
100
AcDbLine
 10
-399.52490234375
 20
276.5
 30
0.0
 11
399.52490234375
 21
276.5
 31
0.0
  0
LINE
  5
631
100
AcDbEntity
  8
0
  6
CONTINUOUS
 62
               7
100
AcDbLine
 10
-399.52490234375
 20
-276.5
 30
0.0
 11
399.52490234375
 21
-276.5
 31
0.0
  0
MTEXT
  5
632
100
AcDbEntity
  8
0
  6
CONTINUOUS
 62
               7
100
AcDbMText
 10
-376.20656023800552
 20
266.5
 30
0.0
 40
6.3000001907348633
 41
0.0
 71
               4
 72
               1
  1
\W1.065;\A1;PA/PB SERIES
  0
LINE
  5
633
100
AcDbEntity
  8
0
  6
CONTINUOUS
 62
               7
100
AcDbLine
 10
-279.52490234375
 20
276.5
 30
0.0
 11
-279.52490234375
 21
256.5
 31
0.0
  0
LINE
  5
634
100
AcDbEntity
  8
0
  6
CONTINUOUS
 62
               7
100
AcDbLine
 10
-399.52490234375
 20
256.5
 30
0.0
 11
-279.52490234375
 21
256.5
 31
0.0
  0
LINE
  5
635
100
AcDbEntity
  8
0
  6
CONTINUOUS
 62
               7
100
AcDbLine
 10
279.5250244140625
 20
276.5
 30
0.0
 11
279.5250244140625
 21
256.5
 31
0.0
  0
LINE
  5
636
100
AcDbEntity
  8
0
  6
CONTINUOUS
 62
               7
100
AcDbLine
 10
279.5250244140625
 20
256.5
 30
0.0
 11
399.52490234375
 21
256.5
 31
0.0
  0
MTEXT
  5
637
100
AcDbEntity
  8
0
  6
CONTINUOUS
 62
               7
100
AcDbMText
 10
315.70207289592116
 20
266.5
 30
0.0
 40
6.3000001907348633
 41
0.0
 71
               4
 72
               1
  1
\W1.311;\A1;Ver. 1.0
  0
MTEXT
  5
638
100
AcDbEntity
  8
0
  6
CONTINUOUS
 62
               7
100
AcDbMText
 10
287.70604688092931
 20
-266.5
 30
0.0
 40
9.0
 41
0.0
 71
               4
 72
               1
  1
\W1.121;\A1;KOGANEI CORP.
  0
LINE
  5
639
100
AcDbEntity
  8
0
  6
CONTINUOUS
 62
               7
100
AcDbLine
 10
279.5250244140625
 20
-256.5
 30
0.0
 11
279.5250244140625
 21
-276.5
 31
0.0
  0
LINE
  5
63A
100
AcDbEntity
  8
0
  6
CONTINUOUS
 62
               7
100
AcDbLine
 10
279.5250244140625
 20
-256.5
 30
0.0
 11
399.52490234375
 21
-256.5
 31
0.0
  0
LINE
  5
63B
100
AcDbEntity
  8
0
  6
CONTINUOUS
 62
               7
100
AcDbLine
 10
154.99999999999994
 20
-121.5
 30
0.0
 11
154.99999999999994
 21
-276.5
 31
0.0
  0
LINE
  5
63C
100
AcDbEntity
  8
0
  6
CONTINUOUS
 62
               7
100
AcDbLine
 10
0.0
 20
276.5
 30
0.0
 11
0.0
 21
-276.5
 31
0.0
  0
MTEXT
  5
63D
100
AcDbEntity
  8
0
  6
CONTINUOUS
 62
               7
100
AcDbMText
 10
-348.76963237169673
 20
231.5
 30
0.0
 40
6.3000001907348633
 41
0.0
 71
               4
 72
               1
  1
\W1.053;\A1;PA24HA7-02(03)-25-G2
  0
MTEXT
  5
63E
100
AcDbEntity
  8
0
  6
CONTINUOUS
 62
               7
100
AcDbMText
 10
-348.76963237169673
 20
211.5
 30
0.0
 40
6.3000001907348633
 41
0.0
 71
               4
 72
               1
  1
\W1.053;\A1;PA24HA8-02(03)-25-G2
  0
MTEXT
  5
63F
100
AcDbEntity
  8
0
  6
CONTINUOUS
 62
               7
100
AcDbMText
 10
-348.76963237169673
 20
191.5
 30
0.0
 40
6.3000001907348633
 41
0.0
 71
               4
 72
               1
  1
\W1.053;\A1;PA24HA9-02(03)-25-G2
  0
MTEXT
  5
640
100
AcDbEntity
  8
0
  6
CONTINUOUS
 62
               7
100
AcDbMText
 10
-348.76656219739914
 20
201.5
 30
0.0
 40
6.3000001907348633
 41
0.0
 71
               4
 72
               1
  1
\W1.056;\A1;PA24A9-02(03)-25-G2
  0
MTEXT
  5
641
100
AcDbEntity
  8
0
  6
CONTINUOUS
 62
               7
100
AcDbMText
 10
-348.76656219739914
 20
221.5
 30
0.0
 40
6.3000001907348633
 41
0.0
 71
               4
 72
               1
  1
\W1.056;\A1;PA24A8-02(03)-25-G2
  0
MTEXT
  5
642
100
AcDbEntity
  8
0
  6
CONTINUOUS
 62
               7
100
AcDbMText
 10
-386.54990240004128
 20
241.5
 30
0.0
 40
6.3000001907348633
 41
0.0
 71
               4
 72
               1
  1
\W1.071;\A1;MODEL:PA24A7-02(03)-25-G2
  0
MTEXT
  5
643
100
AcDbEntity
  8
0
  6
CONTINUOUS
 62
               7
100
AcDbMText
 10
50.711059466488237
 20
231.5
 30
0.0
 40
6.3000001907348633
 41
0.0
 71
               4
 72
               1
  1
\W1.011;\A1;PA24HA7-04-25-G2
  0
MTEXT
  5
644
100
AcDbEntity
  8
0
  6
CONTINUOUS
 62
               7
100
AcDbMText
 10
50.711059466488237
 20
211.5
 30
0.0
 40
6.3000001907348633
 41
0.0
 71
               4
 72
               1
  1
\W1.011;\A1;PA24HA8-04-25-G2
  0
MTEXT
  5
645
100
AcDbEntity
  8
0
  6
CONTINUOUS
 62
               7
100
AcDbMText
 10
50.711059466488237
 20
191.5
 30
0.0
 40
6.3000001907348633
 41
0.0
 71
               4
 72
               1
  1
\W1.011;\A1;PA24HA9-04-25-G2
  0
MTEXT
  5
646
100
AcDbEntity
  8
0
  6
CONTINUOUS
 62
               7
100
AcDbMText
 10
50.711804585214338
 20
201.5
 30
0.0
 40
6.3000001907348633
 41
0.0
 71
               4
 72
               1
  1
\W1.011;\A1;PA24A9-04-25-G2
  0
MTEXT
  5
647
100
AcDbEntity
  8
0
  6
CONTINUOUS
 62
               7
100
AcDbMText
 10
50.711804585214338
 20
221.5
 30
0.0
 40
6.3000001907348633
 41
0.0
 71
               4
 72
               1
  1
\W1.011;\A1;PA24A8-04-25-G2
  0
MTEXT
  5
648
100
AcDbEntity
  8
0
  6
CONTINUOUS
 62
               7
100
AcDbMText
 10
12.943388396505107
 20
241.5
 30
0.0
 40
6.3000001907348633
 41
0.0
 71
               4
 72
               1
  1
\W1.041;\A1;MODEL:PA24A7-04-25-G2
  0
MTEXT
  5
649
100
AcDbEntity
  8
0
  6
CONTINUOUS
 62
               7
100
AcDbMText
 10
21.066666682561237
 20
-133.67304623923027
 30
0.0
 40
6.4000000953674316
 41
0.0
 71
               1
 72
               1
  1
\A1;-G3
  0
MTEXT
  5
64A
100
AcDbEntity
  8
0
  6
CONTINUOUS
 62
               7
100
AcDbMText
 10
180.51656901041667
 20
-133.67304623923027
 30
0.0
 40
6.4000000953674316
 41
0.0
 71
               1
 72
               1
  1
\W1.125;\A1;-G1
  0
MTEXT
  5
64B
100
AcDbEntity
  8
0
  6
CONTINUOUS
 62
               7
100
AcDbMText
 10
-378.45823566118878
 20
-133.67304623923027
 30
0.0
 40
6.4000000953674316
 41
0.0
 71
               1
 72
               1
  1
\A1;-39
  0
MTEXT
  5
64C
100
AcDbEntity
  8
0
  6
CONTINUOUS
 62
               2
100
AcDbMText
 10
-357.54963048801011
 20
-32.584902845556456
 30
0.0
 40
6.3000001907348633
 41
0.0
 71
               4
 72
               1
  1
\W1.077;\A1;5-Rc1/4(Rc3/8)
  0
LEADER
  5
653
100
AcDbEntity
  8
0
  6
CONTINUOUS
 62
               2
100
AcDbLeader
  3
MXDIMSTYLE
 73
               3
 74
               0
 75
               0
 40
0.0
 76
               3
 10
-329.91774471725762
 20
47.449651536386568
 30
0.0
 10
-365.27285178592501
 20
-38.70365246408673
 30
0.0
 10
-269.34962781360446
 20
-38.70365246408673
 30
0.0
 77
               2
1001
ACAD
1000
DSTYLE
1002
{
1070
               6
1000
_OPEN30
1070
               7
1000
_OPEN30
1070
              41
1040
2.77
1070
             173
1070
               1
1070
             341
1005
64D
1002
}
  0
MTEXT
  5
654
100
AcDbEntity
  8
0
  6
CONTINUOUS
 62
               2
100
AcDbMText
 10
10.942635814293658
 20
18.295843149061881
 30
0.0
 40
6.3000001907348633
 41
0.0
 71
               4
 72
               1
  1
\W1.050;\A1;5-Rc1/2
  0
LEADER
  5
655
100
AcDbEntity
  8
0
  6
CONTINUOUS
 62
               2
100
AcDbLeader
  3
MXDIMSTYLE
 73
               3
 74
               0
 75
               0
 40
0.0
 76
               3
 10
73.702088173491077
 20
43.909317174815769
 30
0.0
 10
59.578838579706286
 20
12.177093530531607
 30
0.0
 10
10.942635767511462
 20
12.177093530531607
 30
0.0
 77
               2
1001
ACAD
1000
DSTYLE
1002
{
1070
               6
1000
_OPEN30
1070
               7
1000
_OPEN30
1070
              41
1040
2.77
1070
             173
1070
               1
1070
             341
1005
64D
1002
}
  0
LINE
  5
656
100
AcDbEntity
  8
0
  6
CONTINUOUS
 62
               7
100
AcDbLine
 10
-399.52490234375
 20
-121.5
 30
0.0
 11
399.52490234375
 21
-121.5
 31
0.0
  0
ENDSEC
  0
SECTION
  2
OBJECTS
  0
DICTIONARY
  5
19
100
AcDbDictionary
  3
ACAD_GROUP
350
1A
  3
ACAD_MLINESTYLE
350
1B
  0
DICTIONARY
  5
1A
102
{ACAD_REACTORS
330
19
102
}
100
AcDbDictionary
  0
DICTIONARY
  5
1B
102
{ACAD_REACTORS
330
19
102
}
100
AcDbDictionary
  3
STANDARD
350
1C
  0
MLINESTYLE
  5
1C
102
{ACAD_REACTORS
330
1B
102
}
100
AcDbMlineStyle
  2
Standard
 70
               0
  3

 62
               0
 51
90.0
 52
90.0
 71
               2
 49
0.5
 62
             256
  6
ByLayer
 49
-0.5
 62
             256
  6
ByLayer
  0
ENDSEC
  0
EOF
