  0
SECTION
  2
HEADER
  9
$ACADVER
  1
AC1012
  9
$DWGCODEPAGE
  3
dos932
  9
$INSBASE
 10
0.0
 20
0.0
 30
0.0
  9
$EXTMIN
 10
-281.25
 20
-195.0
 30
0.0
  9
$EXTMAX
 10
285.6319057062413
 20
195.5
 30
0.0
  9
$LIMMIN
 10
-281.25
 20
-195.0
  9
$LIMMAX
 10
285.6319057062413
 20
195.5
  9
$ORTHOMODE
 70
               0
  9
$REGENMODE
 70
               1
  9
$FILLMODE
 70
               1
  9
$QTEXTMODE
 70
               0
  9
$MIRRTEXT
 70
               1
  9
$DRAGMODE
 70
               2
  9
$LTSCALE
 40
1.0
  9
$OSMODE
 70
               0
  9
$ATTMODE
 70
               1
  9
$TEXTSIZE
 40
3.2000000476837158
  9
$TRACEWID
 40
0.05
  9
$TEXTSTYLE
  7
MX_NOTE_STANDARD
  9
$CLAYER
  8
0
  9
$CELTYPE
  6
CONTINUOUS
  9
$CECOLOR
 62
             256
  9
$CELTSCALE
 40
1.0
  9
$DELOBJ
 70
               1
  9
$DISPSILH
 70
               0
  9
$DIMSCALE
 40
1.0
  9
$DIMASZ
 40
2.5
  9
$DIMEXO
 40
1.5
  9
$DIMDLI
 40
3.75
  9
$DIMRND
 40
0.0
  9
$DIMDLE
 40
0.0
  9
$DIMEXE
 40
1.5
  9
$DIMTP
 40
0.0
  9
$DIMTM
 40
0.0
  9
$DIMTXT
 40
3.2000000476837158
  9
$DIMCEN
 40
2.5
  9
$DIMTSZ
 40
0.0
  9
$DIMTOL
 70
               0
  9
$DIMLIM
 70
               0
  9
$DIMTIH
 70
               0
  9
$DIMTOH
 70
               0
  9
$DIMSE1
 70
               0
  9
$DIMSE2
 70
               0
  9
$DIMTAD
 70
               1
  9
$DIMZIN
 70
               8
  9
$DIMBLK
  1

  9
$DIMASO
 70
               1
  9
$DIMSHO
 70
               1
  9
$DIMPOST
  1

  9
$DIMAPOST
  1

  9
$DIMALT
 70
               0
  9
$DIMALTD
 70
               4
  9
$DIMALTF
 40
0.03937007874016
  9
$DIMLFAC
 40
1.0
  9
$DIMTOFL
 70
               1
  9
$DIMTVP
 40
0.0
  9
$DIMTIX
 70
               0
  9
$DIMSOXD
 70
               0
  9
$DIMSAH
 70
               0
  9
$DIMBLK1
  1

  9
$DIMBLK2
  1

  9
$DIMSTYLE
  2
MXDIMSTYLE
  9
$DIMCLRD
 70
               0
  9
$DIMCLRE
 70
               0
  9
$DIMCLRT
 70
               0
  9
$DIMTFAC
 40
1.0
  9
$DIMGAP
 40
1.0
  9
$DIMJUST
 70
               0
  9
$DIMSD1
 70
               0
  9
$DIMSD2
 70
               0
  9
$DIMTOLJ
 70
               1
  9
$DIMTZIN
 70
               0
  9
$DIMALTZ
 70
               0
  9
$DIMALTTZ
 70
               0
  9
$DIMFIT
 70
               3
  9
$DIMUPT
 70
               1
  9
$DIMUNIT
 70
               2
  9
$DIMDEC
 70
               4
  9
$DIMTDEC
 70
               4
  9
$DIMALTU
 70
               2
  9
$DIMALTTD
 70
               4
  9
$DIMTXSTY
  7
MX_NOTE_STANDARD
  9
$DIMAUNIT
 70
               0
  9
$LUNITS
 70
               2
  9
$LUPREC
 70
               4
  9
$SKETCHINC
 40
0.1
  9
$FILLETRAD
 40
0.0
  9
$AUNITS
 70
               0
  9
$AUPREC
 70
               0
  9
$MENU
  1
acad
  9
$ELEVATION
 40
0.0
  9
$PELEVATION
 40
0.0
  9
$THICKNESS
 40
0.0
  9
$LIMCHECK
 70
               0
  9
$BLIPMODE
 70
               1
  9
$CHAMFERA
 40
0.0
  9
$CHAMFERB
 40
0.0
  9
$CHAMFERC
 40
0.0
  9
$CHAMFERD
 40
0.0
  9
$SKPOLY
 70
               0
  9
$TDCREATE
 40
2453378.356782408
  9
$TDUPDATE
 40
2453378.356782408
  9
$TDINDWG
 40
0.0000000000
  9
$TDUSRTIMER
 40
0.0000000000
  9
$USRTIMER
 70
               1
  9
$ANGBASE
 50
0.0
  9
$ANGDIR
 70
               0
  9
$PDMODE
 70
               0
  9
$PDSIZE
 40
0.0
  9
$PLINEWID
 40
0.0
  9
$COORDS
 70
               1
  9
$SPLFRAME
 70
               0
  9
$SPLINETYPE
 70
               6
  9
$SPLINESEGS
 70
               8
  9
$ATTDIA
 70
               0
  9
$ATTREQ
 70
               1
  9
$HANDLING
 70
               1
  9
$HANDSEED
  5
479
  9
$SURFTAB1
 70
               6
  9
$SURFTAB2
 70
               6
  9
$SURFTYPE
 70
               6
  9
$SURFU
 70
               6
  9
$SURFV
 70
               6
  9
$UCSNAME
  2

  9
$UCSORG
 10
0.0
 20
0.0
 30
0.0
  9
$UCSXDIR
 10
1.0
 20
0.0
 30
0.0
  9
$UCSYDIR
 10
0.0
 20
1.0
 30
0.0
  9
$PUCSNAME
  2

  9
$PUCSORG
 10
0.0
 20
0.0
 30
0.0
  9
$PUCSXDIR
 10
1.0
 20
0.0
 30
0.0
  9
$PUCSYDIR
 10
0.0
 20
1.0
 30
0.0
  9
$USERI1
 70
               0
  9
$USERI2
 70
               0
  9
$USERI3
 70
               0
  9
$USERI4
 70
               0
  9
$USERI5
 70
               0
  9
$USERR1
 40
0.0
  9
$USERR2
 40
0.0
  9
$USERR3
 40
0.0
  9
$USERR4
 40
0.0
  9
$USERR5
 40
0.0
  9
$WORLDVIEW
 70
               1
  9
$SHADEDGE
 70
               3
  9
$SHADEDIF
 70
              70
  9
$TILEMODE
 70
               1
  9
$MAXACTVP
 70
              16
  9
$PINSBASE
 10
0.0
 20
0.0
 30
0.0
  9
$PLIMCHECK
 70
               0
  9
$PEXTMIN
 10
1.0000000000000000E+20
 20
1.0000000000000000E+20
 30
1.0000000000000000E+20
  9
$PEXTMAX
 10
-1.0000000000000000E+20
 20
-1.0000000000000000E+20
 30
-1.0000000000000000E+20
  9
$PLIMMIN
 10
0.0
 20
0.0
  9
$PLIMMAX
 10
12.0
 20
9.0
  9
$UNITMODE
 70
               0
  9
$VISRETAIN
 70
               0
  9
$PLINEGEN
 70
               1
  9
$PSLTSCALE
 70
               0
  9
$TREEDEPTH
 70
            3020
  9
$PICKSTYLE
 70
               1
  9
$CMLSTYLE
  2
Standard
  9
$CMLJUST
 70
               0
  9
$CMLSCALE
 40
1.0
  9
$SAVEIMAGES
 70
               0
  0
ENDSEC
  0
SECTION
  2
CLASSES
  0
CLASS
  1
LWPOLYLINE
  2
AcDbPolyline
  3
"AutoCAD"
 90
        0
280
               0
281
               1
  0
CLASS
  1
IMAGE
  2
AcDbRasterImage
  3
ISM
 90
      127
280
               0
281
               1
  0
CLASS
  1
OLE2FRAME
  2
AcDbOle2Frame
  3
""
 90
        0
280
               0
281
               1
  0
CLASS
  1
HATCH
  2
AcDbHatch
  3
"ACAD_SEDONA"
 90
        0
280
               0
281
               1
  0
CLASS
  1
DICTIONARYVAR
  2
AcDbDictionaryVar
  3
"AutoCAD"
 90
        0
280
               0
281
               0
  0
CLASS
  1
RASTERVARIABLES
  2
AcDbRasterVariables
  3
ISM
 90
        0
280
               0
281
               0
  0
CLASS
  1
IMAGEDEF
  2
AcDbRasterImageDef
  3
ISM
 90
        0
280
               0
281
               0
  0
CLASS
  1
IMAGEDEF_REACTOR
  2
AcDbRasterImageDefReactor
  3
ISM
 90
        1
280
               0
281
               0
  0
CLASS
  1
IDBUFFER
  2
AcDbIdBuffer
  3
"Acad"
 90
        0
280
               0
281
               0
  0
CLASS
  1
SPATIAL_FILTER
  2
AcDbSpatialFilter
  3
"Acad"
 90
        0
280
               0
281
               0
  0
CLASS
  1
XRECORD
  2
AcDbXrecord
  3
"<Built In>"
 90
        0
280
               0
281
               0
  0
CLASS
  1
SORTENTSTABLE
  2
AcDbSortentsTable
  3
"AutoCAD"
 90
        0
280
               0
281
               0
  0
CLASS
  1
LAYER_INDEX
  2
AcDbLayerIndex
  3
"Acad"
 90
        0
280
               0
281
               0
  0
CLASS
  1
SPATIAL_INDEX
  2
AcDbSpatialIndex
  3
"Acad"
 90
        0
280
               0
281
               0
  0
CLASS
  1
OBJECT_PTR
  2
CAseDLPNTableRecord
  3
"ASE-LPNTableRecord"
 90
        1
280
               0
281
               0
  0
CLASS
  1
LAYOUT
  2
AcDbLayout
  3
"AutoCAD 2000"
 90
        1
280
               0
281
               0
  0
CLASS
  1
PLOTSETTINGS
  2
AcDbPlotSettings
  3
"AutoCAD 2000"
 90
        1
280
               0
281
               0
  0
CLASS
  1
ACDBDICTIONARYWDFLT
  2
AcDbDictionaryWithDefault
  3
"AutoCAD 2000"
 90
        1
280
               0
281
               0
  0
CLASS
  1
ACDBPLACEHOLDER
  2
AcDbPlaceHolder
  3
"AutoCAD 2000"
 90
        1
280
               0
281
               0
  0
ENDSEC
  0
SECTION
  2
TABLES
  0
TABLE
  2
VPORT
  5
7
100
AcDbSymbolTable
 70
               1
  0
VPORT
  5
15
100
AcDbSymbolTableRecord
100
AcDbViewportTableRecord
  2
*ACTIVE
 70
               0
 10
0.0
 20
0.0
 11
1.0
 21
1.0
 12
2.1909528531206206
 22
0.25
 13
0.0
 23
0.0
 14
1.0
 24
1.0
 15
0.0
 25
0.0
 16
0.0
 26
0.0
 36
1.0
 17
0.0
 27
0.0
 37
0.0
 40
394.40500000000003
 41
1.7320508075688772
 42
50.0
 43
0.0
 44
0.0
 50
0.0
 51
0.0
 71
               0
 72
             100
 73
               1
 74
               1
 75
               0
 76
               0
 77
               0
 78
               0
  0
ENDTAB
  0
TABLE
  2
LTYPE
  5
4
100
AcDbSymbolTable
 70
               6
  0
LTYPE
  5
11
100
AcDbSymbolTableRecord
100
AcDbLinetypeTableRecord
  2
BYBLOCK
 70
              64
  3

 72
              65
 73
               0
 40
0.0
  0
LTYPE
  5
12
100
AcDbSymbolTableRecord
100
AcDbLinetypeTableRecord
  2
BYLAYER
 70
              64
  3

 72
              65
 73
               0
 40
0.0
  0
LTYPE
  5
13
100
AcDbSymbolTableRecord
100
AcDbLinetypeTableRecord
  2
CONTINUOUS
 70
              64
  3
Solid line
 72
              65
 73
               0
 40
0.0
  0
LTYPE
  5
29
100
AcDbSymbolTableRecord
100
AcDbLinetypeTableRecord
  2
CENTER
 70
              64
  3
Center ____ _ ____ _ ____ _ ____ _ ____ _ ____
 72
              65
 73
               4
 40
26.0
 49
20.0
 74
               0
 49
-2.0
 74
               0
 49
2.0
 74
               0
 49
-2.0
 74
               0
  0
LTYPE
  5
2C
100
AcDbSymbolTableRecord
100
AcDbLinetypeTableRecord
  2
DASHED
 70
              64
  3
Dashed __ __ __ __ __ __ __ __ __ __ __ __ __ _
 72
              65
 73
               2
 40
4.0
 49
2.0
 74
               0
 49
-2.0
 74
               0
  0
LTYPE
  5
15E
100
AcDbSymbolTableRecord
100
AcDbLinetypeTableRecord
  2
PHANTOM
 70
              64
  3
Phantom ______  __  __  ______  __  __  ______
 72
              65
 73
               6
 40
30.0
 49
20.0
 74
               0
 49
-2.0
 74
               0
 49
2.0
 74
               0
 49
-2.0
 74
               0
 49
2.0
 74
               0
 49
-2.0
 74
               0
  0
ENDTAB
  0
TABLE
  2
LAYER
  5
2
100
AcDbSymbolTable
 70
               2
  0
LAYER
  5
14
100
AcDbSymbolTableRecord
100
AcDbLayerTableRecord
  2
0
 70
               0
 62
               7
  6
CONTINUOUS
  0
LAYER
  5
1D
100
AcDbSymbolTableRecord
100
AcDbLayerTableRecord
  2
DEFPOINTS
 70
               0
 62
               7
  6
CONTINUOUS
  0
ENDTAB
  0
TABLE
  2
STYLE
  5
3
100
AcDbSymbolTable
 70
               1
  0
STYLE
  5
17
100
AcDbSymbolTableRecord
100
AcDbTextStyleTableRecord
  2
MX_NOTE_STANDARD
 70
               0
 40
0.0
 41
1.0
 50
0.0
 71
               0
 42
3.2000000476837158
  3
txt.shx
  4
extfont.shx
  0
ENDTAB
  0
TABLE
  2
VIEW
  5
5
100
AcDbSymbolTable
 70
               0
  0
ENDTAB
  0
TABLE
  2
UCS
  5
6
100
AcDbSymbolTable
 70
               0
  0
ENDTAB
  0
TABLE
  2
APPID
  5
8
100
AcDbSymbolTable
 70
               1
  0
APPID
  5
16
100
AcDbSymbolTableRecord
100
AcDbRegAppTableRecord
  2
ACAD
 70
               0
  0
ENDTAB
  0
TABLE
  2
DIMSTYLE
  5
9
100
AcDbSymbolTable
 70
               1
  0
DIMSTYLE
105
18
100
AcDbSymbolTableRecord
100
AcDbDimStyleTableRecord
  2
MXDIMSTYLE
 70
               0
  3

  4

  5

  6

  7

 40
1.0
 41
2.5
 42
1.5
 43
3.75
 44
1.5
 45
0.0
 46
0.0
 47
0.0
 48
0.0
 71
               0
 72
               0
 73
               0
 74
               0
 75
               0
 76
               0
 77
               1
 78
               8
140
3.2000000476837158
141
2.5
142
0.0
143
0.03937007874016
144
1.0
145
0.0
146
1.0
147
1.0
170
               0
171
               4
172
               1
173
               0
174
               0
175
               0
176
               0
177
               0
178
               0
270
               2
271
               4
272
               4
273
               2
274
               4
275
               0
280
               0
281
               0
282
               0
283
               1
284
               0
285
               0
286
               0
287
               3
288
               1
340
17
  0
ENDTAB
  0
TABLE
  2
BLOCK_RECORD
  5
1
100
AcDbSymbolTable
 70
              11
  0
BLOCK_RECORD
  5
A
100
AcDbSymbolTableRecord
100
AcDbBlockTableRecord
  2
*MODEL_SPACE
  0
BLOCK_RECORD
  5
B
100
AcDbSymbolTableRecord
100
AcDbBlockTableRecord
  2
*PAPER_SPACE
  0
BLOCK_RECORD
  5
1E
100
AcDbSymbolTableRecord
100
AcDbBlockTableRecord
  2
PA24F6-1
  0
BLOCK_RECORD
  5
1F
100
AcDbSymbolTableRecord
100
AcDbBlockTableRecord
  2
PA24F6-2
  0
BLOCK_RECORD
  5
20
100
AcDbSymbolTableRecord
100
AcDbBlockTableRecord
  2
PA24F6-3
  0
BLOCK_RECORD
  5
21
100
AcDbSymbolTableRecord
100
AcDbBlockTableRecord
  2
PA24F6-4
  0
BLOCK_RECORD
  5
22
100
AcDbSymbolTableRecord
100
AcDbBlockTableRecord
  2
PA24F6-5
  0
BLOCK_RECORD
  5
23
100
AcDbSymbolTableRecord
100
AcDbBlockTableRecord
  2
PA24F6-6
  0
BLOCK_RECORD
  5
24
100
AcDbSymbolTableRecord
100
AcDbBlockTableRecord
  2
PA24F6-7
  0
BLOCK_RECORD
  5
25
100
AcDbSymbolTableRecord
100
AcDbBlockTableRecord
  2
PA24F6-8
  0
BLOCK_RECORD
  5
26
100
AcDbSymbolTableRecord
100
AcDbBlockTableRecord
  2
PA24F6-9
  0
BLOCK_RECORD
  5
27
100
AcDbSymbolTableRecord
100
AcDbBlockTableRecord
  2
PA24F6-10
  0
BLOCK_RECORD
  5
46E
100
AcDbSymbolTableRecord
100
AcDbBlockTableRecord
  2
_OPEN30
  0
ENDTAB
  0
ENDSEC
  0
SECTION
  2
BLOCKS
  0
BLOCK
  5
D
100
AcDbEntity
  8
0
100
AcDbBlockBegin
  2
*MODEL_SPACE
 70
               0
 10
0.0
 20
0.0
 30
0.0
  3
*MODEL_SPACE
  1

  0
ENDBLK
  5
E
100
AcDbEntity
  8
0
100
AcDbBlockEnd
  0
BLOCK
  5
F
100
AcDbEntity
 67
               1
  8
0
100
AcDbBlockBegin
  2
*PAPER_SPACE
 70
               0
 10
0.0
 20
0.0
 30
0.0
  3
*PAPER_SPACE
  1

  0
ENDBLK
  5
10
100
AcDbEntity
 67
               1
  8
0
100
AcDbBlockEnd
  0
BLOCK
  5
28
100
AcDbEntity
  8
0
100
AcDbBlockBegin
  2
PA24F6-1
 70
               0
 10
0.0
 20
0.0
 30
0.0
  3
PA24F6-1
  1

  0
LINE
  5
2A
100
AcDbEntity
  8
0
  6
CENTER
 62
             200
100
AcDbLine
 10
9.2999999999998835
 20
24.00000000000054
 30
0.0
 11
9.3000000000004661
 21
65.999318110282701
 31
0.0
  0
LINE
  5
2B
100
AcDbEntity
  8
0
  6
CONTINUOUS
 62
               4
100
AcDbLine
 10
21.199999999998397
 20
24.00000000000054
 30
0.0
 11
21.200000000018093
 21
62.999999991078965
 31
0.0
  0
LINE
  5
2D
100
AcDbEntity
  8
0
  6
DASHED
 62
               2
100
AcDbLine
 10
-2.6000000000036749
 20
24.00000000000054
 30
0.0
 11
21.199999999998397
 21
24.00000000000054
 31
0.0
  0
LINE
  5
2E
100
AcDbEntity
  8
0
  6
CONTINUOUS
 62
               7
100
AcDbLine
 10
-2.6000000000036749
 20
24.00000000000054
 30
0.0
 11
-2.6000000000070713
 21
17.999999999999119
 31
0.0
  0
CIRCLE
  5
2F
100
AcDbEntity
  8
0
  6
DASHED
 62
               2
100
AcDbCircle
 10
9.2999999999992156
 20
-39.500000051738596
 30
0.0
 40
6.5
  0
CIRCLE
  5
30
100
AcDbEntity
  8
0
  6
DASHED
 62
               7
100
AcDbCircle
 10
9.2999999999992156
 20
-39.500000051738596
 30
0.0
 40
5.6800003051757812
  0
CIRCLE
  5
31
100
AcDbEntity
  8
0
  6
DASHED
 62
               2
100
AcDbCircle
 10
9.2999999999994429
 20
-16.499999948261404
 30
0.0
 40
6.5
  0
CIRCLE
  5
32
100
AcDbEntity
  8
0
  6
DASHED
 62
               7
100
AcDbCircle
 10
9.2999999999994429
 20
-16.499999948261404
 30
0.0
 40
5.6800003051757812
  0
LINE
  5
33
100
AcDbEntity
  8
0
  6
CONTINUOUS
 62
               4
100
AcDbLine
 10
18.600000000000048
 20
39.799999999999301
 30
0.0
 11
0.0000000000000568
 21
39.799999999999301
 31
0.0
  0
LINE
  5
34
100
AcDbEntity
  8
0
  6
CONTINUOUS
 62
               4
100
AcDbLine
 10
17.200000000000102
 20
41.899999999998755
 30
0.0
 11
18.60000000000008
 21
41.899999999998755
 31
0.0
  0
LINE
  5
35
100
AcDbEntity
  8
0
  6
CONTINUOUS
 62
               4
100
AcDbLine
 10
17.200000000000102
 20
39.799999999999301
 30
0.0
 11
17.200000000000102
 21
41.899999999998755
 31
0.0
  0
ARC
  5
36
100
AcDbEntity
  8
0
  6
CONTINUOUS
 62
               4
100
AcDbCircle
 10
18.099999999999966
 20
32.499999999998892
 30
0.0
 40
0.5
100
AcDbArc
 50
269.9999999999979
 51
359.99999999999767
  0
LINE
  5
37
100
AcDbEntity
  8
0
  6
CONTINUOUS
 62
               4
100
AcDbLine
 10
18.099999999999966
 20
31.999999999999119
 30
0.0
 11
0.4999999999999432
 21
31.999999999999119
 31
0.0
  0
ARC
  5
38
100
AcDbEntity
  8
0
  6
CONTINUOUS
 62
               4
100
AcDbCircle
 10
0.4999999999999432
 20
32.499999999999119
 30
0.0
 40
0.5
100
AcDbArc
 50
179.99999999999963
 51
269.99999999999937
  0
LINE
  5
39
100
AcDbEntity
  8
0
  6
CONTINUOUS
 62
               4
100
AcDbLine
 10
1.4000000000001478
 20
41.89999999999921
 30
0.0
 11
0.0000000000001137
 21
41.89999999999921
 31
0.0
  0
LINE
  5
3A
100
AcDbEntity
  8
0
  6
CONTINUOUS
 62
               4
100
AcDbLine
 10
1.4000000000000341
 20
39.799999999999301
 30
0.0
 11
1.4000000000001478
 21
41.89999999999921
 31
0.0
  0
LINE
  5
3B
100
AcDbEntity
  8
0
  6
CONTINUOUS
 62
               4
100
AcDbLine
 10
12.817157286864528
 20
33.499999999999119
 30
0.0
 11
5.7828427131353806
 21
33.499999999999119
 31
0.0
  0
LINE
  5
3C
100
AcDbEntity
  8
0
  6
CONTINUOUS
 62
               4
100
AcDbLine
 10
9.1585786437627235
 20
37.358578643100856
 30
0.0
 11
5.6414213568980927
 21
33.841421356236395
 31
0.0
  0
LINE
  5
3D
100
AcDbEntity
  8
0
  6
CONTINUOUS
 62
               4
100
AcDbLine
 10
9.4414213562372993
 20
37.358578643100856
 30
0.0
 11
12.958578643101816
 21
33.841421356236395
 31
0.0
  0
ARC
  5
3E
100
AcDbEntity
  8
0
  6
CONTINUOUS
 62
               4
100
AcDbCircle
 10
9.3000000000000114
 20
37.217157286863568
 30
0.0
 40
0.2
100
AcDbArc
 50
44.99999999999919
 51
134.99999999999898
  0
ARC
  5
3F
100
AcDbEntity
  8
0
  6
CONTINUOUS
 62
               4
100
AcDbCircle
 10
5.7828427131353806
 20
33.699999999999108
 30
0.0
 40
0.2
100
AcDbArc
 50
134.99999999999793
 51
269.99999999999937
  0
ARC
  5
40
100
AcDbEntity
  8
0
  6
CONTINUOUS
 62
               4
100
AcDbCircle
 10
12.817157286864528
 20
33.699999999999108
 30
0.0
 40
0.2
100
AcDbArc
 50
269.99999999999937
 51
45.000000000000966
  0
LINE
  5
41
100
AcDbEntity
  8
0
  6
CONTINUOUS
 62
               4
100
AcDbLine
 10
19.999999999373415
 20
58.900000000001313
 30
0.0
 11
21.19999999341286
 21
58.900000000001256
 31
0.0
  0
LINE
  5
42
100
AcDbEntity
  8
0
  6
CONTINUOUS
 62
               4
100
AcDbLine
 10
19.999999999373415
 20
62.100000000001359
 30
0.0
 11
21.199999993412973
 21
62.100000000001302
 31
0.0
  0
ARC
  5
43
100
AcDbEntity
  8
0
  6
CONTINUOUS
 62
               4
100
AcDbCircle
 10
20.20000000000033
 20
62.999999999999005
 30
0.0
 40
1.0
100
AcDbArc
 50
359.99999999999847
 51
89.999999999998266
  0
LINE
  5
44
100
AcDbEntity
  8
0
  6
CONTINUOUS
 62
               4
100
AcDbLine
 10
-1.599999999999568
 20
63.999999999999346
 30
0.0
 11
20.200000000000443
 21
63.999999999999062
 31
0.0
  0
LINE
  5
45
100
AcDbEntity
  8
0
  6
CONTINUOUS
 62
               4
100
AcDbLine
 10
20.000000000000284
 20
58.900000000001313
 30
0.0
 11
20.000000000000398
 21
62.100000000001359
 31
0.0
  0
ARC
  5
46
100
AcDbEntity
  8
0
  6
CONTINUOUS
 62
               4
100
AcDbCircle
 10
-1.599999999999568
 20
62.999999999999289
 30
0.0
 40
1.0
100
AcDbArc
 50
89.999999999999815
 51
179.99999999999963
  0
LINE
  5
47
100
AcDbEntity
  8
0
  6
CONTINUOUS
 62
               4
100
AcDbLine
 10
-1.3999999993726533
 20
62.100000000001586
 30
0.0
 11
-2.5999999934122116
 21
62.100000000001586
 31
0.0
  0
LINE
  5
48
100
AcDbEntity
  8
0
  6
CENTER
 62
               2
100
AcDbLine
 10
9.2999999999985334
 20
-73.189318247903032
 30
0.0
 11
9.2999999999998835
 21
24.00000000000054
 31
0.0
  0
LINE
  5
49
100
AcDbEntity
  8
0
  6
CONTINUOUS
 62
               4
100
AcDbLine
 10
17.300000000000352
 20
57.499999999999062
 30
0.0
 11
17.300000000000239
 21
50.499999999999062
 31
0.0
  0
LINE
  5
4A
100
AcDbEntity
  8
0
  6
CONTINUOUS
 62
               4
100
AcDbLine
 10
11.300000000000352
 20
57.499999999999176
 30
0.0
 11
11.300000000000239
 21
50.499999999999176
 31
0.0
  0
LINE
  5
4B
100
AcDbEntity
  8
0
  6
CONTINUOUS
 62
               4
100
AcDbLine
 10
-1.3999999999996362
 20
58.900000000001597
 30
0.0
 11
-1.3999999999996362
 21
62.100000000001586
 31
0.0
  0
LINE
  5
4C
100
AcDbEntity
  8
0
  6
CONTINUOUS
 62
               4
100
AcDbLine
 10
-1.3999999993726533
 20
58.900000000001597
 30
0.0
 11
-2.5999999934122116
 21
58.900000000001597
 31
0.0
  0
LINE
  5
4D
100
AcDbEntity
  8
0
  6
CONTINUOUS
 62
               7
100
AcDbLine
 10
-2.6000000000003638
 20
17.999999999999119
 30
0.0
 11
21.199999999999875
 21
17.999999999998664
 31
0.0
  0
LINE
  5
4E
100
AcDbEntity
  8
0
  6
CONTINUOUS
 62
               7
100
AcDbLine
 10
-1.3000000000006366
 20
10.499999999798291
 30
0.0
 11
-1.3000000000001819
 21
17.999999999999119
 31
0.0
  0
LINE
  5
4F
100
AcDbEntity
  8
0
  6
CONTINUOUS
 62
               7
100
AcDbLine
 10
-1.300000011293605
 20
11.999999999999403
 30
0.0
 11
-2.0999999934122116
 21
11.999999999999403
 31
0.0
  0
ARC
  5
50
100
AcDbEntity
  8
0
  6
CONTINUOUS
 62
               7
100
AcDbCircle
 10
-2.1000000000004775
 20
12.499999999999403
 30
0.0
 40
0.5
100
AcDbArc
 50
179.99999999999963
 51
269.99999999999937
  0
LINE
  5
51
100
AcDbEntity
  8
0
  6
CONTINUOUS
 62
               7
100
AcDbLine
 10
19.89999999999992
 20
10.499999999798291
 30
0.0
 11
19.899999999999807
 21
17.999999999998778
 31
0.0
  0
ARC
  5
52
100
AcDbEntity
  8
0
  6
CONTINUOUS
 62
               7
100
AcDbCircle
 10
20.699999999999875
 20
12.499999999999119
 30
0.0
 40
0.5
100
AcDbArc
 50
269.9999999999979
 51
359.99999999999767
  0
LINE
  5
53
100
AcDbEntity
  8
0
  6
CONTINUOUS
 62
               7
100
AcDbLine
 10
19.900000011293002
 20
11.999999999999119
 30
0.0
 11
20.699999993411609
 21
11.999999999999119
 31
0.0
  0
LINE
  5
54
100
AcDbEntity
  8
0
  6
CONTINUOUS
 62
               4
100
AcDbLine
 10
15.900000000000034
 20
39.900000000000404
 30
0.0
 11
2.7000000000001023
 21
39.900000000000404
 31
0.0
  0
LINE
  5
55
100
AcDbEntity
  8
0
  6
CONTINUOUS
 62
               4
100
AcDbLine
 10
18.099999999999966
 20
31.900000000000404
 30
0.0
 11
13.300000000000011
 21
31.900000000000404
 31
0.0
  0
ARC
  5
56
100
AcDbEntity
  8
0
  6
CONTINUOUS
 62
               4
100
AcDbCircle
 10
18.099999999999966
 20
32.400000000000404
 30
0.0
 40
0.5
100
AcDbArc
 50
269.99999999999937
 51
0.0
  0
LINE
  5
57
100
AcDbEntity
  8
0
  6
CONTINUOUS
 62
               4
100
AcDbLine
 10
-0.0000000000000568
 20
32.400000000000688
 30
0.0
 11
0.0000000000001137
 21
42.700207536079489
 31
0.0
  0
ARC
  5
58
100
AcDbEntity
  8
0
  6
CONTINUOUS
 62
               4
100
AcDbCircle
 10
0.4999999999999432
 20
32.400000000000404
 30
0.0
 40
0.5
100
AcDbArc
 50
179.99999999999963
 51
269.99999999999937
  0
LINE
  5
59
100
AcDbEntity
  8
0
  6
CONTINUOUS
 62
               4
100
AcDbLine
 10
2.2000000000001023
 20
40.400000000000404
 30
0.0
 11
2.2000000000001023
 21
41.99999999424827
 31
0.0
  0
ARC
  5
5A
100
AcDbEntity
  8
0
  6
CONTINUOUS
 62
               4
100
AcDbCircle
 10
2.7000000000001023
 20
40.400000000000404
 30
0.0
 40
0.5
100
AcDbArc
 50
179.99999999999963
 51
269.99999999999937
  0
ARC
  5
5B
100
AcDbEntity
  8
0
  6
CONTINUOUS
 62
               4
100
AcDbCircle
 10
15.900000000000034
 20
40.400000000000404
 30
0.0
 40
0.5
100
AcDbArc
 50
269.99999999999937
 51
0.0
  0
LINE
  5
5C
100
AcDbEntity
  8
0
  6
CONTINUOUS
 62
               4
100
AcDbLine
 10
12.800000000000011
 20
30.700000000000415
 30
0.0
 11
5.8000000000000114
 21
30.700000000000415
 31
0.0
  0
LINE
  5
5D
100
AcDbEntity
  8
0
  6
CONTINUOUS
 62
               4
100
AcDbLine
 10
13.300000000000011
 20
31.200000000000415
 30
0.0
 11
13.300000000000011
 21
31.900000000000404
 31
0.0
  0
ARC
  5
5E
100
AcDbEntity
  8
0
  6
CONTINUOUS
 62
               4
100
AcDbCircle
 10
12.800000000000011
 20
31.200000000000415
 30
0.0
 40
0.5
100
AcDbArc
 50
269.99999999999937
 51
0.0
  0
LINE
  5
5F
100
AcDbEntity
  8
0
  6
CONTINUOUS
 62
               4
100
AcDbLine
 10
5.3000000000000114
 20
31.200000000000529
 30
0.0
 11
5.3000000000000114
 21
31.900000000000517
 31
0.0
  0
ARC
  5
60
100
AcDbEntity
  8
0
  6
CONTINUOUS
 62
               4
100
AcDbCircle
 10
5.8000000000000114
 20
31.200000000000529
 30
0.0
 40
0.5
100
AcDbArc
 50
179.99999999999807
 51
269.9999999999979
  0
LINE
  5
61
100
AcDbEntity
  8
0
  6
CONTINUOUS
 62
               4
100
AcDbLine
 10
18.599999999999966
 20
32.400000000000404
 30
0.0
 11
18.60000000000008
 21
42.700207536079205
 31
0.0
  0
LINE
  5
62
100
AcDbEntity
  8
0
  6
CONTINUOUS
 62
               4
100
AcDbLine
 10
2.2000000000001023
 20
41.99999999424827
 30
0.0
 11
0.0000000000001137
 21
41.99999999424827
 31
0.0
  0
LINE
  5
63
100
AcDbEntity
  8
0
  6
CONTINUOUS
 62
               4
100
AcDbLine
 10
1.4000000000001478
 20
42.700207536079489
 30
0.0
 11
0.0000000125482416
 21
42.700207536079489
 31
0.0
  0
LINE
  5
64
100
AcDbEntity
  8
0
  6
CONTINUOUS
 62
               4
100
AcDbLine
 10
16.400000000000034
 20
41.999999994248043
 30
0.0
 11
18.60000000000008
 21
41.999999994247986
 31
0.0
  0
LINE
  5
65
100
AcDbEntity
  8
0
  6
CONTINUOUS
 62
               4
100
AcDbLine
 10
1.4000000000001478
 20
42.299999994248282
 30
0.0
 11
1.4000000000001478
 21
42.700207536079489
 31
0.0
  0
LINE
  5
66
100
AcDbEntity
  8
0
  6
CONTINUOUS
 62
               4
100
AcDbLine
 10
16.400000000000034
 20
40.400000000000176
 30
0.0
 11
16.400000000000034
 21
41.999999994248043
 31
0.0
  0
ARC
  5
67
100
AcDbEntity
  8
0
  6
CONTINUOUS
 62
               4
100
AcDbCircle
 10
1.7000000000001023
 20
42.299999994248225
 30
0.0
 40
0.3
100
AcDbArc
 50
179.99999999999963
 51
269.99999999999937
  0
LINE
  5
68
100
AcDbEntity
  8
0
  6
CONTINUOUS
 62
               4
100
AcDbLine
 10
17.200000000000102
 20
42.700207536079262
 30
0.0
 11
18.599999987451895
 21
42.700207536079205
 31
0.0
  0
ARC
  5
69
100
AcDbEntity
  8
0
  6
CONTINUOUS
 62
               4
100
AcDbCircle
 10
16.900000000000034
 20
42.299999994247997
 30
0.0
 40
0.3
100
AcDbArc
 50
269.9999999999979
 51
359.99999999999767
  0
LINE
  5
6A
100
AcDbEntity
  8
0
  6
CONTINUOUS
 62
               4
100
AcDbLine
 10
17.200000000000102
 20
42.299999994247997
 30
0.0
 11
17.200000000000102
 21
42.700207536079262
 31
0.0
  0
LINE
  5
6B
100
AcDbEntity
  8
0
  6
CONTINUOUS
 62
               4
100
AcDbLine
 10
11.300000000000352
 20
57.499999999999176
 30
0.0
 11
17.300000000000352
 21
57.499999999999062
 31
0.0
  0
LINE
  5
6C
100
AcDbEntity
  8
0
  6
CONTINUOUS
 62
               4
100
AcDbLine
 10
11.300000000000239
 20
50.499999999999176
 30
0.0
 11
17.300000000000239
 21
50.499999999999062
 31
0.0
  0
LINE
  5
6D
100
AcDbEntity
  8
0
  6
CONTINUOUS
 62
               4
100
AcDbLine
 10
7.3000000000002387
 20
57.499999999999233
 30
0.0
 11
1.3000000000002387
 21
57.499999999999289
 31
0.0
  0
LINE
  5
6E
100
AcDbEntity
  8
0
  6
CONTINUOUS
 62
               4
100
AcDbLine
 10
7.3000000000001251
 20
50.499999999999233
 30
0.0
 11
1.3000000000001251
 21
50.499999999999289
 31
0.0
  0
LINE
  5
6F
100
AcDbEntity
  8
0
  6
CONTINUOUS
 62
               4
100
AcDbLine
 10
7.3000000000002387
 20
57.499999999999233
 30
0.0
 11
7.3000000000001251
 21
50.499999999999233
 31
0.0
  0
LINE
  5
70
100
AcDbEntity
  8
0
  6
CONTINUOUS
 62
               4
100
AcDbLine
 10
1.3000000000002387
 20
57.499999999999289
 30
0.0
 11
1.3000000000001251
 21
50.499999999999289
 31
0.0
  0
LINE
  5
71
100
AcDbEntity
  8
0
  6
CONTINUOUS
 62
               4
100
AcDbLine
 10
11.400000000000375
 20
57.399999999999153
 30
0.0
 11
17.20000000000033
 21
57.399999999999039
 31
0.0
  0
LINE
  5
72
100
AcDbEntity
  8
0
  6
CONTINUOUS
 62
               4
100
AcDbLine
 10
17.20000000000033
 20
57.399999999999039
 30
0.0
 11
17.20000000000033
 21
50.599999999999085
 31
0.0
  0
LINE
  5
73
100
AcDbEntity
  8
0
  6
CONTINUOUS
 62
               4
100
AcDbLine
 10
11.400000000000375
 20
57.399999999999153
 30
0.0
 11
11.400000000000261
 21
50.599999999999199
 31
0.0
  0
LINE
  5
74
100
AcDbEntity
  8
0
  6
CONTINUOUS
 62
               4
100
AcDbLine
 10
11.400000000000261
 20
50.599999999999199
 30
0.0
 11
17.20000000000033
 21
50.599999999999085
 31
0.0
  0
LINE
  5
75
100
AcDbEntity
  8
0
  6
CONTINUOUS
 62
               4
100
AcDbLine
 10
7.200000000000216
 20
57.39999999999921
 30
0.0
 11
1.4000000000002615
 21
57.399999999999267
 31
0.0
  0
LINE
  5
76
100
AcDbEntity
  8
0
  6
CONTINUOUS
 62
               4
100
AcDbLine
 10
1.4000000000002615
 20
57.399999999999267
 30
0.0
 11
1.4000000000001478
 21
50.599999999999312
 31
0.0
  0
LINE
  5
77
100
AcDbEntity
  8
0
  6
CONTINUOUS
 62
               4
100
AcDbLine
 10
7.200000000000216
 20
57.39999999999921
 30
0.0
 11
7.2000000000001023
 21
50.599999999999255
 31
0.0
  0
LINE
  5
78
100
AcDbEntity
  8
0
  6
CONTINUOUS
 62
               4
100
AcDbLine
 10
7.2000000000001023
 20
50.599999999999255
 30
0.0
 11
1.4000000000001478
 21
50.599999999999312
 31
0.0
  0
LINE
  5
79
100
AcDbEntity
  8
0
  6
CONTINUOUS
 62
               4
100
AcDbLine
 10
5.3000000000000114
 20
31.900000000000404
 30
0.0
 11
0.4999999999999432
 21
31.900000000000404
 31
0.0
  0
LINE
  5
7A
100
AcDbEntity
  8
0
  6
CONTINUOUS
 62
               7
100
AcDbLine
 10
-2.6000000224571522
 20
8.9999999999996874
 30
0.0
 11
21.199999989463834
 21
8.9999999999996874
 31
0.0
  0
LINE
  5
7B
100
AcDbEntity
  8
0
  6
CONTINUOUS
 62
               7
100
AcDbLine
 10
19.899999977542905
 20
10.499999999798291
 30
0.0
 11
21.199999999999761
 21
10.499999999798291
 31
0.0
  0
LINE
  5
7C
100
AcDbEntity
  8
0
  6
CONTINUOUS
 62
               7
100
AcDbLine
 10
-2.6000000224571522
 20
10.499999999798291
 30
0.0
 11
-1.3000000105362233
 21
10.499999999798291
 31
0.0
  0
LINE
  5
7D
100
AcDbEntity
  8
0
  6
CONTINUOUS
 62
               7
100
AcDbLine
 10
-2.6000000224571522
 20
-66.000000000000057
 30
0.0
 11
21.199999989463777
 21
-66.000000000000057
 31
0.0
  0
ARC
  5
7E
100
AcDbEntity
  8
0
  6
CONTINUOUS
 62
               7
100
AcDbCircle
 10
20.699999999999193
 20
-70.499999999999943
 30
0.0
 40
0.5
100
AcDbArc
 50
269.99999999999937
 51
0.0
  0
ARC
  5
7F
100
AcDbEntity
  8
0
  6
CONTINUOUS
 62
               7
100
AcDbCircle
 10
-2.1000000000021259
 20
-70.499999999999943
 30
0.0
 40
0.5
100
AcDbArc
 50
179.99999999999963
 51
269.99999999999937
  0
LINE
  5
80
100
AcDbEntity
  8
0
  6
CENTER
 62
               2
100
AcDbLine
 10
18.599999999998829
 20
-62.704087708489283
 30
0.0
 11
18.599999999999056
 21
-51.015545225571714
 31
0.0
  0
ARC
  5
81
100
AcDbEntity
  8
0
  6
CONTINUOUS
 62
               7
100
AcDbCircle
 10
18.599999999998943
 20
-57.0
 30
0.0
 40
4.0
100
AcDbArc
 50
89.999999999998579
 51
269.99999999999818
  0
CIRCLE
  5
82
100
AcDbEntity
  8
0
  6
CONTINUOUS
 62
               7
100
AcDbCircle
 10
18.599999999998943
 20
-57.0
 30
0.0
 40
2.1000000000000001
  0
LINE
  5
83
100
AcDbEntity
  8
0
  6
CENTER
 62
               2
100
AcDbLine
 10
22.446656126438938
 20
-57.0
 30
0.0
 11
12.99523796164226
 21
-56.999999999999943
 31
0.0
  0
ARC
  5
84
100
AcDbEntity
  8
0
  6
CONTINUOUS
 62
               7
100
AcDbCircle
 10
-0.0000000000000568
 20
-0.0000000000000568
 30
0.0
 40
4.0
100
AcDbArc
 50
269.99999999999898
 51
89.999999999997755
  0
CIRCLE
  5
85
100
AcDbEntity
  8
0
  6
CONTINUOUS
 62
               7
100
AcDbCircle
 10
-0.0000000000000568
 20
-0.0000000000000568
 30
0.0
 40
2.1000000000000001
  0
LINE
  5
86
100
AcDbEntity
  8
0
  6
CENTER
 62
               2
100
AcDbLine
 10
0.0000000000001137
 20
5.7040877084892259
 30
0.0
 11
-0.0000000000001137
 21
-5.9844547744283432
 31
0.0
  0
LINE
  5
87
100
AcDbEntity
  8
0
  6
CENTER
 62
               2
100
AcDbLine
 10
-3.8466561264399957
 20
0.0000000000000568
 30
0.0
 11
5.3636104806168419
 21
-0.0000000000000853
 31
0.0
  0
ARC
  5
88
100
AcDbEntity
  8
0
  6
CONTINUOUS
 62
               7
100
AcDbCircle
 10
-2.1000000000009891
 20
-67.499999999999716
 30
0.0
 40
0.5
100
AcDbArc
 50
179.99999999999801
 51
269.99999999999784
  0
ARC
  5
89
100
AcDbEntity
  8
0
  6
CONTINUOUS
 62
               7
100
AcDbCircle
 10
3.8999999999988972
 20
-70.499999999999886
 30
0.0
 40
0.5
100
AcDbArc
 50
179.99999999999798
 51
269.99999999999778
  0
ARC
  5
8A
100
AcDbEntity
  8
0
  6
CONTINUOUS
 62
               7
100
AcDbCircle
 10
2.8999999999989541
 20
-68.499999999999829
 30
0.0
 40
0.5
100
AcDbArc
 50
359.99999999999761
 51
89.999999999998224
  0
LINE
  5
8B
100
AcDbEntity
  8
0
  6
CONTINUOUS
 62
               7
100
AcDbLine
 10
2.8999999999990109
 20
-67.999999999999829
 30
0.0
 11
-2.1000000000009891
 21
-67.999999999999716
 31
0.0
  0
LINE
  5
8C
100
AcDbEntity
  8
0
  6
CONTINUOUS
 62
               7
100
AcDbLine
 10
3.3999999999989541
 20
-68.500000011875045
 30
0.0
 11
3.3999999999988972
 21
-70.499999999999886
 31
0.0
  0
LINE
  5
8D
100
AcDbEntity
  8
0
  6
CONTINUOUS
 62
               7
100
AcDbLine
 10
-2.1000000000017849
 20
-71.000000000000057
 30
0.0
 11
20.699999999998226
 21
-71.000000000000057
 31
0.0
  0
CIRCLE
  5
8E
100
AcDbEntity
  8
0
  6
CONTINUOUS
 62
               7
100
AcDbCircle
 10
7.9499998092645683
 20
-15.0
 30
0.0
 40
7.4000000000000004
  0
LINE
  5
8F
100
AcDbEntity
  8
0
  6
CENTER
 62
               2
100
AcDbLine
 10
7.7999999999995566
 20
-24.998874939573
 30
0.0
 11
7.7999999999994429
 21
-5.0011250604270572
 31
0.0
  0
CIRCLE
  5
90
100
AcDbEntity
  8
0
  6
CONTINUOUS
 62
               2
100
AcDbCircle
 10
7.9499998092645683
 20
-15.0
 30
0.0
 40
8.3000001907348633
  0
LINE
  5
91
100
AcDbEntity
  8
0
  6
CENTER
 62
               2
100
AcDbLine
 10
-2.0500001907354317
 20
-15.000000000000114
 30
0.0
 11
17.949999809264568
 21
-15.0
 31
0.0
  0
CIRCLE
  5
92
100
AcDbEntity
  8
0
  6
CONTINUOUS
 62
               7
100
AcDbCircle
 10
10.650000190734602
 20
-41.000000000000057
 30
0.0
 40
7.4000000000000004
  0
CIRCLE
  5
93
100
AcDbEntity
  8
0
  6
CONTINUOUS
 62
               2
100
AcDbCircle
 10
10.650000190734602
 20
-41.000000000000057
 30
0.0
 40
8.3000001907348633
  0
LINE
  5
94
100
AcDbEntity
  8
0
  6
CENTER
 62
               2
100
AcDbLine
 10
0.6500001907346018
 20
-41.000000000000057
 30
0.0
 11
20.650000190734602
 21
-41.000000000000057
 31
0.0
  0
LINE
  5
95
100
AcDbEntity
  8
0
  6
CENTER
 62
               2
100
AcDbLine
 10
10.799999999999613
 20
-31.001125060427057
 30
0.0
 11
10.799999999999727
 21
-50.998874939573
 31
0.0
  0
LINE
  5
96
100
AcDbEntity
  8
0
  6
CONTINUOUS
 62
               7
100
AcDbLine
 10
21.199999999980633
 20
-3.732050785162869
 30
0.0
 11
21.19999999994215
 21
-70.500000000005684
 31
0.0
  0
LINE
  5
97
100
AcDbEntity
  8
0
  6
CONTINUOUS
 62
               7
100
AcDbLine
 10
21.199999999995356
 20
17.999999999998664
 30
0.0
 11
21.199999999998397
 21
24.00000000000054
 31
0.0
  0
LINE
  5
98
100
AcDbEntity
  8
0
  6
CONTINUOUS
 62
               7
100
AcDbLine
 10
21.200000017286413
 20
-3.7320508272399593
 30
0.0
 11
20.199999999981628
 21
-1.9999999896981819
 31
0.0
  0
LINE
  5
99
100
AcDbEntity
  8
0
  6
CONTINUOUS
 62
               7
100
AcDbLine
 10
20.199999987484233
 20
1.9999999492416975
 30
0.0
 11
21.199999999988165
 21
3.732050778467908
 31
0.0
  0
LINE
  5
9A
100
AcDbEntity
  8
0
  6
CONTINUOUS
 62
               7
100
AcDbLine
 10
20.199999999981628
 20
-2.0000000000054285
 30
0.0
 11
20.19999999998501
 21
1.9999999999945715
 31
0.0
  0
LINE
  5
9B
100
AcDbEntity
  8
0
  6
CONTINUOUS
 62
               4
100
AcDbLine
 10
-2.5999999999816339
 20
63.000000000007361
 30
0.0
 11
-2.6000000000036749
 21
24.00000000000054
 31
0.0
  0
LINE
  5
9C
100
AcDbEntity
  8
0
  6
CONTINUOUS
 62
               7
100
AcDbLine
 10
-2.5999999350314624
 20
-60.732050767634661
 30
0.0
 11
-1.6000000244383727
 21
-59.00000011036235
 31
0.0
  0
LINE
  5
9D
100
AcDbEntity
  8
0
  6
CONTINUOUS
 62
               7
100
AcDbLine
 10
-1.5999999648336143
 20
-55.000000050757706
 30
0.0
 11
-2.5999999648335859
 21
-53.267949214671404
 31
0.0
  0
LINE
  5
9E
100
AcDbEntity
  8
0
  6
CONTINUOUS
 62
               7
100
AcDbLine
 10
-1.6000000000526597
 20
-58.999999999992667
 30
0.0
 11
-1.6000000000491355
 21
-54.999999999992667
 31
0.0
  0
LINE
  5
9F
100
AcDbEntity
  8
0
  6
CONTINUOUS
 62
               7
100
AcDbLine
 10
-2.6000000000532282
 20
-60.732050833853023
 30
0.0
 11
-2.6000000000583725
 21
-70.499999999991672
 31
0.0
  0
LINE
  5
A0
100
AcDbEntity
  8
0
  6
CONTINUOUS
 62
               7
100
AcDbLine
 10
0.0000000000000853
 20
3.9999999999999432
 30
0.0
 11
-2.600000000015001
 21
3.9999999999999432
 31
0.0
  0
LINE
  5
A1
100
AcDbEntity
  8
0
  6
CONTINUOUS
 62
               7
100
AcDbLine
 10
0.0000000000020748
 20
-4.0000000000000568
 30
0.0
 11
-2.60000000001952
 21
-4.0000000000000568
 31
0.0
  0
LINE
  5
A2
100
AcDbEntity
  8
0
  6
CONTINUOUS
 62
               7
100
AcDbLine
 10
18.599999999999028
 20
-53.0
 30
0.0
 11
21.19999999995224
 21
-53.0
 31
0.0
  0
LINE
  5
A3
100
AcDbEntity
  8
0
  6
CONTINUOUS
 62
               7
100
AcDbLine
 10
18.599999999998857
 20
-61.0
 30
0.0
 11
21.199999999947636
 21
-61.0
 31
0.0
  0
LINE
  5
A4
100
AcDbEntity
  8
0
  6
CONTINUOUS
 62
               7
100
AcDbLine
 10
-2.6000000000070713
 20
17.999999999999119
 30
0.0
 11
-2.6000000000070713
 21
-53.267949214671404
 31
0.0
  0
LINE
  5
A5
100
AcDbEntity
  8
0
  6
CONTINUOUS
 62
               7
100
AcDbLine
 10
21.199999999995356
 20
17.999999999998664
 30
0.0
 11
21.199999999995356
 21
3.7320507784803567
 31
0.0
  0
LINE
  5
A6
100
AcDbEntity
  8
0
  6
CENTER
 62
               2
100
AcDbLine
 10
-0.5500001907354886
 20
-16.499999948261461
 30
0.0
 11
19.449999809264511
 21
-16.499999948261348
 31
0.0
  0
LINE
  5
A7
100
AcDbEntity
  8
0
  6
CENTER
 62
               2
100
AcDbLine
 10
-0.5500001907357159
 20
-39.500000051738652
 30
0.0
 11
19.449999809264284
 21
-39.500000051738539
 31
0.0
  0
ENDBLK
  5
A8
100
AcDbEntity
  8
0
100
AcDbBlockEnd
  0
BLOCK
  5
A9
100
AcDbEntity
  8
0
100
AcDbBlockBegin
  2
PA24F6-2
 70
               0
 10
0.0
 20
0.0
 30
0.0
  3
PA24F6-2
  1

  0
LINE
  5
AA
100
AcDbEntity
  8
0
  6
CONTINUOUS
 62
               4
100
AcDbLine
 10
7.8999999999974193
 20
40.000000000000057
 30
0.0
 11
4.8999999954785949
 21
40.000000000000057
 31
0.0
  0
ARC
  5
AB
100
AcDbEntity
  8
0
  6
CONTINUOUS
 62
               4
100
AcDbCircle
 10
-5.1000000045208367
 20
36.000000000000114
 30
0.0
 40
1.0
100
AcDbArc
 50
89.999999999999815
 51
179.99999999999963
  0
ARC
  5
AC
100
AcDbEntity
  8
0
  6
CONTINUOUS
 62
               4
100
AcDbCircle
 10
4.8999999954785949
 20
39.000000000000114
 30
0.0
 40
1.0
100
AcDbArc
 50
89.999999999999815
 51
179.99999999999963
  0
LINE
  5
AD
100
AcDbEntity
  8
0
  6
CONTINUOUS
 62
               4
100
AcDbLine
 10
3.8999999954785949
 20
39.000000000000114
 30
0.0
 11
3.8999999954785949
 21
37.500000000000114
 31
0.0
  0
ARC
  5
AE
100
AcDbEntity
  8
0
  6
CONTINUOUS
 62
               4
100
AcDbCircle
 10
3.3999999954785949
 20
37.500000000000114
 30
0.0
 40
0.5
100
AcDbArc
 50
269.99999999999937
 51
0.0
  0
ARC
  5
AF
100
AcDbEntity
  8
0
  6
CONTINUOUS
 62
               4
100
AcDbCircle
 10
-5.1000000045331149
 20
14.131652503172177
 30
0.0
 40
1.0
100
AcDbArc
 50
179.99999999999963
 51
194.99999999999955
  0
LINE
  5
B0
100
AcDbEntity
  8
0
  6
CONTINUOUS
 62
               4
100
AcDbLine
 10
-5.1000000288909746
 20
36.999999991088657
 30
0.0
 11
3.3999999954785949
 21
36.999999991088657
 31
0.0
  0
LINE
  5
B1
100
AcDbEntity
  8
0
  6
CENTER
 62
             200
100
AcDbLine
 10
1.8999999954791633
 20
36.510895800239041
 30
0.0
 11
1.8999999954795044
 21
48.410609842086501
 31
0.0
  0
LINE
  5
B2
100
AcDbEntity
  8
0
  6
CONTINUOUS
 62
               4
100
AcDbLine
 10
2.6499999954790496
 20
36.999999991088657
 30
0.0
 11
2.6499999954790496
 21
41.682435099956592
 31
0.0
  0
LINE
  5
B3
100
AcDbEntity
  8
0
  6
CONTINUOUS
 62
               4
100
AcDbLine
 10
1.1499999954790496
 20
36.999999991088657
 30
0.0
 11
1.1499999954790496
 21
41.279310099956547
 31
0.0
  0
LINE
  5
B4
100
AcDbEntity
  8
0
  6
CONTINUOUS
 62
               4
100
AcDbLine
 10
1.6499999954790496
 20
44.000872599956551
 30
0.0
 11
1.6499999954791633
 21
47.500872599956551
 31
0.0
  0
LINE
  5
B5
100
AcDbEntity
  8
0
  6
CONTINUOUS
 62
               4
100
AcDbLine
 10
2.1499999954790496
 20
44.000872599956551
 30
0.0
 11
2.1499999954791633
 21
47.500872599956551
 31
0.0
  0
LINE
  5
B6
100
AcDbEntity
  8
0
  6
CONTINUOUS
 62
             200
100
AcDbLine
 10
0.2999999954790269
 20
41.05087259995662
 30
0.0
 11
3.4999999954790724
 21
41.910872599956519
 31
0.0
  0
LINE
  5
B7
100
AcDbEntity
  8
0
  6
CONTINUOUS
 62
             200
100
AcDbLine
 10
0.2999999954790269
 20
42.080872599956592
 30
0.0
 11
3.4999999954790724
 21
42.940872599956492
 31
0.0
  0
LINE
  5
B8
100
AcDbEntity
  8
0
  6
CONTINUOUS
 62
               4
100
AcDbLine
 10
2.6499999954790496
 20
44.000872599956551
 30
0.0
 11
1.1499999954790496
 21
44.000872599956551
 31
0.0
  0
LINE
  5
B9
100
AcDbEntity
  8
0
  6
CONTINUOUS
 62
               4
100
AcDbLine
 10
1.1499999954790496
 20
42.340872599956583
 30
0.0
 11
1.1499999954790496
 21
44.000872599956551
 31
0.0
  0
LINE
  5
BA
100
AcDbEntity
  8
0
  6
CONTINUOUS
 62
               4
100
AcDbLine
 10
2.6499999954790496
 20
42.712435099956565
 30
0.0
 11
2.6499999954790496
 21
44.000872599956551
 31
0.0
  0
LINE
  5
BB
100
AcDbEntity
  8
0
  6
CONTINUOUS
 62
               4
100
AcDbLine
 10
2.1499999954791633
 20
47.500872599956551
 30
0.0
 11
1.6499999954791633
 21
47.500872599956551
 31
0.0
  0
LINE
  5
BC
100
AcDbEntity
  8
0
  6
CONTINUOUS
 62
               4
100
AcDbLine
 10
7.8999999999974193
 20
40.000000000000057
 30
0.0
 11
35.79999999999751
 21
40.000000000000313
 31
0.0
  0
LINE
  5
BD
100
AcDbEntity
  8
0
  6
CONTINUOUS
 62
               4
100
AcDbLine
 10
36.899999995467653
 20
0.0000000000003411
 30
0.0
 11
36.89999999546643
 21
39.500000000000369
 31
0.0
  0
LINE
  5
BE
100
AcDbEntity
  8
0
  6
CONTINUOUS
 62
               4
100
AcDbLine
 10
36.899999995466544
 20
38.100000000002325
 30
0.0
 11
35.799999999997283
 21
38.100000000002268
 31
0.0
  0
LINE
  5
BF
100
AcDbEntity
  8
0
  6
CONTINUOUS
 62
               4
100
AcDbLine
 10
36.899999995466658
 20
34.900000000002336
 30
0.0
 11
35.799999999997851
 21
34.900000000002279
 31
0.0
  0
LINE
  5
C0
100
AcDbEntity
  8
0
  6
CONTINUOUS
 62
               4
100
AcDbLine
 10
35.79999999999751
 20
40.000000000000313
 30
0.0
 11
36.399999999997533
 21
40.000000000000369
 31
0.0
  0
ARC
  5
C1
100
AcDbEntity
  8
0
  6
CONTINUOUS
 62
               4
100
AcDbCircle
 10
36.399999999997533
 20
39.500000000000369
 30
0.0
 40
0.5
100
AcDbArc
 50
0.0000000000006361
 51
90.000000000000441
  0
LINE
  5
C2
100
AcDbEntity
  8
0
  6
CONTINUOUS
 62
               4
100
AcDbLine
 10
36.899999990935669
 20
33.500000000000313
 30
0.0
 11
36.999999995466453
 21
33.399999995469528
 31
0.0
  0
LINE
  5
C3
100
AcDbEntity
  8
0
  6
CONTINUOUS
 62
               4
100
AcDbLine
 10
36.999999995466567
 20
26.600000000000335
 30
0.0
 11
36.899999995466544
 21
26.500000000000313
 31
0.0
  0
ARC
  5
C4
100
AcDbEntity
  8
0
  6
CONTINUOUS
 62
               4
100
AcDbCircle
 10
36.399999999997647
 20
35.500000000002359
 30
0.0
 40
0.5
100
AcDbArc
 50
270.00000000000125
 51
0.000000000001832
  0
ARC
  5
C5
100
AcDbEntity
  8
0
  6
CONTINUOUS
 62
               4
100
AcDbCircle
 10
36.399999999997647
 20
37.500000000002359
 30
0.0
 40
0.5
100
AcDbArc
 50
0.0000000000018066
 51
90.000000000001606
  0
LINE
  5
C6
100
AcDbEntity
  8
0
  6
CONTINUOUS
 62
               4
100
AcDbLine
 10
35.799999999997624
 20
37.999999985762969
 30
0.0
 11
35.79999999999751
 21
39.999999985762912
 31
0.0
  0
LINE
  5
C7
100
AcDbEntity
  8
0
  6
CONTINUOUS
 62
               4
100
AcDbLine
 10
35.799999999997624
 20
38.000000000002302
 30
0.0
 11
36.399999999997533
 21
38.000000000002359
 31
0.0
  0
LINE
  5
C8
100
AcDbEntity
  8
0
  6
CONTINUOUS
 62
               4
100
AcDbLine
 10
35.799999999997738
 20
35.000000000002302
 30
0.0
 11
36.399999999997874
 21
35.000000000002359
 31
0.0
  0
LINE
  5
C9
100
AcDbEntity
  8
0
  6
CONTINUOUS
 62
               4
100
AcDbLine
 10
0.0
 20
0.0
 30
0.0
 11
0.0000000000005116
 21
5.2999999999990735
 31
0.0
  0
LINE
  5
CA
100
AcDbEntity
  8
0
  6
CONTINUOUS
 62
               4
100
AcDbLine
 10
7.9000000000017394
 20
8.0000000000001421
 30
0.0
 11
7.8999999999974193
 21
40.000000000000085
 31
0.0
  0
LINE
  5
CB
100
AcDbEntity
  8
0
  6
CONTINUOUS
 62
               4
100
AcDbLine
 10
-6.1000000000016712
 20
14.065826257580937
 30
0.0
 11
-6.1000000000025807
 21
35.999999973399582
 31
0.0
  0
LINE
  5
CC
100
AcDbEntity
  8
0
  6
CONTINUOUS
 62
               4
100
AcDbLine
 10
5.0000000000002842
 20
8.2000000093935626
 30
0.0
 11
5.0000000000002842
 21
8.0000000000000284
 31
0.0
  0
ARC
  5
CD
100
AcDbEntity
  8
0
  6
CONTINUOUS
 62
               4
100
AcDbCircle
 10
7.1000000000036039
 20
8.7000000093935626
 30
0.0
 40
0.5
100
AcDbArc
 50
270.00000000000267
 51
0.0000000000025444
  0
ARC
  5
CE
100
AcDbEntity
  8
0
  6
CONTINUOUS
 62
               4
100
AcDbCircle
 10
7.1000000000029218
 20
11.500000000000028
 30
0.0
 40
0.5
100
AcDbArc
 50
0.000000000002519
 51
90.000000000002316
  0
LINE
  5
CF
100
AcDbEntity
  8
0
  6
CONTINUOUS
 62
               4
100
AcDbLine
 10
7.6000000000036039
 20
8.7000000093936762
 30
0.0
 11
7.6000000000029218
 21
11.500000000000142
 31
0.0
  0
LINE
  5
D0
100
AcDbEntity
  8
0
  6
CONTINUOUS
 62
               4
100
AcDbLine
 10
1.5000000000021032
 20
11.999999999999801
 30
0.0
 11
1.5000000000021032
 21
12.999999999999801
 31
0.0
  0
LINE
  5
D1
100
AcDbEntity
  8
0
  6
CONTINUOUS
 62
               4
100
AcDbLine
 10
0.5000000000021032
 20
11.999999999999801
 30
0.0
 11
0.5000000000021032
 21
12.999999999999801
 31
0.0
  0
LINE
  5
D2
100
AcDbEntity
  8
0
  6
CONTINUOUS
 62
               4
100
AcDbLine
 10
-4.9124889263641194
 20
11.999999999999517
 30
0.0
 11
7.1000000000029218
 21
12.000000000000028
 31
0.0
  0
LINE
  5
D3
100
AcDbEntity
  8
0
  6
CONTINUOUS
 62
               4
100
AcDbLine
 10
-3.7785677023331914
 20
8.2000000093933352
 30
0.0
 11
7.1000000000036039
 21
8.2000000093935626
 31
0.0
  0
ARC
  5
D4
100
AcDbEntity
  8
0
  6
CONTINUOUS
 62
               4
100
AcDbCircle
 10
7.4000000000123123
 20
13.500000000000085
 30
0.0
 40
0.5
100
AcDbArc
 50
270.00000000000193
 51
0.0000000000025444
  0
LINE
  5
D5
100
AcDbEntity
  8
0
  6
CONTINUOUS
 62
               4
100
AcDbLine
 10
-5.8320508052160562
 20
12.99999999999946
 30
0.0
 11
7.400000000012426
 21
13.000000000000085
 31
0.0
  0
LINE
  5
D6
100
AcDbEntity
  8
0
  6
CONTINUOUS
 62
               4
100
AcDbLine
 10
-4.7444935236395054
 20
8.94118096901488
 30
0.0
 11
-6.0829629131462184
 21
13.936416735029667
 31
0.0
  0
ARC
  5
D7
100
AcDbEntity
  8
0
  6
CONTINUOUS
 62
               4
100
AcDbCircle
 10
-3.7785677023339872
 20
9.2000000093958931
 30
0.0
 40
1.0
100
AcDbArc
 50
194.99999981259796
 51
269.99999999999937
  0
ARC
  5
D8
100
AcDbEntity
  8
0
  6
CONTINUOUS
 62
               4
100
AcDbCircle
 10
6.9000000000126533
 20
13.30000000000004
 30
0.0
 40
1.0
100
AcDbArc
 50
197.45760312372443
 51
0.0000000000081422
  0
ARC
  5
D9
100
AcDbEntity
  8
0
  6
CONTINUOUS
 62
               4
100
AcDbCircle
 10
-4.9124889263641194
 20
11.499999999999517
 30
0.0
 40
0.5
100
AcDbArc
 50
89.999999999999815
 51
194.99999999999952
  0
ARC
  5
DA
100
AcDbEntity
  8
0
  6
CONTINUOUS
 62
               4
100
AcDbCircle
 10
-5.6000000000016712
 20
14.065826257580994
 30
0.0
 40
0.5
100
AcDbArc
 50
179.99999999999963
 51
194.99999999999918
  0
LINE
  5
DB
100
AcDbEntity
  8
0
  6
CONTINUOUS
 62
               4
100
AcDbLine
 10
0.7500000000003979
 20
6.4999999999990052
 30
0.0
 11
5.2500000000003979
 21
6.4999999999986073
 31
0.0
  0
LINE
  5
DC
100
AcDbEntity
  8
0
  6
CONTINUOUS
 62
               4
100
AcDbLine
 10
3.1000000000074692
 20
11.999999999999858
 30
0.0
 11
3.6535533905942543
 21
12.553553390586643
 31
0.0
  0
LINE
  5
DD
100
AcDbEntity
  8
0
  6
CONTINUOUS
 62
               4
100
AcDbLine
 10
0.7500000000005116
 20
7.1937456130969224
 30
0.0
 11
0.7500000000003979
 21
5.7999999999987892
 31
0.0
  0
LINE
  5
DE
100
AcDbEntity
  8
0
  6
CONTINUOUS
 62
               4
100
AcDbLine
 10
5.2500000000005116
 20
7.1937456130965245
 30
0.0
 11
5.2500000000003979
 21
5.7999999999983913
 31
0.0
  0
ARC
  5
DF
100
AcDbEntity
  8
0
  6
CONTINUOUS
 62
               4
100
AcDbCircle
 10
3.0000000000000568
 20
2.1999998092637441
 30
0.0
 40
6.0
100
AcDbArc
 50
73.80871737482147
 51
106.19135456952553
  0
ARC
  5
E0
100
AcDbEntity
  8
0
  6
CONTINUOUS
 62
               4
100
AcDbCircle
 10
1.5500001907353749
 20
7.1937456130968656
 30
0.0
 40
0.800000011920929
100
AcDbArc
 50
106.19135456952553
 51
180.00001798608395
  0
ARC
  5
E1
100
AcDbEntity
  8
0
  6
CONTINUOUS
 62
               4
100
AcDbCircle
 10
4.4499998092656483
 20
7.1937456130966382
 30
0.0
 40
0.800000011920929
100
AcDbArc
 50
359.99998201390565
 51
73.808645430464111
  0
LINE
  5
E2
100
AcDbEntity
  8
0
  6
CONTINUOUS
 62
               4
100
AcDbLine
 10
5.8000000000011482
 20
12.199999999992627
 30
0.0
 11
7.900000000001171
 21
12.199999999992684
 31
0.0
  0
LINE
  5
E3
100
AcDbEntity
  8
0
  6
CONTINUOUS
 62
               4
100
AcDbLine
 10
4.0071067811881562
 20
12.699999999992571
 30
0.0
 11
5.8000000000011482
 21
12.699999999992627
 31
0.0
  0
LINE
  5
E4
100
AcDbEntity
  8
0
  6
CONTINUOUS
 62
               4
100
AcDbLine
 10
5.8000000000011482
 20
12.199999991712758
 30
0.0
 11
5.8000000000011482
 21
12.699999999992627
 31
0.0
  0
LINE
  5
E5
100
AcDbEntity
  8
0
  6
CONTINUOUS
 62
               4
100
AcDbLine
 10
2.00000000000108
 20
8.1160795923634907
 30
0.0
 11
2.00000000000108
 21
8.2000000093934489
 31
0.0
  0
LINE
  5
E6
100
AcDbEntity
  8
0
  6
CONTINUOUS
 62
               4
100
AcDbLine
 10
0.5000000000005116
 20
5.7999999999990166
 30
0.0
 11
5.8000000000004661
 21
5.7999999999985619
 31
0.0
  0
ARC
  5
E7
100
AcDbEntity
  8
0
  6
CONTINUOUS
 62
               4
100
AcDbCircle
 10
4.0071067811881562
 20
12.199999999992571
 30
0.0
 40
0.5
100
AcDbArc
 50
89.999999999994813
 51
134.9999999999944
  0
LINE
  5
E8
100
AcDbEntity
  8
0
  6
CONTINUOUS
 62
               4
100
AcDbLine
 10
5.000000000000739
 20
12.699999999992627
 30
0.0
 11
5.000000000000739
 21
11.999999999999972
 31
0.0
  0
ARC
  5
E9
100
AcDbEntity
  8
0
  6
CONTINUOUS
 62
               4
100
AcDbCircle
 10
0.5000000000005116
 20
5.2999999999990166
 30
0.0
 40
0.5
100
AcDbArc
 50
89.999999999999815
 51
179.99999999999963
  0
LINE
  5
EA
100
AcDbEntity
  8
0
  6
CONTINUOUS
 62
               4
100
AcDbLine
 10
5.8000000000004661
 20
5.7999999999985619
 30
0.0
 11
5.8000000000005798
 21
7.49999999999946
 31
0.0
  0
ARC
  5
EB
100
AcDbEntity
  8
0
  6
CONTINUOUS
 62
               4
100
AcDbCircle
 10
6.3000000000005798
 20
7.4999999999994031
 30
0.0
 40
0.5
100
AcDbArc
 50
89.999999999999815
 51
179.99999999999963
  0
LINE
  5
EC
100
AcDbEntity
  8
0
  6
CONTINUOUS
 62
               4
100
AcDbLine
 10
4.5362284294552069
 20
7.9999999999994031
 30
0.0
 11
7.9000000000019668
 21
7.9999999999994031
 31
0.0
  0
LINE
  5
ED
100
AcDbEntity
  8
0
  6
CONTINUOUS
 62
               4
100
AcDbLine
 10
0.0000000000002842
 20
0.0
 30
0.0
 11
35.800000000000949
 21
0.0000000000003411
 31
0.0
  0
LINE
  5
EE
100
AcDbEntity
  8
0
  6
CONTINUOUS
 62
               4
100
AcDbLine
 10
35.800000000000949
 20
0.0000000000003411
 30
0.0
 11
35.799999999997851
 21
35.000000000002302
 31
0.0
  0
LINE
  5
EF
100
AcDbEntity
  8
0
  6
CONTINUOUS
 62
               4
100
AcDbLine
 10
36.999999995466453
 20
26.600000027368765
 30
0.0
 11
36.999999995466453
 21
33.399999979685049
 31
0.0
  0
ENDBLK
  5
F0
100
AcDbEntity
  8
0
100
AcDbBlockEnd
  0
BLOCK
  5
F1
100
AcDbEntity
  8
0
100
AcDbBlockBegin
  2
PA24F6-3
 70
               0
 10
0.0
 20
0.0
 30
0.0
  3
PA24F6-3
  1

  0
LINE
  5
F2
100
AcDbEntity
  8
0
  6
CENTER
 62
               2
100
AcDbLine
 10
-3.1713703633268908
 20
-0.0000000000007958
 30
0.0
 11
2.7398523996403794
 21
0.0000000000006821
 31
0.0
  0
LINE
  5
F3
100
AcDbEntity
  8
0
  6
CONTINUOUS
 62
               4
100
AcDbLine
 10
35.799999999997446
 20
23.999999999996476
 30
0.0
 11
35.799999999994562
 21
58.999999999996874
 31
0.0
  0
LINE
  5
F4
100
AcDbEntity
  8
0
  6
CONTINUOUS
 62
               7
100
AcDbLine
 10
34.000000000017117
 20
-3.0397368307143608
 30
0.0
 11
34.000000000015582
 21
3.0397368307135935
 31
0.0
  0
LINE
  5
F5
100
AcDbEntity
  8
0
  6
CONTINUOUS
 62
               7
100
AcDbLine
 10
33.999999992528053
 20
-3.0397368307143608
 30
0.0
 11
37.000000000017117
 21
-3.0397368307137924
 31
0.0
  0
LINE
  5
F6
100
AcDbEntity
  8
0
  6
CONTINUOUS
 62
               7
100
AcDbLine
 10
33.999999992526575
 20
3.0397368307135935
 30
0.0
 11
37.000000000015582
 21
3.0397368307142187
 31
0.0
  0
LINE
  5
F7
100
AcDbEntity
  8
0
  6
CENTER
 62
               2
100
AcDbLine
 10
32.328629636673107
 20
-0.0000000000007958
 30
0.0
 11
38.239852399640377
 21
0.0000000000006821
 31
0.0
  0
CIRCLE
  5
F8
100
AcDbEntity
  8
0
  6
CONTINUOUS
 62
               7
100
AcDbCircle
 10
5.499999530258445
 20
-15.499999850190221
 30
0.0
 40
2.7000000000000002
  0
CIRCLE
  5
F9
100
AcDbEntity
  8
0
  6
CONTINUOUS
 62
               7
100
AcDbCircle
 10
5.499999530264982
 20
-40.499999850190221
 30
0.0
 40
2.7000000000000002
  0
LINE
  5
FA
100
AcDbEntity
  8
0
  6
CENTER
 62
               2
100
AcDbLine
 10
5.4999995302563986
 20
-7.9290665275063077
 30
0.0
 11
5.4999995302669147
 21
-47.533020180726595
 31
0.0
  0
LINE
  5
FB
100
AcDbEntity
  8
0
  6
CENTER
 62
               2
100
AcDbLine
 10
12.651349545030211
 20
-15.499999850188175
 30
0.0
 11
-1.5379493121213175
 21
-15.499999850191699
 31
0.0
  0
CIRCLE
  5
FC
100
AcDbEntity
  8
0
  6
CONTINUOUS
 62
               7
100
AcDbCircle
 10
5.499999530264982
 20
-40.499999850190221
 30
0.0
 40
4.7000000000000002
  0
LINE
  5
FD
100
AcDbEntity
  8
0
  6
CENTER
 62
               2
100
AcDbLine
 10
12.651349545036634
 20
-40.499999850188175
 30
0.0
 11
-1.5379493121148373
 21
-40.499999850191699
 31
0.0
  0
CIRCLE
  5
FE
100
AcDbEntity
  8
0
  6
CONTINUOUS
 62
               7
100
AcDbCircle
 10
5.499999530258445
 20
-15.499999850190221
 30
0.0
 40
4.7000000000000002
  0
LINE
  5
FF
100
AcDbEntity
  8
0
  6
CONTINUOUS
 62
               4
100
AcDbLine
 10
-7.0999999999933623
 20
41.599999999994907
 30
0.0
 11
-7.0999999999931349
 21
44.999999999994941
 31
0.0
  0
LINE
  5
100
100
AcDbEntity
  8
0
  6
CONTINUOUS
 62
             200
100
AcDbLine
 10
-9.65087260886121
 20
41.69999999999493
 30
0.0
 11
-10.51087260886111
 21
44.899999999994975
 31
0.0
  0
LINE
  5
101
100
AcDbEntity
  8
0
  6
CONTINUOUS
 62
             200
100
AcDbLine
 10
-10.680872608861183
 20
41.69999999999493
 30
0.0
 11
-11.540872608861083
 21
44.899999999994975
 31
0.0
  0
LINE
  5
102
100
AcDbEntity
  8
0
  6
CONTINUOUS
 62
               4
100
AcDbLine
 10
-17.600872608861142
 20
43.549999999995066
 30
0.0
 11
-17.600872608861142
 21
43.049999999995066
 31
0.0
  0
LINE
  5
103
100
AcDbEntity
  8
0
  6
CONTINUOUS
 62
               4
100
AcDbLine
 10
-14.100872608861142
 20
44.049999999994952
 30
0.0
 11
-14.100872608861142
 21
42.549999999995009
 31
0.0
  0
LINE
  5
104
100
AcDbEntity
  8
0
  6
CONTINUOUS
 62
               4
100
AcDbLine
 10
-14.100872608861142
 20
43.549999999995009
 30
0.0
 11
-17.600872608861142
 21
43.549999999995066
 31
0.0
  0
LINE
  5
105
100
AcDbEntity
  8
0
  6
CONTINUOUS
 62
               4
100
AcDbLine
 10
-14.100872608861142
 20
43.049999999995009
 30
0.0
 11
-17.600872608861142
 21
43.049999999995066
 31
0.0
  0
LINE
  5
106
100
AcDbEntity
  8
0
  6
CONTINUOUS
 62
               4
100
AcDbLine
 10
-10.940872608861174
 20
42.549999999995009
 30
0.0
 11
-14.100872608861142
 21
42.549999999995009
 31
0.0
  0
LINE
  5
107
100
AcDbEntity
  8
0
  6
CONTINUOUS
 62
               4
100
AcDbLine
 10
-11.312435108861155
 20
44.049999999994952
 30
0.0
 11
-14.100872608861142
 21
44.049999999994952
 31
0.0
  0
ARC
  5
108
100
AcDbEntity
  8
0
  6
CONTINUOUS
 62
               4
100
AcDbCircle
 10
-6.7999999999931804
 20
41.599999999994907
 30
0.0
 40
0.3
100
AcDbArc
 50
179.99999999999963
 51
269.99999999999937
  0
ARC
  5
109
100
AcDbEntity
  8
0
  6
CONTINUOUS
 62
               4
100
AcDbCircle
 10
-6.7999999999931804
 20
44.999999999994884
 30
0.0
 40
0.3
100
AcDbArc
 50
89.999999999999815
 51
179.99999999999963
  0
LINE
  5
10A
100
AcDbEntity
  8
0
  6
CONTINUOUS
 62
               4
100
AcDbLine
 10
-6.7999999999931804
 20
41.299999999994895
 30
0.0
 11
-6.0999999999931349
 21
41.299999999994895
 31
0.0
  0
LINE
  5
10B
100
AcDbEntity
  8
0
  6
CONTINUOUS
 62
               4
100
AcDbLine
 10
-6.7999999999931804
 20
45.299999999994895
 30
0.0
 11
-6.0999999999931349
 21
45.299999999994895
 31
0.0
  0
LINE
  5
10C
100
AcDbEntity
  8
0
  6
CONTINUOUS
 62
               4
100
AcDbLine
 10
-7.0999999999932486
 20
42.549999999994952
 30
0.0
 11
-9.8793101088611373
 21
42.549999999994952
 31
0.0
  0
LINE
  5
10D
100
AcDbEntity
  8
0
  6
CONTINUOUS
 62
               4
100
AcDbLine
 10
-7.0999999999931349
 20
44.049999999994952
 30
0.0
 11
-10.282435108861183
 21
44.049999999994952
 31
0.0
  0
LINE
  5
10E
100
AcDbEntity
  8
0
  6
CENTER
 62
             200
100
AcDbLine
 10
-4.6108958091436323
 20
43.299999999995066
 30
0.0
 11
-18.510609850991091
 21
43.299999999995407
 31
0.0
  0
ARC
  5
10F
100
AcDbEntity
  8
0
  6
CONTINUOUS
 62
               7
100
AcDbCircle
 10
0.5000000000088205
 20
-70.500000000007418
 30
0.0
 40
0.5
100
AcDbArc
 50
179.99999999999963
 51
269.99999999999937
  0
LINE
  5
110
100
AcDbEntity
  8
0
  6
CONTINUOUS
 62
               7
100
AcDbLine
 10
36.707106781195883
 20
-68.29289321252773
 30
0.0
 11
34.292893219049638
 21
-70.7071067746746
 31
0.0
  0
LINE
  5
111
100
AcDbEntity
  8
0
  6
CONTINUOUS
 62
               7
100
AcDbLine
 10
34.620607155617002
 20
-70.803656906819214
 30
0.0
 11
34.620607155616888
 21
-70.379392838107293
 31
0.0
  0
LINE
  5
112
100
AcDbEntity
  8
0
  6
CONTINUOUS
 62
               7
100
AcDbLine
 10
36.600506144817025
 20
-68.82375791761811
 30
0.0
 11
36.600506144816912
 21
-68.399493848906246
 31
0.0
  0
LINE
  5
113
100
AcDbEntity
  8
0
  6
CONTINUOUS
 62
               7
100
AcDbLine
 10
34.620607155617002
 20
-70.803656906819214
 30
0.0
 11
36.600506144817025
 21
-68.82375791761811
 31
0.0
  0
ARC
  5
114
100
AcDbEntity
  8
0
  6
CONTINUOUS
 62
               7
100
AcDbCircle
 10
36.000000000009045
 20
-67.585786431341063
 30
0.0
 40
1.0
100
AcDbArc
 50
315.00000000001398
 51
0.0000000000144524
  0
ARC
  5
115
100
AcDbEntity
  8
0
  6
CONTINUOUS
 62
               7
100
AcDbCircle
 10
33.58578643135224
 20
-69.999999999999062
 30
0.0
 40
1.0
100
AcDbArc
 50
270.00000000001387
 51
315.00000052756724
  0
ARC
  5
116
100
AcDbEntity
  8
0
  6
CONTINUOUS
 62
               7
100
AcDbCircle
 10
36.500432867773959
 20
-70.500432867762669
 30
0.0
 40
0.499567319772501
100
AcDbArc
 50
269.9503540401912
 51
0.0496459598379113
  0
LINE
  5
117
100
AcDbEntity
  8
0
  6
CONTINUOUS
 62
               7
100
AcDbLine
 10
0.5000000000088205
 20
-71.000000000007418
 30
0.0
 11
36.500000000009784
 21
-70.999999999998323
 31
0.0
  0
LINE
  5
118
100
AcDbEntity
  8
0
  6
CONTINUOUS
 62
               7
100
AcDbLine
 10
-0.0000000000011839
 20
-66.000000000004633
 30
0.0
 11
36.999999999999154
 21
-66.000000000001108
 31
0.0
  0
LINE
  5
119
100
AcDbEntity
  8
0
  6
CONTINUOUS
 62
               7
100
AcDbLine
 10
36.899999995464505
 20
18.499999994243524
 30
0.0
 11
36.899999995464349
 21
23.999999999996561
 31
0.0
  0
LINE
  5
11A
100
AcDbEntity
  8
0
  6
CONTINUOUS
 62
               4
100
AcDbLine
 10
36.899999995463311
 20
62.099999999996896
 30
0.0
 11
35.799999999993993
 21
62.09999999999684
 31
0.0
  0
LINE
  5
11B
100
AcDbEntity
  8
0
  6
CONTINUOUS
 62
               4
100
AcDbLine
 10
36.899999995463425
 20
58.899999999996908
 30
0.0
 11
35.799999999994562
 21
58.899999999996851
 31
0.0
  0
LINE
  5
11C
100
AcDbEntity
  8
0
  6
CONTINUOUS
 62
               4
100
AcDbLine
 10
35.799999999994277
 20
63.999999999994884
 30
0.0
 11
36.3999999999943
 21
63.999999999994941
 31
0.0
  0
ARC
  5
11D
100
AcDbEntity
  8
0
  6
CONTINUOUS
 62
               4
100
AcDbCircle
 10
36.3999999999943
 20
63.499999999994941
 30
0.0
 40
0.5
100
AcDbArc
 50
0.0000000000006361
 51
90.000000000000441
  0
LINE
  5
11E
100
AcDbEntity
  8
0
  6
CONTINUOUS
 62
               7
100
AcDbLine
 10
32.899999999994925
 20
23.799999999994554
 30
0.0
 11
35.799999999997461
 21
23.799999999994668
 31
0.0
  0
ARC
  5
11F
100
AcDbEntity
  8
0
  6
CONTINUOUS
 62
               7
100
AcDbCircle
 10
34.399999999995096
 20
13.9999999999946
 30
0.0
 40
2.0
100
AcDbArc
 50
180.00000000000196
 51
0.0000000000015267
  0
LINE
  5
120
100
AcDbEntity
  8
0
  6
CONTINUOUS
 62
               7
100
AcDbLine
 10
36.399999999995096
 20
13.999999994243467
 30
0.0
 11
36.399999999994982
 21
17.999999994243467
 31
0.0
  0
ARC
  5
121
100
AcDbEntity
  8
0
  6
CONTINUOUS
 62
               7
100
AcDbCircle
 10
36.399999999994982
 20
18.499999999994316
 30
0.0
 40
0.5
100
AcDbArc
 50
270.00000000000091
 51
0.0000000000015267
  0
ARC
  5
122
100
AcDbEntity
  8
0
  6
CONTINUOUS
 62
               7
100
AcDbCircle
 10
32.899999999994925
 20
23.299999999994554
 30
0.0
 40
0.5
100
AcDbArc
 50
90.00000000000135
 51
180.00000000000114
  0
LINE
  5
123
100
AcDbEntity
  8
0
  6
CONTINUOUS
 62
               4
100
AcDbLine
 10
36.999999995463277
 20
50.599999999994907
 30
0.0
 11
36.99999999546322
 21
57.3999999954641
 31
0.0
  0
LINE
  5
124
100
AcDbEntity
  8
0
  6
CONTINUOUS
 62
               4
100
AcDbLine
 10
36.899999990932436
 20
57.499999999994884
 30
0.0
 11
36.99999999546322
 21
57.3999999954641
 31
0.0
  0
LINE
  5
125
100
AcDbEntity
  8
0
  6
CONTINUOUS
 62
               4
100
AcDbLine
 10
36.999999995463277
 20
50.599999999994907
 30
0.0
 11
36.899999995463254
 21
50.499999999994884
 31
0.0
  0
LINE
  5
126
100
AcDbEntity
  8
0
  6
CONTINUOUS
 62
               4
100
AcDbLine
 10
4.9999999999969971
 20
32.200000009388134
 30
0.0
 11
4.9999999999969971
 21
31.9999999999946
 31
0.0
  0
LINE
  5
127
100
AcDbEntity
  8
0
  6
CONTINUOUS
 62
               4
100
AcDbLine
 10
-6.1000000000049583
 20
38.065826257575509
 30
0.0
 11
-6.1000000000058678
 21
59.999999973394154
 31
0.0
  0
ARC
  5
128
100
AcDbEntity
  8
0
  6
CONTINUOUS
 62
               4
100
AcDbCircle
 10
7.1000000000003167
 20
32.700000009388134
 30
0.0
 40
0.5
100
AcDbArc
 50
270.00000000000267
 51
0.0000000000025444
  0
ARC
  5
129
100
AcDbEntity
  8
0
  6
CONTINUOUS
 62
               4
100
AcDbCircle
 10
7.0999999999996346
 20
35.4999999999946
 30
0.0
 40
0.5
100
AcDbArc
 50
0.000000000002519
 51
90.000000000002316
  0
LINE
  5
12A
100
AcDbEntity
  8
0
  6
CONTINUOUS
 62
               4
100
AcDbLine
 10
7.6000000000003167
 20
32.700000009388248
 30
0.0
 11
7.5999999999996346
 21
35.499999999994714
 31
0.0
  0
LINE
  5
12B
100
AcDbEntity
  8
0
  6
CONTINUOUS
 62
               4
100
AcDbLine
 10
1.4999999999988161
 20
35.999999999994373
 30
0.0
 11
1.4999999999988161
 21
36.999999999994373
 31
0.0
  0
LINE
  5
12C
100
AcDbEntity
  8
0
  6
CONTINUOUS
 62
               4
100
AcDbLine
 10
0.4999999999988161
 20
35.999999999994373
 30
0.0
 11
0.4999999999988161
 21
36.999999999994373
 31
0.0
  0
LINE
  5
12D
100
AcDbEntity
  8
0
  6
CONTINUOUS
 62
               4
100
AcDbLine
 10
-4.9124889263674065
 20
35.999999999994088
 30
0.0
 11
7.0999999999996346
 21
35.9999999999946
 31
0.0
  0
LINE
  5
12E
100
AcDbEntity
  8
0
  6
CONTINUOUS
 62
               4
100
AcDbLine
 10
-3.7785677023364785
 20
32.200000009387907
 30
0.0
 11
7.1000000000003167
 21
32.200000009388134
 31
0.0
  0
ARC
  5
12F
100
AcDbEntity
  8
0
  6
CONTINUOUS
 62
               4
100
AcDbCircle
 10
7.4000000000090251
 20
37.499999999994657
 30
0.0
 40
0.5
100
AcDbArc
 50
270.00000000000193
 51
0.0000000000081422
  0
LINE
  5
130
100
AcDbEntity
  8
0
  6
CONTINUOUS
 62
               4
100
AcDbLine
 10
-5.8320508052193434
 20
36.999999999994031
 30
0.0
 11
7.4000000000091388
 21
36.999999999994657
 31
0.0
  0
LINE
  5
131
100
AcDbEntity
  8
0
  6
CONTINUOUS
 62
               4
100
AcDbLine
 10
-5.1000000012903017
 20
60.999999982169982
 30
0.0
 11
3.3999999987096983
 21
60.999999982169982
 31
0.0
  0
ARC
  5
132
100
AcDbEntity
  8
0
  6
CONTINUOUS
 62
               4
100
AcDbCircle
 10
-5.1000000000058678
 20
59.999999982169982
 30
0.0
 40
1.0
100
AcDbArc
 50
89.999999999999815
 51
179.99999999999963
  0
LINE
  5
133
100
AcDbEntity
  8
0
  6
CONTINUOUS
 62
               4
100
AcDbLine
 10
4.89999999999345
 20
63.9999999999946
 30
0.0
 11
7.8999999999941322
 21
63.999999999994628
 31
0.0
  0
ARC
  5
134
100
AcDbEntity
  8
0
  6
CONTINUOUS
 62
               4
100
AcDbCircle
 10
4.89999999999345
 20
62.9999999999946
 30
0.0
 40
1.0
100
AcDbArc
 50
89.999999999999815
 51
179.99999999999963
  0
ARC
  5
135
100
AcDbEntity
  8
0
  6
CONTINUOUS
 62
               4
100
AcDbCircle
 10
3.39999999999345
 20
61.499999982169982
 30
0.0
 40
0.5
100
AcDbArc
 50
269.99999999999937
 51
0.0
  0
LINE
  5
136
100
AcDbEntity
  8
0
  6
CONTINUOUS
 62
               4
100
AcDbLine
 10
3.89999999999345
 20
62.9999999999946
 30
0.0
 11
3.89999999999345
 21
61.499999982169982
 31
0.0
  0
LINE
  5
137
100
AcDbEntity
  8
0
  6
CONTINUOUS
 62
               4
100
AcDbLine
 10
-4.7444935236427925
 20
32.941180969009451
 30
0.0
 11
-6.0829629131495055
 21
37.936416735024238
 31
0.0
  0
ARC
  5
138
100
AcDbEntity
  8
0
  6
CONTINUOUS
 62
               4
100
AcDbCircle
 10
-3.7785677023372743
 20
33.200000009390465
 30
0.0
 40
1.0
100
AcDbArc
 50
194.99999981259796
 51
269.99999999999937
  0
ARC
  5
139
100
AcDbEntity
  8
0
  6
CONTINUOUS
 62
               4
100
AcDbCircle
 10
6.9000000000093662
 20
37.299999999994611
 30
0.0
 40
1.0
100
AcDbArc
 50
197.45760312372443
 51
0.0000000000081422
  0
ARC
  5
13A
100
AcDbEntity
  8
0
  6
CONTINUOUS
 62
               4
100
AcDbCircle
 10
-4.9124889263674065
 20
35.499999999994088
 30
0.0
 40
0.5
100
AcDbArc
 50
89.999999999999815
 51
194.99999999999952
  0
ARC
  5
13B
100
AcDbEntity
  8
0
  6
CONTINUOUS
 62
               4
100
AcDbCircle
 10
-5.6000000000049583
 20
38.065826257575566
 30
0.0
 40
0.5
100
AcDbArc
 50
179.99999999999963
 51
194.99999999999918
  0
LINE
  5
13C
100
AcDbEntity
  8
0
  6
CONTINUOUS
 62
               4
100
AcDbLine
 10
0.7499999999971108
 20
30.499999999993577
 30
0.0
 11
5.2499999999971108
 21
30.499999999993179
 31
0.0
  0
ARC
  5
13D
100
AcDbEntity
  8
0
  6
CONTINUOUS
 62
               4
100
AcDbCircle
 10
36.399999999994414
 20
59.49999999999693
 30
0.0
 40
0.5
100
AcDbArc
 50
270.00000000000125
 51
0.000000000001832
  0
ARC
  5
13E
100
AcDbEntity
  8
0
  6
CONTINUOUS
 62
               4
100
AcDbCircle
 10
36.399999999994357
 20
61.49999999999693
 30
0.0
 40
0.5
100
AcDbArc
 50
0.0000000000018066
 51
90.000000000001606
  0
LINE
  5
13F
100
AcDbEntity
  8
0
  6
CONTINUOUS
 62
               4
100
AcDbLine
 10
35.799999999994391
 20
61.99999998575754
 30
0.0
 11
35.799999999994277
 21
63.999999985757484
 31
0.0
  0
LINE
  5
140
100
AcDbEntity
  8
0
  6
CONTINUOUS
 62
               4
100
AcDbLine
 10
35.799999999994391
 20
61.999999999996874
 30
0.0
 11
36.3999999999943
 21
61.99999999999693
 31
0.0
  0
LINE
  5
141
100
AcDbEntity
  8
0
  6
CONTINUOUS
 62
               4
100
AcDbLine
 10
35.799999999994505
 20
58.999999999996874
 30
0.0
 11
36.399999999994584
 21
58.99999999999693
 31
0.0
  0
LINE
  5
142
100
AcDbEntity
  8
0
  6
CONTINUOUS
 62
               4
100
AcDbLine
 10
3.1000000000041821
 20
35.999999999994429
 30
0.0
 11
3.6535533905909672
 21
36.553553390581214
 31
0.0
  0
LINE
  5
143
100
AcDbEntity
  8
0
  6
CONTINUOUS
 62
               4
100
AcDbLine
 10
5.799999999997179
 20
36.199999991708353
 30
0.0
 11
5.799999999997179
 21
36.699999999988222
 31
0.0
  0
LINE
  5
144
100
AcDbEntity
  8
0
  6
CONTINUOUS
 62
               4
100
AcDbLine
 10
4.0071067811840733
 20
36.699999999987938
 30
0.0
 11
5.799999999997179
 21
36.699999999988222
 31
0.0
  0
LINE
  5
145
100
AcDbEntity
  8
0
  6
CONTINUOUS
 62
               4
100
AcDbLine
 10
5.799999999997179
 20
36.199999999988222
 30
0.0
 11
7.8999999999972017
 21
36.199999999988506
 31
0.0
  0
LINE
  5
146
100
AcDbEntity
  8
0
  6
CONTINUOUS
 62
               4
100
AcDbLine
 10
7.8999999999984523
 20
31.999999999994714
 30
0.0
 11
7.8999999999941322
 21
63.999999999994657
 31
0.0
  0
LINE
  5
147
100
AcDbEntity
  8
0
  6
CONTINUOUS
 62
               4
100
AcDbLine
 10
7.8999999999948143
 20
58.099999998895157
 30
0.0
 11
7.7999999999949052
 21
58.099999998895157
 31
0.0
  0
LINE
  5
148
100
AcDbEntity
  8
0
  6
CONTINUOUS
 62
               7
100
AcDbLine
 10
-0.0000000000023208
 20
23.999999999994259
 30
0.0
 11
35.799999999997631
 21
23.999999999996476
 31
0.0
  0
LINE
  5
149
100
AcDbEntity
  8
0
  6
CONTINUOUS
 62
               4
100
AcDbLine
 10
-0.0000000000030029
 20
23.999999999993918
 30
0.0
 11
-0.0000000000027756
 21
29.299999999993645
 31
0.0
  0
LINE
  5
14A
100
AcDbEntity
  8
0
  6
CONTINUOUS
 62
               4
100
AcDbLine
 10
0.7499999999972244
 20
31.193745613091494
 30
0.0
 11
0.7499999999971108
 21
29.799999999993361
 31
0.0
  0
LINE
  5
14B
100
AcDbEntity
  8
0
  6
CONTINUOUS
 62
               4
100
AcDbLine
 10
5.2499999999972244
 20
31.193745613091096
 30
0.0
 11
5.2499999999971108
 21
29.799999999992963
 31
0.0
  0
ARC
  5
14C
100
AcDbEntity
  8
0
  6
CONTINUOUS
 62
               4
100
AcDbCircle
 10
2.9999999999967697
 20
26.199999809258316
 30
0.0
 40
6.0
100
AcDbArc
 50
73.80871737482147
 51
106.19135456952553
  0
ARC
  5
14D
100
AcDbEntity
  8
0
  6
CONTINUOUS
 62
               4
100
AcDbCircle
 10
1.5500001907320877
 20
31.193745613091437
 30
0.0
 40
0.800000011920929
100
AcDbArc
 50
106.19135456952553
 51
180.00001798608395
  0
ARC
  5
14E
100
AcDbEntity
  8
0
  6
CONTINUOUS
 62
               4
100
AcDbCircle
 10
4.4499998092623612
 20
31.19374561309121
 30
0.0
 40
0.800000011920929
100
AcDbArc
 50
359.99998201390565
 51
73.808645430464111
  0
LINE
  5
14F
100
AcDbEntity
  8
0
  6
CONTINUOUS
 62
               4
100
AcDbLine
 10
1.9999999999977929
 20
32.116079592358062
 30
0.0
 11
1.9999999999977929
 21
32.20000000938802
 31
0.0
  0
LINE
  5
150
100
AcDbEntity
  8
0
  6
CONTINUOUS
 62
               4
100
AcDbLine
 10
0.4999999999972244
 20
29.799999999993588
 30
0.0
 11
5.799999999997179
 21
29.799999999993133
 31
0.0
  0
ARC
  5
151
100
AcDbEntity
  8
0
  6
CONTINUOUS
 62
               4
100
AcDbCircle
 10
4.0071067811848691
 20
36.199999999987142
 30
0.0
 40
0.5
100
AcDbArc
 50
89.999999999994813
 51
134.9999999999944
  0
LINE
  5
152
100
AcDbEntity
  8
0
  6
CONTINUOUS
 62
               4
100
AcDbLine
 10
4.9999999999974518
 20
36.699999999987199
 30
0.0
 11
4.9999999999974518
 21
35.999999999994543
 31
0.0
  0
ARC
  5
153
100
AcDbEntity
  8
0
  6
CONTINUOUS
 62
               4
100
AcDbCircle
 10
0.4999999999972244
 20
29.299999999993588
 30
0.0
 40
0.5
100
AcDbArc
 50
89.999999999999815
 51
179.99999999999963
  0
LINE
  5
154
100
AcDbEntity
  8
0
  6
CONTINUOUS
 62
               4
100
AcDbLine
 10
5.799999999997179
 20
29.799999999993133
 30
0.0
 11
5.7999999999972927
 21
31.499999999994031
 31
0.0
  0
ARC
  5
155
100
AcDbEntity
  8
0
  6
CONTINUOUS
 62
               4
100
AcDbCircle
 10
6.2999999999972927
 20
31.499999999993975
 30
0.0
 40
0.5
100
AcDbArc
 50
89.999999999999815
 51
179.99999999999963
  0
LINE
  5
156
100
AcDbEntity
  8
0
  6
CONTINUOUS
 62
               4
100
AcDbLine
 10
4.5362284294519197
 20
31.999999999993975
 30
0.0
 11
7.8999999999986796
 21
31.999999999993975
 31
0.0
  0
LINE
  5
157
100
AcDbEntity
  8
0
  6
CONTINUOUS
 62
               7
100
AcDbLine
 10
36.999999999998018
 20
17.999999999998863
 30
0.0
 11
37.000000000009216
 21
-70.499999999998209
 31
0.0
  0
LINE
  5
158
100
AcDbEntity
  8
0
  6
CONTINUOUS
 62
               7
100
AcDbLine
 10
-0.0000000000011839
 20
8.9999999999953388
 30
0.0
 11
36.999999999999154
 21
8.9999999999988631
 31
0.0
  0
LINE
  5
159
100
AcDbEntity
  8
0
  6
CONTINUOUS
 62
               7
100
AcDbLine
 10
0.0000000000088205
 20
-70.500000000007475
 30
0.0
 11
-0.0000000000030029
 21
23.999999999994259
 31
0.0
  0
LINE
  5
15A
100
AcDbEntity
  8
0
  6
CONTINUOUS
 62
               7
100
AcDbLine
 10
36.999999999998018
 20
17.999999999998863
 30
0.0
 11
35.799999999997944
 21
17.999999999998735
 31
0.0
  0
LINE
  5
15B
100
AcDbEntity
  8
0
  6
CONTINUOUS
 62
               7
100
AcDbLine
 10
32.399999999997199
 20
23.999999999998295
 30
0.0
 11
32.399999999998563
 21
13.919155751113522
 31
0.0
  0
LINE
  5
15C
100
AcDbEntity
  8
0
  6
CONTINUOUS
 62
               7
100
AcDbLine
 10
36.999999999567258
 20
10.499999999998863
 30
0.0
 11
33.554763555093764
 21
12.106540143488303
 31
0.0
  0
ARC
  5
15D
100
AcDbEntity
  8
0
  6
CONTINUOUS
 62
               7
100
AcDbCircle
 10
34.399999999998563
 20
13.919155751113749
 30
0.0
 40
2.0
100
AcDbArc
 50
180.00000000000682
 51
245.00000149217658
  0
ARC
  5
15F
100
AcDbEntity
  8
0
  6
PHANTOM
 62
             200
100
AcDbCircle
 10
35.900000006130263
 20
41.399999999996282
 30
0.0
 40
9.4000000000000004
100
AcDbArc
 50
276.0724563429203
 51
1.2188752351314154
  0
LINE
  5
160
100
AcDbEntity
  8
0
  6
PHANTOM
 62
             200
100
AcDbLine
 10
37.500000006129945
 20
41.899999999996425
 30
0.0
 11
35.900000006130377
 21
41.899999999996282
 31
0.0
  0
LINE
  5
161
100
AcDbEntity
  8
0
  6
PHANTOM
 62
             200
100
AcDbLine
 10
37.500000006130058
 20
41.899999999996425
 30
0.0
 11
37.500000006130172
 21
40.899999999993184
 31
0.0
  0
LINE
  5
162
100
AcDbEntity
  8
0
  6
PHANTOM
 62
             200
100
AcDbLine
 10
44.800000006130581
 20
40.899999999993042
 30
0.0
 11
35.900000006130604
 21
40.899999999993128
 31
0.0
  0
LINE
  5
163
100
AcDbEntity
  8
0
  6
PHANTOM
 62
             200
100
AcDbLine
 10
44.300000006130581
 20
38.79999999999302
 30
0.0
 11
38.500000006130627
 21
38.799999999993048
 31
0.0
  0
LINE
  5
164
100
AcDbEntity
  8
0
  6
PHANTOM
 62
             200
100
AcDbLine
 10
44.800000006130809
 20
39.499999999993179
 30
0.0
 11
38.000000006130627
 21
39.499999999993065
 31
0.0
  0
LINE
  5
165
100
AcDbEntity
  8
0
  6
PHANTOM
 62
             200
100
AcDbLine
 10
44.800000006130695
 20
40.699999999992997
 30
0.0
 11
38.000000006130627
 21
40.699999999992997
 31
0.0
  0
LINE
  5
166
100
AcDbEntity
  8
0
  6
PHANTOM
 62
             200
100
AcDbLine
 10
38.600000006130536
 20
40.699999999993167
 30
0.0
 11
38.600000006130536
 21
39.499999999992951
 31
0.0
  0
LINE
  5
167
100
AcDbEntity
  8
0
  6
PHANTOM
 62
             200
100
AcDbLine
 10
38.000000006130627
 20
39.499999999993065
 30
0.0
 11
38.000000006130627
 21
39.29999999999302
 31
0.0
  0
LINE
  5
168
100
AcDbEntity
  8
0
  6
PHANTOM
 62
             200
100
AcDbLine
 10
38.000000006130513
 20
40.89999999546589
 30
0.0
 11
38.000000006130513
 21
40.700000013347335
 31
0.0
  0
LINE
  5
169
100
AcDbEntity
  8
0
  6
PHANTOM
 62
             200
100
AcDbLine
 10
44.250000006130854
 20
40.699999999993054
 30
0.0
 11
44.250000006130968
 21
39.499999999992895
 31
0.0
  0
LINE
  5
16A
100
AcDbEntity
  8
0
  6
PHANTOM
 62
             200
100
AcDbLine
 10
44.800000006130809
 20
39.499999999993179
 30
0.0
 11
44.800000006130581
 21
39.299999999992536
 31
0.0
  0
LINE
  5
16B
100
AcDbEntity
  8
0
  6
PHANTOM
 62
             200
100
AcDbLine
 10
44.800000006130468
 20
41.599999999996328
 30
0.0
 11
44.800000006130581
 21
40.700000013346852
 31
0.0
  0
LINE
  5
16C
100
AcDbEntity
  8
0
  6
PHANTOM
 62
             200
100
AcDbLine
 10
45.300000006131263
 20
42.099999999996356
 30
0.0
 11
45.300000006131377
 21
41.599999999996328
 31
0.0
  0
LINE
  5
16D
100
AcDbEntity
  8
0
  6
PHANTOM
 62
             200
100
AcDbLine
 10
45.000000006131309
 20
42.399999999996311
 30
0.0
 11
37.800000006130013
 21
42.399999999996311
 31
0.0
  0
ARC
  5
16E
100
AcDbEntity
  8
0
  6
PHANTOM
 62
             200
100
AcDbCircle
 10
37.800000006130013
 20
42.099999999996328
 30
0.0
 40
0.3
100
AcDbArc
 50
89.999999999999815
 51
179.99999999999963
  0
ARC
  5
16F
100
AcDbEntity
  8
0
  6
PHANTOM
 62
             200
100
AcDbCircle
 10
45.000000006131309
 20
42.099999999996328
 30
0.0
 40
0.3
100
AcDbArc
 50
0.0
 51
89.999999999999815
  0
LINE
  5
170
100
AcDbEntity
  8
0
  6
CENTER
 62
             200
100
AcDbLine
 10
41.400000006130718
 20
43.027574068767819
 30
0.0
 11
41.400000006130718
 21
37.721963881073663
 31
0.0
  0
ARC
  5
171
100
AcDbEntity
  8
0
  6
PHANTOM
 62
             200
100
AcDbCircle
 10
38.500000006130627
 20
39.299999999993048
 30
0.0
 40
0.5
100
AcDbArc
 50
179.99999999999963
 51
269.99999999999937
  0
ARC
  5
172
100
AcDbEntity
  8
0
  6
PHANTOM
 62
             200
100
AcDbCircle
 10
44.300000006130581
 20
39.29999999999302
 30
0.0
 40
0.5
100
AcDbArc
 50
269.99999999999937
 51
0.0
  0
LINE
  5
173
100
AcDbEntity
  8
0
  6
PHANTOM
 62
             200
100
AcDbLine
 10
45.300000006131377
 20
41.599999999996328
 30
0.0
 11
44.800000006130468
 21
41.599999999996328
 31
0.0
  0
LINE
  5
174
100
AcDbEntity
  8
0
  6
PHANTOM
 62
             200
100
AcDbLine
 10
37.500000006129945
 20
42.099999994224049
 30
0.0
 11
37.500000006129945
 21
41.900000006144978
 31
0.0
  0
LINE
  5
175
100
AcDbEntity
  8
0
  6
CONTINUOUS
 62
               7
100
AcDbLine
 10
0.0000000278134378
 20
-53.267949153683404
 30
0.0
 11
37.000000027813435
 21
-53.267949153683404
 31
0.0
  0
LINE
  5
176
100
AcDbEntity
  8
0
  6
CONTINUOUS
 62
               7
100
AcDbLine
 10
0.0000000278134378
 20
-54.999999989766692
 30
0.0
 11
37.000000027813435
 21
-54.999999989766692
 31
0.0
  0
LINE
  5
177
100
AcDbEntity
  8
0
  6
CONTINUOUS
 62
               7
100
AcDbLine
 10
0.0000000278134378
 20
-58.999999999996732
 30
0.0
 11
37.000000027813435
 21
-58.999999999996732
 31
0.0
  0
LINE
  5
178
100
AcDbEntity
  8
0
  6
CONTINUOUS
 62
               7
100
AcDbLine
 10
0.0000000278134378
 20
-60.732050880259727
 30
0.0
 11
37.000000027813435
 21
-60.732050880259727
 31
0.0
  0
LINE
  5
179
100
AcDbEntity
  8
0
  6
CONTINUOUS
 62
               7
100
AcDbLine
 10
35.799999999997446
 20
23.999999999996476
 30
0.0
 11
35.799999999997446
 21
17.999999999998735
 31
0.0
  0
LINE
  5
17A
100
AcDbEntity
  8
0
  6
CONTINUOUS
 62
               4
100
AcDbLine
 10
36.899999995464349
 20
23.999999999996561
 30
0.0
 11
36.899999995463197
 21
63.499999999994941
 31
0.0
  0
LINE
  5
17B
100
AcDbEntity
  8
0
  6
CONTINUOUS
 62
               4
100
AcDbLine
 10
7.8999999999941322
 20
63.999999999994628
 30
0.0
 11
35.799999999994277
 21
63.999999999994884
 31
0.0
  0
ENDBLK
  5
17C
100
AcDbEntity
  8
0
100
AcDbBlockEnd
  0
BLOCK
  5
17D
100
AcDbEntity
  8
0
100
AcDbBlockBegin
  2
PA24F6-4
 70
               0
 10
0.0
 20
0.0
 30
0.0
  3
PA24F6-4
  1

  0
LINE
  5
17E
100
AcDbEntity
  8
0
  6
CENTER
 62
               2
100
AcDbLine
 10
18.599999999998857
 20
2.3542238476070239
 30
0.0
 11
18.599999999999028
 21
9.9779248737191963
 31
0.0
  0
LINE
  5
17F
100
AcDbEntity
  8
0
  6
CENTER
 62
               2
100
AcDbLine
 10
-0.0000000000000711
 20
2.3542238476074075
 30
0.0
 11
0.0000000000000711
 21
9.9779248737195587
 31
0.0
  0
LINE
  5
180
100
AcDbEntity
  8
0
  6
CENTER
 62
               2
100
AcDbLine
 10
9.2999999999986755
 20
43.850000000008663
 30
0.0
 11
9.2999999999983345
 21
-12.410609850993922
 31
0.0
  0
LINE
  5
181
100
AcDbEntity
  8
0
  6
CONTINUOUS
 62
               2
100
AcDbLine
 10
7.3999999999987978
 20
-3.5508726088640401
 30
0.0
 11
4.1999999999987523
 21
-4.4108726088639401
 31
0.0
  0
LINE
  5
182
100
AcDbEntity
  8
0
  6
CONTINUOUS
 62
               2
100
AcDbLine
 10
7.3999999999987978
 20
-4.5808726088640128
 30
0.0
 11
4.1999999999987523
 21
-5.4408726088639128
 31
0.0
  0
LINE
  5
183
100
AcDbEntity
  8
0
  6
CONTINUOUS
 62
               7
100
AcDbLine
 10
5.5499999999986613
 20
-11.500872608863972
 30
0.0
 11
6.0499999999986613
 21
-11.500872608863972
 31
0.0
  0
LINE
  5
184
100
AcDbEntity
  8
0
  6
CONTINUOUS
 62
               7
100
AcDbLine
 10
5.049999999998775
 20
-8.0008726088639719
 30
0.0
 11
6.549999999998775
 21
-8.0008726088639719
 31
0.0
  0
LINE
  5
185
100
AcDbEntity
  8
0
  6
CONTINUOUS
 62
               7
100
AcDbLine
 10
5.549999999998775
 20
-8.0008726088639719
 30
0.0
 11
5.5499999999986613
 21
-11.500872608863972
 31
0.0
  0
LINE
  5
186
100
AcDbEntity
  8
0
  6
CONTINUOUS
 62
               7
100
AcDbLine
 10
6.049999999998775
 20
-8.0008726088639719
 30
0.0
 11
6.0499999999986613
 21
-11.500872608863972
 31
0.0
  0
LINE
  5
187
100
AcDbEntity
  8
0
  6
CONTINUOUS
 62
               7
100
AcDbLine
 10
6.549999999998775
 20
-4.8408726088640037
 30
0.0
 11
6.549999999998775
 21
-8.0008726088639719
 31
0.0
  0
LINE
  5
188
100
AcDbEntity
  8
0
  6
CONTINUOUS
 62
               7
100
AcDbLine
 10
5.049999999998775
 20
-5.2124351088639855
 30
0.0
 11
5.049999999998775
 21
-8.0008726088639719
 31
0.0
  0
LINE
  5
189
100
AcDbEntity
  8
0
  6
CONTINUOUS
 62
               7
100
AcDbLine
 10
6.549999999998775
 20
-0.9999999999960778
 30
0.0
 11
6.549999999998775
 21
-3.7793101088639673
 31
0.0
  0
LINE
  5
18A
100
AcDbEntity
  8
0
  6
CONTINUOUS
 62
               7
100
AcDbLine
 10
5.049999999998775
 20
-0.9999999999959641
 30
0.0
 11
5.049999999998775
 21
-4.1824351088640128
 31
0.0
  0
LINE
  5
18B
100
AcDbEntity
  8
0
  6
CONTINUOUS
 62
               7
100
AcDbLine
 10
12.049999999998775
 20
-5.2124351088639855
 30
0.0
 11
12.049999999998775
 21
-8.0008726088639719
 31
0.0
  0
LINE
  5
18C
100
AcDbEntity
  8
0
  6
CONTINUOUS
 62
               7
100
AcDbLine
 10
13.549999999998775
 20
-4.8408726088640037
 30
0.0
 11
13.549999999998775
 21
-8.0008726088639719
 31
0.0
  0
LINE
  5
18D
100
AcDbEntity
  8
0
  6
CONTINUOUS
 62
               7
100
AcDbLine
 10
13.049999999998775
 20
-8.0008726088639719
 30
0.0
 11
13.049999999998661
 21
-11.500872608863972
 31
0.0
  0
LINE
  5
18E
100
AcDbEntity
  8
0
  6
CONTINUOUS
 62
               7
100
AcDbLine
 10
12.549999999998775
 20
-8.0008726088639719
 30
0.0
 11
12.549999999998661
 21
-11.500872608863972
 31
0.0
  0
LINE
  5
18F
100
AcDbEntity
  8
0
  6
CONTINUOUS
 62
               7
100
AcDbLine
 10
12.049999999998775
 20
-8.0008726088639719
 30
0.0
 11
13.549999999998775
 21
-8.0008726088639719
 31
0.0
  0
LINE
  5
190
100
AcDbEntity
  8
0
  6
CONTINUOUS
 62
               7
100
AcDbLine
 10
12.549999999998661
 20
-11.500872608863972
 30
0.0
 11
13.049999999998661
 21
-11.500872608863972
 31
0.0
  0
LINE
  5
191
100
AcDbEntity
  8
0
  6
CONTINUOUS
 62
               2
100
AcDbLine
 10
14.399999999998798
 20
-4.5808726088640128
 30
0.0
 11
11.199999999998752
 21
-5.4408726088639128
 31
0.0
  0
LINE
  5
192
100
AcDbEntity
  8
0
  6
CONTINUOUS
 62
               2
100
AcDbLine
 10
14.399999999998798
 20
-3.5508726088640401
 30
0.0
 11
11.199999999998752
 21
-4.4108726088639401
 31
0.0
  0
LINE
  5
193
100
AcDbEntity
  8
0
  6
CONTINUOUS
 62
               7
100
AcDbLine
 10
13.549999999998775
 20
-0.9999999999960778
 30
0.0
 11
13.549999999998775
 21
-3.7793101088639673
 31
0.0
  0
LINE
  5
194
100
AcDbEntity
  8
0
  6
CONTINUOUS
 62
               7
100
AcDbLine
 10
12.049999999998775
 20
-0.9999999999959641
 30
0.0
 11
12.049999999998775
 21
-4.1824351088640128
 31
0.0
  0
ARC
  5
195
100
AcDbEntity
  8
0
  6
CONTINUOUS
 62
               7
100
AcDbCircle
 10
14.499999999998664
 20
-0.6999999999960664
 30
0.0
 40
0.3
100
AcDbArc
 50
269.99999999999937
 51
0.0
  0
ARC
  5
196
100
AcDbEntity
  8
0
  6
CONTINUOUS
 62
               7
100
AcDbCircle
 10
4.0999999999986301
 20
-0.6999999999960664
 30
0.0
 40
0.3
100
AcDbArc
 50
179.99999999999963
 51
269.99999999999937
  0
LINE
  5
197
100
AcDbEntity
  8
0
  6
CONTINUOUS
 62
               7
100
AcDbLine
 10
3.7999999999986755
 20
-0.0000000000006821
 30
0.0
 11
3.7999999999986755
 21
-0.6999999999960664
 31
0.0
  0
LINE
  5
198
100
AcDbEntity
  8
0
  6
CONTINUOUS
 62
               7
100
AcDbLine
 10
14.799999999998676
 20
-0.0000000000026716
 30
0.0
 11
14.799999999998676
 21
-0.6999999999960664
 31
0.0
  0
LINE
  5
199
100
AcDbEntity
  8
0
  6
CONTINUOUS
 62
               7
100
AcDbLine
 10
14.499999979230296
 20
-0.9999999999960778
 30
0.0
 11
4.1000000030721537
 21
-0.9999999999960778
 31
0.0
  0
ARC
  5
19A
100
AcDbEntity
  8
0
  6
CONTINUOUS
 62
               7
100
AcDbCircle
 10
12.599999999999483
 20
2.4999999999976694
 30
0.0
 40
0.5
100
AcDbArc
 50
269.99999999999937
 51
0.0
  0
ARC
  5
19B
100
AcDbEntity
  8
0
  6
CONTINUOUS
 62
               7
100
AcDbCircle
 10
5.99999999999838
 20
2.4999999999989768
 30
0.0
 40
0.5
100
AcDbArc
 50
179.99999999999963
 51
269.99999999999937
  0
LINE
  5
19C
100
AcDbEntity
  8
0
  6
CONTINUOUS
 62
               7
100
AcDbLine
 10
12.599999999999426
 20
1.9999999999976694
 30
0.0
 11
5.9999999999983231
 21
1.9999999999989768
 31
0.0
  0
LINE
  5
19D
100
AcDbEntity
  8
0
  6
CONTINUOUS
 62
               7
100
AcDbLine
 10
14.599999999999483
 20
1.5499999999933607
 30
0.0
 11
3.9999999999982094
 21
1.5499999999942702
 31
0.0
  0
ARC
  5
19E
100
AcDbEntity
  8
0
  6
CONTINUOUS
 62
               7
100
AcDbCircle
 10
5.9999999999985505
 20
5.299999999993986
 30
0.0
 40
0.5
100
AcDbArc
 50
89.999999999999815
 51
179.99999999999963
  0
ARC
  5
19F
100
AcDbEntity
  8
0
  6
CONTINUOUS
 62
               7
100
AcDbCircle
 10
12.599999999999483
 20
5.2999999999935312
 30
0.0
 40
0.5
100
AcDbArc
 50
0.0
 51
89.999999999999815
  0
LINE
  5
1A0
100
AcDbEntity
  8
0
  6
CONTINUOUS
 62
               7
100
AcDbLine
 10
13.099999999999483
 20
2.4999999999976694
 30
0.0
 11
13.099999999999483
 21
5.2999999999935312
 31
0.0
  0
LINE
  5
1A1
100
AcDbEntity
  8
0
  6
CONTINUOUS
 62
               7
100
AcDbLine
 10
5.49999999999838
 20
2.4999999999990337
 30
0.0
 11
5.4999999999985505
 21
5.2999999999940428
 31
0.0
  0
LINE
  5
1A2
100
AcDbEntity
  8
0
  6
CONTINUOUS
 62
               7
100
AcDbLine
 10
12.59999999999954
 20
5.7999999999935312
 30
0.0
 11
5.9999999999986073
 21
5.799999999993986
 31
0.0
  0
ARC
  5
1A3
100
AcDbEntity
  8
0
  6
CONTINUOUS
 62
               7
100
AcDbCircle
 10
0.9999999999982663
 20
1.9999999999982947
 30
0.0
 40
0.5
100
AcDbArc
 50
179.99999999999125
 51
269.99999999999108
  0
LINE
  5
1A4
100
AcDbEntity
  8
0
  6
CONTINUOUS
 62
               7
100
AcDbLine
 10
0.4999999999982663
 20
1.9999999999983515
 30
0.0
 11
0.4999999999988347
 21
6.1000000000086629
 31
0.0
  0
LINE
  5
1A5
100
AcDbEntity
  8
0
  6
CONTINUOUS
 62
               7
100
AcDbLine
 10
3.9999999999979252
 20
-0.0000000000005684
 30
0.0
 11
3.9999999999988916
 21
6.1000000000086629
 31
0.0
  0
LINE
  5
1A6
100
AcDbEntity
  8
0
  6
CONTINUOUS
 62
               7
100
AcDbLine
 10
14.599999999999483
 20
-0.0000000000027853
 30
0.0
 11
14.599999999999483
 21
6.1000000000086629
 31
0.0
  0
LINE
  5
1A7
100
AcDbEntity
  8
0
  6
CONTINUOUS
 62
               7
100
AcDbLine
 10
16.09999999999954
 20
1.9999999999970441
 30
0.0
 11
16.099999999999483
 21
6.1000000000086629
 31
0.0
  0
LINE
  5
1A8
100
AcDbEntity
  8
0
  6
CONTINUOUS
 62
               7
100
AcDbLine
 10
17.599999999999199
 20
1.4999999999968736
 30
0.0
 11
16.59999999999954
 21
1.4999999999969873
 31
0.0
  0
LINE
  5
1A9
100
AcDbEntity
  8
0
  6
CONTINUOUS
 62
               7
100
AcDbLine
 10
21.200000000001779
 20
42.10000000000872
 30
0.0
 11
21.199999999998425
 21
0.4999999999963052
 31
0.0
  0
LINE
  5
1AA
100
AcDbEntity
  8
0
  6
CONTINUOUS
 62
               7
100
AcDbLine
 10
20.699999999998369
 20
-0.0000000000036948
 30
0.0
 11
-1.6000000002998434
 21
0.0000000000002842
 31
0.0
  0
ARC
  5
1AB
100
AcDbEntity
  8
0
  6
CONTINUOUS
 62
               7
100
AcDbCircle
 10
-1.6000000000014154
 20
1.0000000000002842
 30
0.0
 40
1.0
100
AcDbArc
 50
179.99999999998943
 51
269.9999999999892
  0
LINE
  5
1AC
100
AcDbEntity
  8
0
  6
CONTINUOUS
 62
               7
100
AcDbLine
 10
-2.5999999999981753
 20
42.100000000008777
 30
0.0
 11
-2.6000000000014154
 21
1.0000000000003979
 31
0.0
  0
ARC
  5
1AD
100
AcDbEntity
  8
0
  6
CONTINUOUS
 62
               7
100
AcDbCircle
 10
20.699999999998425
 20
0.4999999999964189
 30
0.0
 40
0.5
100
AcDbArc
 50
269.99999999999937
 51
0.0
  0
LINE
  5
1AE
100
AcDbEntity
  8
0
  6
CONTINUOUS
 62
               7
100
AcDbLine
 10
18.099999999999312
 20
1.9999999999968168
 30
0.0
 11
18.099999999999426
 21
6.1000000000086629
 31
0.0
  0
ARC
  5
1AF
100
AcDbEntity
  8
0
  6
CONTINUOUS
 62
               7
100
AcDbCircle
 10
17.599999999999312
 20
1.9999999999968736
 30
0.0
 40
0.5
100
AcDbArc
 50
270.00000000000171
 51
0.0000000000014758
  0
LINE
  5
1B0
100
AcDbEntity
  8
0
  6
CONTINUOUS
 62
               7
100
AcDbLine
 10
2.4999999999981526
 20
1.9999999999982379
 30
0.0
 11
2.4999999999988347
 21
6.1000000000086629
 31
0.0
  0
LINE
  5
1B1
100
AcDbEntity
  8
0
  6
CONTINUOUS
 62
               7
100
AcDbLine
 10
0.99999999999838
 20
1.4999999999982947
 30
0.0
 11
1.9999999999979821
 21
1.4999999999982379
 31
0.0
  0
LINE
  5
1B2
100
AcDbEntity
  8
0
  6
CONTINUOUS
 62
               7
100
AcDbLine
 10
16.09999999999954
 20
1.9999999999970441
 30
0.0
 11
16.59999999999954
 21
1.4999999999969873
 31
0.0
  0
LINE
  5
1B3
100
AcDbEntity
  8
0
  6
CONTINUOUS
 62
               7
100
AcDbLine
 10
2.4999999999981526
 20
1.9999999999982379
 30
0.0
 11
1.9999999999979821
 21
1.4999999999982379
 31
0.0
  0
LINE
  5
1B4
100
AcDbEntity
  8
0
  6
CONTINUOUS
 62
               7
100
AcDbLine
 10
10.899999999999153
 20
6.1000000000086629
 30
0.0
 11
10.899999999999153
 21
5.7999999999936449
 31
0.0
  0
LINE
  5
1B5
100
AcDbEntity
  8
0
  6
CONTINUOUS
 62
               7
100
AcDbLine
 10
7.6999999999991644
 20
6.1000000000086629
 30
0.0
 11
7.6999999999991644
 21
5.7999999999938723
 31
0.0
  0
CIRCLE
  5
1B6
100
AcDbEntity
  8
0
  6
CONTINUOUS
 62
               7
100
AcDbCircle
 10
9.2999999999986755
 20
10.350000000008663
 30
0.0
 40
4.0
  0
CIRCLE
  5
1B7
100
AcDbEntity
  8
0
  6
CONTINUOUS
 62
               7
100
AcDbCircle
 10
9.2999999999986755
 20
38.850000000008663
 30
0.0
 40
4.0
  0
LINE
  5
1B8
100
AcDbEntity
  8
0
  6
CONTINUOUS
 62
               7
100
AcDbLine
 10
7.6029438808835437
 20
37.152944023944769
 30
0.0
 11
10.997056793463429
 21
40.547056650422292
 31
0.0
  0
LINE
  5
1B9
100
AcDbEntity
  8
0
  6
CONTINUOUS
 62
               7
100
AcDbLine
 10
10.997055871754554
 20
37.152943776585403
 30
0.0
 11
7.6029432452769186
 21
40.547056689165345
 31
0.0
  0
LINE
  5
1BA
100
AcDbEntity
  8
0
  6
CONTINUOUS
 62
               7
100
AcDbLine
 10
7.6029438808835437
 20
12.047055976072784
 30
0.0
 11
10.997056793463429
 21
8.652943349595148
 31
0.0
  0
LINE
  5
1BB
100
AcDbEntity
  8
0
  6
CONTINUOUS
 62
               7
100
AcDbLine
 10
10.997055871754554
 20
12.047056223431923
 30
0.0
 11
7.6029432452769186
 21
8.6529433108520379
 31
0.0
  0
CIRCLE
  5
1BC
100
AcDbEntity
  8
0
  6
CONTINUOUS
 62
               2
100
AcDbCircle
 10
1.7999999999986755
 20
11.649999999759871
 30
0.0
 40
2.0
  0
CIRCLE
  5
1BD
100
AcDbEntity
  8
0
  6
CONTINUOUS
 62
               7
100
AcDbCircle
 10
1.7999999999986755
 20
11.649999999759871
 30
0.0
 40
1.6499999999999999
  0
CIRCLE
  5
1BE
100
AcDbEntity
  8
0
  6
CONTINUOUS
 62
               7
100
AcDbCircle
 10
16.799999999998676
 20
37.550000000257569
 30
0.0
 40
1.6499999999999999
  0
CIRCLE
  5
1BF
100
AcDbEntity
  8
0
  6
CONTINUOUS
 62
               2
100
AcDbCircle
 10
16.799999999998676
 20
37.550000000257569
 30
0.0
 40
2.0
  0
CIRCLE
  5
1C0
100
AcDbEntity
  8
0
  6
CONTINUOUS
 62
               7
100
AcDbCircle
 10
9.2999999999986755
 20
10.350000000008663
 30
0.0
 40
4.0999999999999996
  0
CIRCLE
  5
1C1
100
AcDbEntity
  8
0
  6
CONTINUOUS
 62
               7
100
AcDbCircle
 10
9.2999999999986755
 20
38.850000000008663
 30
0.0
 40
4.0999999999999996
  0
ARC
  5
1C2
100
AcDbEntity
  8
0
  6
CONTINUOUS
 62
               7
100
AcDbCircle
 10
20.699999999998653
 20
10.014213568666037
 30
0.0
 40
0.5
100
AcDbArc
 50
269.99999999999937
 51
0.0
  0
ARC
  5
1C3
100
AcDbEntity
  8
0
  6
CONTINUOUS
 62
               7
100
AcDbCircle
 10
-2.1000000000013017
 20
39.185786431351403
 30
0.0
 40
0.5
100
AcDbArc
 50
89.999999999999815
 51
179.99999999999963
  0
ARC
  5
1C4
100
AcDbEntity
  8
0
  6
CONTINUOUS
 62
               7
100
AcDbCircle
 10
14.699999999998653
 20
6.6000000000086629
 30
0.0
 40
0.5
100
AcDbArc
 50
269.99999999999937
 51
0.0
  0
ARC
  5
1C5
100
AcDbEntity
  8
0
  6
CONTINUOUS
 62
               7
100
AcDbCircle
 10
15.699999999998653
 20
9.0142135686660367
 30
0.0
 40
0.5
100
AcDbArc
 50
89.999999999999815
 51
179.99999999999963
  0
LINE
  5
1C6
100
AcDbEntity
  8
0
  6
CONTINUOUS
 62
               7
100
AcDbLine
 10
15.699999999998653
 20
9.5142135686660367
 30
0.0
 11
20.699999999998653
 21
9.5142135686660367
 31
0.0
  0
LINE
  5
1C7
100
AcDbEntity
  8
0
  6
CONTINUOUS
 62
               7
100
AcDbLine
 10
15.199999999998653
 20
9.0142135686660367
 30
0.0
 11
15.199999999998653
 21
6.6000000000086629
 31
0.0
  0
ARC
  5
1C8
100
AcDbEntity
  8
0
  6
CONTINUOUS
 62
               7
100
AcDbCircle
 10
3.8999999999985846
 20
42.60000000000872
 30
0.0
 40
0.5
100
AcDbArc
 50
89.999999999999815
 51
179.99999999999963
  0
ARC
  5
1C9
100
AcDbEntity
  8
0
  6
CONTINUOUS
 62
               7
100
AcDbCircle
 10
2.8999999999985846
 20
40.185786431351403
 30
0.0
 40
0.5
100
AcDbArc
 50
269.99999999999937
 51
0.0
  0
LINE
  5
1CA
100
AcDbEntity
  8
0
  6
CONTINUOUS
 62
               7
100
AcDbLine
 10
2.8999999999985846
 20
39.685786431351403
 30
0.0
 11
-2.1000000000013017
 21
39.685786431351403
 31
0.0
  0
LINE
  5
1CB
100
AcDbEntity
  8
0
  6
CONTINUOUS
 62
               7
100
AcDbLine
 10
3.3999999999985846
 20
40.185786431351403
 30
0.0
 11
3.3999999999985846
 21
42.60000000000872
 31
0.0
  0
LINE
  5
1CC
100
AcDbEntity
  8
0
  6
CENTER
 62
               2
100
AcDbLine
 10
19.988191971272357
 20
37.600000000257637
 30
0.0
 11
14.045776841576384
 21
37.600000000257637
 31
0.0
  0
LINE
  5
1CD
100
AcDbEntity
  8
0
  6
CENTER
 62
               2
100
AcDbLine
 10
16.799999999998676
 20
34.815034761158927
 30
0.0
 11
16.799999999998676
 21
40.79486678881301
 31
0.0
  0
LINE
  5
1CE
100
AcDbEntity
  8
0
  6
CENTER
 62
               2
100
AcDbLine
 10
-1.3881919712750062
 20
11.599999999759916
 30
0.0
 11
4.9608310573731558
 21
11.599999999759916
 31
0.0
  0
LINE
  5
1CF
100
AcDbEntity
  8
0
  6
CENTER
 62
               2
100
AcDbLine
 10
1.7999999999986755
 20
14.884965238858513
 30
0.0
 11
1.7999999999986755
 21
8.4051332112044292
 31
0.0
  0
LINE
  5
1D0
100
AcDbEntity
  8
0
  6
CENTER
 62
               2
100
AcDbLine
 10
-4.3157572548649625
 20
24.600000000008663
 30
0.0
 11
22.505902948465263
 21
24.600000000008663
 31
0.0
  0
ARC
  5
1D1
100
AcDbEntity
  8
0
  6
CONTINUOUS
 62
               7
100
AcDbCircle
 10
-1.6000000000013017
 20
7.1000000000086629
 30
0.0
 40
1.0
100
AcDbArc
 50
179.99999999999963
 51
269.99999999999937
  0
ARC
  5
1D2
100
AcDbEntity
  8
0
  6
CONTINUOUS
 62
               7
100
AcDbCircle
 10
-1.6000000000013017
 20
42.10000000000872
 30
0.0
 40
1.0
100
AcDbArc
 50
89.999999999999815
 51
179.99999999999963
  0
ARC
  5
1D3
100
AcDbEntity
  8
0
  6
CONTINUOUS
 62
               7
100
AcDbCircle
 10
20.199999999998653
 20
42.10000000000872
 30
0.0
 40
1.0
100
AcDbArc
 50
0.0
 51
89.999999999999815
  0
ARC
  5
1D4
100
AcDbEntity
  8
0
  6
CONTINUOUS
 62
               7
100
AcDbCircle
 10
20.199999999998653
 20
7.1000000000086629
 30
0.0
 40
1.0
100
AcDbArc
 50
269.99999999999937
 51
0.0
  0
LINE
  5
1D5
100
AcDbEntity
  8
0
  6
CONTINUOUS
 62
               7
100
AcDbLine
 10
-1.6000000000013017
 20
43.10000000000872
 30
0.0
 11
20.199999999998653
 21
43.10000000000872
 31
0.0
  0
LINE
  5
1D6
100
AcDbEntity
  8
0
  6
CONTINUOUS
 62
               7
100
AcDbLine
 10
-1.6000000000013017
 20
6.1000000000086629
 30
0.0
 11
20.199999999998653
 21
6.1000000000086629
 31
0.0
  0
LINE
  5
1D7
100
AcDbEntity
  8
0
  6
CENTER
 62
               2
100
AcDbLine
 10
5.799999999998775
 20
-12.410609850993922
 30
0.0
 11
5.799999999998775
 21
-0.9999999999960778
 31
0.0
  0
LINE
  5
1D8
100
AcDbEntity
  8
0
  6
CENTER
 62
               2
100
AcDbLine
 10
12.799999999998775
 20
-12.410609850993922
 30
0.0
 11
12.799999999998775
 21
-0.9999999999960778
 31
0.0
  0
LINE
  5
1D9
100
AcDbEntity
  8
0
  6
CONTINUOUS
 62
               2
100
AcDbLine
 10
10.899999999998798
 20
-3.5508726088640401
 30
0.0
 11
7.6999999999987523
 21
-4.4108726088639401
 31
0.0
  0
LINE
  5
1DA
100
AcDbEntity
  8
0
  6
CONTINUOUS
 62
               2
100
AcDbLine
 10
10.899999999998798
 20
-4.5808726088640128
 30
0.0
 11
7.6999999999987523
 21
-5.4408726088639128
 31
0.0
  0
LINE
  5
1DB
100
AcDbEntity
  8
0
  6
CONTINUOUS
 62
               7
100
AcDbLine
 10
10.049999999998775
 20
-0.9999999999960778
 30
0.0
 11
10.049999999998775
 21
-3.7793101088639673
 31
0.0
  0
LINE
  5
1DC
100
AcDbEntity
  8
0
  6
CONTINUOUS
 62
               7
100
AcDbLine
 10
8.549999999998775
 20
-0.9999999999959641
 30
0.0
 11
8.549999999998775
 21
-4.1824351088640128
 31
0.0
  0
LINE
  5
1DD
100
AcDbEntity
  8
0
  6
CENTER
 62
               2
100
AcDbLine
 10
9.299999999998775
 20
-12.410609850993922
 30
0.0
 11
9.299999999998775
 21
-0.9999999999960778
 31
0.0
  0
LINE
  5
1DE
100
AcDbEntity
  8
0
  6
CONTINUOUS
 62
               7
100
AcDbLine
 10
8.549999999998775
 20
-5.2124351088639855
 30
0.0
 11
8.549999999998775
 21
-8.0008726088639719
 31
0.0
  0
LINE
  5
1DF
100
AcDbEntity
  8
0
  6
CONTINUOUS
 62
               7
100
AcDbLine
 10
10.049999999998775
 20
-4.8408726088640037
 30
0.0
 11
10.049999999998775
 21
-8.0008726088639719
 31
0.0
  0
LINE
  5
1E0
100
AcDbEntity
  8
0
  6
CONTINUOUS
 62
               7
100
AcDbLine
 10
9.549999999998775
 20
-8.0008726088639719
 30
0.0
 11
9.5499999999986613
 21
-11.500872608863972
 31
0.0
  0
LINE
  5
1E1
100
AcDbEntity
  8
0
  6
CONTINUOUS
 62
               7
100
AcDbLine
 10
9.049999999998775
 20
-8.0008726088639719
 30
0.0
 11
9.0499999999986613
 21
-11.500872608863972
 31
0.0
  0
LINE
  5
1E2
100
AcDbEntity
  8
0
  6
CONTINUOUS
 62
               7
100
AcDbLine
 10
8.549999999998775
 20
-8.0008726088639719
 30
0.0
 11
10.049999999998775
 21
-8.0008726088639719
 31
0.0
  0
LINE
  5
1E3
100
AcDbEntity
  8
0
  6
CONTINUOUS
 62
               7
100
AcDbLine
 10
9.0499999999986613
 20
-11.500872608863972
 30
0.0
 11
9.5499999999986613
 21
-11.500872608863972
 31
0.0
  0
ENDBLK
  5
1E4
100
AcDbEntity
  8
0
100
AcDbBlockEnd
  0
BLOCK
  5
1E5
100
AcDbEntity
  8
0
100
AcDbBlockBegin
  2
PA24F6-5
 70
               0
 10
0.0
 20
0.0
 30
0.0
  3
PA24F6-5
  1

  0
LINE
  5
1E6
100
AcDbEntity
  8
0
  6
CENTER
 62
             200
100
AcDbLine
 10
-9.3000000000244967
 20
23.999999991078624
 30
0.0
 11
-9.300000000035709
 21
65.999318110262976
 31
0.0
  0
CIRCLE
  5
1E7
100
AcDbEntity
  8
0
  6
DASHED
 62
               7
100
AcDbCircle
 10
-9.3000000000367322
 20
-28.000000000003126
 30
0.0
 40
5.6800003051757812
  0
CIRCLE
  5
1E8
100
AcDbEntity
  8
0
  6
DASHED
 62
               2
100
AcDbCircle
 10
-9.3000000000367322
 20
-28.000000000003126
 30
0.0
 40
6.5
  0
LINE
  5
1E9
100
AcDbEntity
  8
0
  6
CONTINUOUS
 62
               4
100
AcDbLine
 10
1.8362284630740646
 20
31.99999999107817
 30
0.0
 11
2.5999999961764502
 21
31.99999999107817
 31
0.0
  0
ARC
  5
1EA
100
AcDbEntity
  8
0
  6
CONTINUOUS
 62
               4
100
AcDbCircle
 10
0.2999999999730107
 20
26.199999809254194
 30
0.0
 40
6.0
100
AcDbArc
 50
73.80871737482147
 51
106.19135456952553
  0
LINE
  5
1EB
100
AcDbEntity
  8
0
  6
CONTINUOUS
 62
               4
100
AcDbLine
 10
2.5499999999734655
 20
31.193745613086975
 30
0.0
 11
2.5499999999733518
 21
29.799999999988842
 31
0.0
  0
ARC
  5
1EC
100
AcDbEntity
  8
0
  6
CONTINUOUS
 62
               4
100
AcDbCircle
 10
1.7499998092386022
 20
31.193745613087088
 30
0.0
 40
0.800000011920929
100
AcDbArc
 50
359.99998201390565
 51
73.808645430464111
  0
LINE
  5
1ED
100
AcDbEntity
  8
0
  6
CONTINUOUS
 62
               4
100
AcDbLine
 10
-1.9500000000266482
 20
30.499999999989456
 30
0.0
 11
2.5499999999733518
 21
30.499999999989058
 31
0.0
  0
LINE
  5
1EE
100
AcDbEntity
  8
0
  6
CONTINUOUS
 62
               4
100
AcDbLine
 10
-1.9500000000265345
 20
31.193745613087373
 30
0.0
 11
-1.9500000000266482
 21
29.79999999998924
 31
0.0
  0
ARC
  5
1EF
100
AcDbEntity
  8
0
  6
CONTINUOUS
 62
               4
100
AcDbCircle
 10
-1.1499998092916712
 20
31.193745613087316
 30
0.0
 40
0.800000011920929
100
AcDbArc
 50
106.19135456952553
 51
180.00001798608395
  0
LINE
  5
1F0
100
AcDbEntity
  8
0
  6
CENTER
 62
               2
100
AcDbLine
 10
-9.2999999999985334
 20
-73.189318247922813
 30
0.0
 11
-9.3000000000244967
 21
23.999999991078624
 31
0.0
  0
CIRCLE
  5
1F1
100
AcDbEntity
  8
0
  6
CONTINUOUS
 62
               4
100
AcDbCircle
 10
-12.800000000035254
 20
43.299999991080455
 30
0.0
 40
0.25
  0
CIRCLE
  5
1F2
100
AcDbEntity
  8
0
  6
CONTINUOUS
 62
               4
100
AcDbCircle
 10
-5.8000000000352543
 20
43.299999991080398
 30
0.0
 40
0.25
  0
LINE
  5
1F3
100
AcDbEntity
  8
0
  6
CONTINUOUS
 62
               4
100
AcDbLine
 10
-16.100000000033759
 20
32.199999997273579
 30
0.0
 11
-16.10000000003464
 21
36.999999987879931
 31
0.0
  0
LINE
  5
1F4
100
AcDbEntity
  8
0
  6
CONTINUOUS
 62
               4
100
AcDbLine
 10
-2.5000000000351861
 20
36.699999991079295
 30
0.0
 11
2.6000000042661782
 21
36.699999991079522
 31
0.0
  0
LINE
  5
1F5
100
AcDbEntity
  8
0
  6
CONTINUOUS
 62
               4
100
AcDbLine
 10
-3.5000000000338218
 20
31.99999999107817
 30
0.0
 11
-3.5000000000338218
 21
32.199999997273579
 31
0.0
  0
LINE
  5
1F6
100
AcDbEntity
  8
0
  6
CONTINUOUS
 62
               4
100
AcDbLine
 10
2.5999999999663146
 20
29.799999991079545
 30
0.0
 11
-5.5499999981117867
 21
29.799999991079034
 31
0.0
  0
LINE
  5
1F7
100
AcDbEntity
  8
0
  6
CONTINUOUS
 62
               4
100
AcDbLine
 10
-21.200000007654751
 20
36.699999991078329
 30
0.0
 11
-16.10000000003464
 21
36.699999991078556
 31
0.0
  0
LINE
  5
1F8
100
AcDbEntity
  8
0
  6
CONTINUOUS
 62
               7
100
AcDbLine
 10
-21.200000000033413
 20
23.999999991077999
 30
0.0
 11
2.599999999966542
 21
23.99999999107925
 31
0.0
  0
LINE
  5
1F9
100
AcDbEntity
  8
0
  6
CONTINUOUS
 62
               4
100
AcDbLine
 10
-5.5499999981117867
 20
31.99999999107817
 30
0.0
 11
-1.2362284631281
 21
31.99999999107817
 31
0.0
  0
LINE
  5
1FA
100
AcDbEntity
  8
0
  6
CONTINUOUS
 62
               4
100
AcDbLine
 10
-14.50000000978406
 20
25.999999991083058
 30
0.0
 11
-4.1000000097839688
 21
25.999999991083058
 31
0.0
  0
LINE
  5
1FB
100
AcDbEntity
  8
0
  6
CONTINUOUS
 62
               4
100
AcDbLine
 10
-14.50000000978406
 20
27.899999991083035
 30
0.0
 11
-4.1000000097839688
 21
27.899999991083035
 31
0.0
  0
LINE
  5
1FC
100
AcDbEntity
  8
0
  6
CONTINUOUS
 62
               4
100
AcDbLine
 10
-4.1000000000332761
 20
25.999999991083058
 30
0.0
 11
-4.1000000000335035
 21
27.899999991083035
 31
0.0
  0
LINE
  5
1FD
100
AcDbEntity
  8
0
  6
CONTINUOUS
 62
               4
100
AcDbLine
 10
-14.500000000033367
 20
25.99999999108249
 30
0.0
 11
-14.500000000033594
 21
27.899999991082467
 31
0.0
  0
LINE
  5
1FE
100
AcDbEntity
  8
0
  6
CONTINUOUS
 62
               4
100
AcDbLine
 10
-5.5499999981117867
 20
29.799999991079034
 30
0.0
 11
-5.5499999981117867
 21
31.99999999107817
 31
0.0
  0
LINE
  5
1FF
100
AcDbEntity
  8
0
  6
CONTINUOUS
 62
               4
100
AcDbLine
 10
-3.1800000000336581
 20
29.799999991079204
 30
0.0
 11
-3.1800000000338855
 21
31.99999999107817
 31
0.0
  0
CIRCLE
  5
200
100
AcDbEntity
  8
0
  6
CONTINUOUS
 62
               7
100
AcDbCircle
 10
-9.3000000000358227
 20
15.999999999994799
 30
0.0
 40
4.2000000000000002
  0
LINE
  5
201
100
AcDbEntity
  8
0
  6
CENTER
 62
               2
100
AcDbLine
 10
-4.2418279370321557
 20
15.999999999994685
 30
0.0
 11
-14.390457446539415
 21
15.999999999994969
 31
0.0
  0
CIRCLE
  5
202
100
AcDbEntity
  8
0
  6
CONTINUOUS
 62
               7
100
AcDbCircle
 10
0.0000000000000568
 20
-0.0000000000000568
 30
0.0
 40
2.1000000000000001
  0
LINE
  5
203
100
AcDbEntity
  8
0
  6
CENTER
 62
               2
100
AcDbLine
 10
-0.000000000001819
 20
3.2917944182307792
 30
0.0
 11
0.0000000000017621
 21
-3.2097526030772201
 31
0.0
  0
LINE
  5
204
100
AcDbEntity
  8
0
  6
CENTER
 62
               2
100
AcDbLine
 10
3.5165993645403546
 20
0.0000000000019327
 30
0.0
 11
-3.0324042043684472
 21
-0.0000000000016769
 31
0.0
  0
CIRCLE
  5
205
100
AcDbEntity
  8
0
  6
CONTINUOUS
 62
               7
100
AcDbCircle
 10
-18.599999999968475
 20
-57.000000000010289
 30
0.0
 40
2.1000000000000001
  0
LINE
  5
206
100
AcDbEntity
  8
0
  6
CENTER
 62
               2
100
AcDbLine
 10
-18.599999999966315
 20
-60.6675945102524
 30
0.0
 11
-18.59999999997035
 21
-53.501679491463335
 31
0.0
  0
LINE
  5
207
100
AcDbEntity
  8
0
  6
CENTER
 62
               2
100
AcDbLine
 10
-22.20688602070112
 20
-57.000000000012221
 30
0.0
 11
-15.040971001912055
 21
-57.000000000008356
 31
0.0
  0
LINE
  5
208
100
AcDbEntity
  8
0
  6
CONTINUOUS
 62
               7
100
AcDbLine
 10
2.6000000224208293
 20
8.9999999999945146
 30
0.0
 11
-21.1999999895001
 21
8.9999999999951399
 31
0.0
  0
LINE
  5
209
100
AcDbEntity
  8
0
  6
CONTINUOUS
 62
               7
100
AcDbLine
 10
2.0999999999633587
 20
-71.000000000005173
 30
0.0
 11
-20.700000000036709
 21
-71.000000000004604
 31
0.0
  0
LINE
  5
20A
100
AcDbEntity
  8
0
  6
CONTINUOUS
 62
               7
100
AcDbLine
 10
-15.200000000036709
 20
-68.500000011879877
 30
0.0
 11
-15.200000000036709
 21
-70.500000000004718
 31
0.0
  0
LINE
  5
20B
100
AcDbEntity
  8
0
  6
CONTINUOUS
 62
               7
100
AcDbLine
 10
-15.700000000036709
 20
-68.000000000004718
 30
0.0
 11
-20.700000000036709
 21
-68.000000000004604
 31
0.0
  0
ARC
  5
20C
100
AcDbEntity
  8
0
  6
CONTINUOUS
 62
               7
100
AcDbCircle
 10
-15.700000000036709
 20
-68.500000000004718
 30
0.0
 40
0.5
100
AcDbArc
 50
359.99999999999761
 51
89.999999999998224
  0
ARC
  5
20D
100
AcDbEntity
  8
0
  6
CONTINUOUS
 62
               7
100
AcDbCircle
 10
-14.700000000036709
 20
-70.500000000004718
 30
0.0
 40
0.5
100
AcDbArc
 50
179.99999999999798
 51
269.99999999999778
  0
ARC
  5
20E
100
AcDbEntity
  8
0
  6
CONTINUOUS
 62
               7
100
AcDbCircle
 10
-20.700000000036709
 20
-67.500000000004604
 30
0.0
 40
0.5
100
AcDbArc
 50
179.99999999999801
 51
269.99999999999784
  0
LINE
  5
20F
100
AcDbEntity
  8
0
  6
CONTINUOUS
 62
               7
100
AcDbLine
 10
2.5999999999633587
 20
-66.00000000000523
 30
0.0
 11
-21.200000000036596
 21
-66.000000000004547
 31
0.0
  0
ARC
  5
210
100
AcDbEntity
  8
0
  6
CONTINUOUS
 62
               7
100
AcDbCircle
 10
2.0999999999633587
 20
-70.500000000005173
 30
0.0
 40
0.5
100
AcDbArc
 50
269.99999999999784
 51
359.99999999999761
  0
ARC
  5
211
100
AcDbEntity
  8
0
  6
CONTINUOUS
 62
               7
100
AcDbCircle
 10
-20.700000000036709
 20
-70.500000000004604
 30
0.0
 40
0.5
100
AcDbArc
 50
179.99999999999798
 51
269.99999999999778
  0
LINE
  5
212
100
AcDbEntity
  8
0
  6
CONTINUOUS
 62
               7
100
AcDbLine
 10
2.6000000000340293
 20
-60.732050833859532
 30
0.0
 11
2.6000000000389036
 21
-70.499999999998181
 31
0.0
  0
LINE
  5
213
100
AcDbEntity
  8
0
  6
CONTINUOUS
 62
               7
100
AcDbLine
 10
1.6000000000335035
 20
-58.999999999999147
 30
0.0
 11
1.6000000000300929
 21
-54.999999999999147
 31
0.0
  0
LINE
  5
214
100
AcDbEntity
  8
0
  6
CONTINUOUS
 62
               7
100
AcDbLine
 10
-21.199999999998241
 20
-3.7320507851687239
 30
0.0
 11
-21.199999999961619
 21
-70.500000000011539
 31
0.0
  0
LINE
  5
215
100
AcDbEntity
  8
0
  6
CONTINUOUS
 62
               7
100
AcDbLine
 10
-20.199999999999193
 20
-2.0000000000113118
 30
0.0
 11
-20.20000000000249
 21
1.9999999999886882
 31
0.0
  0
LINE
  5
216
100
AcDbEntity
  8
0
  6
CONTINUOUS
 62
               4
100
AcDbLine
 10
2.5999999999658598
 20
63.000000000000824
 30
0.0
 11
2.5999999999868351
 21
23.99999999107925
 31
0.0
  0
ARC
  5
217
100
AcDbEntity
  8
0
  6
CONTINUOUS
 62
               4
100
AcDbCircle
 10
0.199999999964632
 20
39.799999991080171
 30
0.0
 40
0.5
100
AcDbArc
 50
269.99999999999937
 51
0.0
  0
ARC
  5
218
100
AcDbEntity
  8
0
  6
CONTINUOUS
 62
               4
100
AcDbCircle
 10
0.1999999999650868
 20
46.799999991080171
 30
0.0
 40
0.5
100
AcDbArc
 50
0.0
 51
89.999999999999815
  0
ARC
  5
219
100
AcDbEntity
  8
0
  6
CONTINUOUS
 62
               4
100
AcDbCircle
 10
-18.800000000034913
 20
46.799999991080171
 30
0.0
 40
0.5
100
AcDbArc
 50
89.999999999999815
 51
179.99999999999963
  0
ARC
  5
21A
100
AcDbEntity
  8
0
  6
CONTINUOUS
 62
               4
100
AcDbCircle
 10
-18.800000000035254
 20
39.799999991080171
 30
0.0
 40
0.5
100
AcDbArc
 50
179.99999999999963
 51
269.99999999999937
  0
LINE
  5
21B
100
AcDbEntity
  8
0
  6
CONTINUOUS
 62
               4
100
AcDbLine
 10
0.2999999999646548
 20
39.299999991080171
 30
0.0
 11
-18.900000000035277
 21
39.299999991080171
 31
0.0
  0
LINE
  5
21C
100
AcDbEntity
  8
0
  6
CONTINUOUS
 62
               4
100
AcDbLine
 10
0.1999999999650868
 20
47.299999991080171
 30
0.0
 11
-18.800000000034913
 21
47.299999991080171
 31
0.0
  0
LINE
  5
21D
100
AcDbEntity
  8
0
  6
CONTINUOUS
 62
               4
100
AcDbLine
 10
-19.300000000035254
 20
39.799999991080227
 30
0.0
 11
-19.300000000034913
 21
46.899999991080136
 31
0.0
  0
LINE
  5
21E
100
AcDbEntity
  8
0
  6
CONTINUOUS
 62
               4
100
AcDbLine
 10
0.699999999964632
 20
39.799999991080114
 30
0.0
 11
0.6999999999650868
 21
46.899999991080136
 31
0.0
  0
LINE
  5
21F
100
AcDbEntity
  8
0
  6
CENTER
 62
             200
100
AcDbLine
 10
-12.800000000035254
 20
44.529318333869156
 30
0.0
 11
-12.800000000035141
 21
41.995604762932913
 31
0.0
  0
LINE
  5
220
100
AcDbEntity
  8
0
  6
CENTER
 62
             200
100
AcDbLine
 10
-5.8000000000349132
 20
44.529318333868417
 30
0.0
 11
-5.8000000000351406
 21
41.995604762932231
 31
0.0
  0
ARC
  5
221
100
AcDbEntity
  8
0
  6
CONTINUOUS
 62
               4
100
AcDbCircle
 10
-5.8000000000352543
 20
43.299999991080398
 30
0.0
 40
2.0
100
AcDbArc
 50
269.99999999999937
 51
89.999999999999801
  0
LINE
  5
222
100
AcDbEntity
  8
0
  6
CONTINUOUS
 62
               4
100
AcDbLine
 10
-12.800000000034711
 20
45.299999991080398
 30
0.0
 11
-5.7999999884938802
 21
45.299999991080398
 31
0.0
  0
LINE
  5
223
100
AcDbEntity
  8
0
  6
CONTINUOUS
 62
               4
100
AcDbLine
 10
-12.800000000035116
 20
41.299999991080398
 30
0.0
 11
-5.7999999884938802
 21
41.299999991080398
 31
0.0
  0
ARC
  5
224
100
AcDbEntity
  8
0
  6
CONTINUOUS
 62
               4
100
AcDbCircle
 10
-12.800000000034913
 20
43.299999991080739
 30
0.0
 40
2.0
100
AcDbArc
 50
89.999999999994003
 51
269.99999999999358
  0
CIRCLE
  5
225
100
AcDbEntity
  8
0
  6
CONTINUOUS
 62
               4
100
AcDbCircle
 10
-5.8000000000352543
 20
43.299999991080398
 30
0.0
 40
0.8
  0
CIRCLE
  5
226
100
AcDbEntity
  8
0
  6
CONTINUOUS
 62
               4
100
AcDbCircle
 10
-12.800000000035254
 20
43.299999991080455
 30
0.0
 40
0.8
  0
LINE
  5
227
100
AcDbEntity
  8
0
  6
CONTINUOUS
 62
               7
100
AcDbLine
 10
-21.200000000005588
 20
3.7320507784620531
 30
0.0
 11
-21.200000000015265
 21
23.999999991077999
 31
0.0
  0
LINE
  5
228
100
AcDbEntity
  8
0
  6
CONTINUOUS
 62
               4
100
AcDbLine
 10
-17.300000000035595
 20
53.499999991080159
 30
0.0
 11
-1.3000000000355953
 21
53.499999991080159
 31
0.0
  0
LINE
  5
229
100
AcDbEntity
  8
0
  6
CONTINUOUS
 62
               4
100
AcDbLine
 10
-17.800000000035595
 20
53.999999991080159
 30
0.0
 11
-17.800000000035709
 21
60.999999982167452
 31
0.0
  0
LINE
  5
22A
100
AcDbEntity
  8
0
  6
CONTINUOUS
 62
               4
100
AcDbLine
 10
-0.8000000000355954
 20
53.999999991080159
 30
0.0
 11
-0.8000000000358227
 21
60.999999982167452
 31
0.0
  0
LINE
  5
22B
100
AcDbEntity
  8
0
  6
CENTER
 62
             200
100
AcDbLine
 10
-13.844268824508699
 20
43.299999991080171
 30
0.0
 11
-4.235946989186175
 21
43.299999991080171
 31
0.0
  0
ARC
  5
22C
100
AcDbEntity
  8
0
  6
CONTINUOUS
 62
               4
100
AcDbCircle
 10
-20.200000000035914
 20
62.99999999107834
 30
0.0
 40
1.0
100
AcDbArc
 50
90.000000000005542
 51
180.00000000000534
  0
ARC
  5
22D
100
AcDbEntity
  8
0
  6
CONTINUOUS
 62
               4
100
AcDbCircle
 10
1.5999999999640409
 20
62.999999991079477
 30
0.0
 40
1.0
100
AcDbArc
 50
0.0000000000057504
 51
90.000000000005542
  0
LINE
  5
22E
100
AcDbEntity
  8
0
  6
CONTINUOUS
 62
               4
100
AcDbLine
 10
1.5999999999638135
 20
63.999999991079477
 30
0.0
 11
-20.200000000036027
 21
63.99999999107834
 31
0.0
  0
ARC
  5
22F
100
AcDbEntity
  8
0
  6
CONTINUOUS
 62
               4
100
AcDbCircle
 10
-1.3000000000355953
 20
53.999999991080159
 30
0.0
 40
0.5
100
AcDbArc
 50
269.99999999999937
 51
0.0
  0
ARC
  5
230
100
AcDbEntity
  8
0
  6
CONTINUOUS
 62
               4
100
AcDbCircle
 10
-17.300000000035595
 20
53.999999991080159
 30
0.0
 40
0.5
100
AcDbArc
 50
179.99999999999963
 51
269.99999999999937
  0
LINE
  5
231
100
AcDbEntity
  8
0
  6
CONTINUOUS
 62
               4
100
AcDbLine
 10
-21.200000000035914
 20
60.999999982167452
 30
0.0
 11
2.6000000046399805
 21
60.999999982167452
 31
0.0
  0
LINE
  5
232
100
AcDbEntity
  8
0
  6
CONTINUOUS
 62
               4
100
AcDbLine
 10
-20.200000000034777
 20
36.999999987879931
 30
0.0
 11
-14.60000000003464
 21
36.999999987879931
 31
0.0
  0
LINE
  5
233
100
AcDbEntity
  8
0
  6
CONTINUOUS
 62
               4
100
AcDbLine
 10
-17.599999995359951
 20
36.299999987879943
 30
0.0
 11
-16.10000000003464
 21
36.299999987879943
 31
0.0
  0
LINE
  5
234
100
AcDbEntity
  8
0
  6
CONTINUOUS
 62
               4
100
AcDbLine
 10
-1.0000000000349587
 20
32.199999997273579
 30
0.0
 11
-17.600000000034413
 21
32.199999997273579
 31
0.0
  0
LINE
  5
235
100
AcDbEntity
  8
0
  6
CONTINUOUS
 62
               4
100
AcDbLine
 10
-18.100000000034413
 20
32.699999997273579
 30
0.0
 11
-18.10000000003464
 21
35.799999987879943
 31
0.0
  0
ARC
  5
236
100
AcDbEntity
  8
0
  6
CONTINUOUS
 62
               4
100
AcDbCircle
 10
-17.600000000034413
 20
32.699999997273579
 30
0.0
 40
0.5
100
AcDbArc
 50
179.99999999999963
 51
269.99999999999937
  0
ARC
  5
237
100
AcDbEntity
  8
0
  6
CONTINUOUS
 62
               4
100
AcDbCircle
 10
-17.60000000003464
 20
35.799999987879943
 30
0.0
 40
0.5
100
AcDbArc
 50
89.999999999999815
 51
179.99999999999963
  0
LINE
  5
238
100
AcDbEntity
  8
0
  6
CONTINUOUS
 62
               4
100
AcDbLine
 10
-14.600000000034413
 20
32.199999997273636
 30
0.0
 11
-14.60000000003464
 21
36.999999987879931
 31
0.0
  0
LINE
  5
239
100
AcDbEntity
  8
0
  6
CONTINUOUS
 62
               4
100
AcDbLine
 10
-2.5000000000349587
 20
32.199999997274318
 30
0.0
 11
-2.5000000000351861
 21
36.99999998788067
 31
0.0
  0
LINE
  5
23A
100
AcDbEntity
  8
0
  6
CONTINUOUS
 62
               4
100
AcDbLine
 10
-4.0000000000349587
 20
32.199999997274205
 30
0.0
 11
-4.0000000000351861
 21
36.999999987880557
 31
0.0
  0
ARC
  5
23B
100
AcDbEntity
  8
0
  6
CONTINUOUS
 62
               4
100
AcDbCircle
 10
-1.0000000000351861
 20
35.799999987880796
 30
0.0
 40
0.5
100
AcDbArc
 50
0.0000000000055978
 51
90.0000000000054
  0
ARC
  5
23C
100
AcDbEntity
  8
0
  6
CONTINUOUS
 62
               4
100
AcDbCircle
 10
-1.0000000000349587
 20
32.699999997274432
 30
0.0
 40
0.5
100
AcDbArc
 50
270.000000000005
 51
0.0000000000055978
  0
LINE
  5
23D
100
AcDbEntity
  8
0
  6
CONTINUOUS
 62
               4
100
AcDbLine
 10
-0.5000000000349587
 20
32.699999997274432
 30
0.0
 11
-0.5000000000351861
 21
35.799999987880796
 31
0.0
  0
LINE
  5
23E
100
AcDbEntity
  8
0
  6
CONTINUOUS
 62
               4
100
AcDbLine
 10
-1.0000000047097615
 20
36.299999987880796
 30
0.0
 11
-2.5000000000351861
 21
36.299999987880625
 31
0.0
  0
LINE
  5
23F
100
AcDbEntity
  8
0
  6
CONTINUOUS
 62
               4
100
AcDbLine
 10
-4.0000000000351861
 20
36.999999987879931
 30
0.0
 11
1.5999999999651777
 21
36.999999987879931
 31
0.0
  0
ARC
  5
240
100
AcDbEntity
  8
0
  6
CONTINUOUS
 62
               4
100
AcDbCircle
 10
-20.200000000034777
 20
37.999999987879931
 30
0.0
 40
1.0
100
AcDbArc
 50
179.99999999999963
 51
269.99999999999937
  0
ARC
  5
241
100
AcDbEntity
  8
0
  6
CONTINUOUS
 62
               4
100
AcDbCircle
 10
1.5999999999651777
 20
37.999999987879931
 30
0.0
 40
1.0
100
AcDbArc
 50
270.00000000000023
 51
0.0
  0
LINE
  5
242
100
AcDbEntity
  8
0
  6
CONTINUOUS
 62
               4
100
AcDbLine
 10
-21.200000007280948
 20
37.999999996665025
 30
0.0
 11
2.6000000046399805
 21
37.999999996665025
 31
0.0
  0
CIRCLE
  5
243
100
AcDbEntity
  8
0
  6
CONTINUOUS
 62
               7
100
AcDbCircle
 10
-9.2999998092859073
 20
-28.000000000005173
 30
0.0
 40
7.4000000000000004
  0
CIRCLE
  5
244
100
AcDbEntity
  8
0
  6
CONTINUOUS
 62
               2
100
AcDbCircle
 10
-9.2999998092859073
 20
-28.000000000005173
 30
0.0
 40
8.3000001907348633
  0
LINE
  5
245
100
AcDbEntity
  8
0
  6
CENTER
 62
               2
100
AcDbLine
 10
-21.505737733605031
 20
-28.000000000003354
 30
0.0
 11
3.1514017899997384
 21
-28.000000000002899
 31
0.0
  0
CIRCLE
  5
246
100
AcDbEntity
  8
0
  6
CONTINUOUS
 62
               2
100
AcDbCircle
 10
-9.3000000000209297
 20
-51.000000000005173
 30
0.0
 40
6.5
  0
CIRCLE
  5
247
100
AcDbEntity
  8
0
  6
CONTINUOUS
 62
               7
100
AcDbCircle
 10
-9.3000000000209297
 20
-51.000000000005173
 30
0.0
 40
5.6800003051757812
  0
LINE
  5
248
100
AcDbEntity
  8
0
  6
CENTER
 62
               2
100
AcDbLine
 10
-1.5296298066198233
 20
-51.000000000005173
 30
0.0
 11
-17.617657559000293
 21
-51.000000000005173
 31
0.0
  0
CIRCLE
  5
249
100
AcDbEntity
  8
0
  6
CONTINUOUS
 62
               2
100
AcDbCircle
 10
-9.3000000000205887
 20
-5.0000000000051728
 30
0.0
 40
6.5
  0
CIRCLE
  5
24A
100
AcDbEntity
  8
0
  6
CONTINUOUS
 62
               7
100
AcDbCircle
 10
-9.3000000000205887
 20
-5.0000000000051728
 30
0.0
 40
5.6799999999999997
  0
LINE
  5
24B
100
AcDbEntity
  8
0
  6
CENTER
 62
               2
100
AcDbLine
 10
-1.5296298066195391
 20
-5.0000000000051728
 30
0.0
 11
-17.617657559000008
 21
-5.0000000000051728
 31
0.0
  0
LINE
  5
24C
100
AcDbEntity
  8
0
  6
CONTINUOUS
 62
               7
100
AcDbLine
 10
-20.199999987501712
 20
1.9999999492358143
 30
0.0
 11
-21.200000000005602
 21
3.7320507784620531
 31
0.0
  0
LINE
  5
24D
100
AcDbEntity
  8
0
  6
CONTINUOUS
 62
               7
100
AcDbLine
 10
-21.200000017304035
 20
-3.7320508272458142
 30
0.0
 11
-20.199999999999193
 21
-1.9999999897040652
 31
0.0
  0
LINE
  5
24E
100
AcDbEntity
  8
0
  6
CONTINUOUS
 62
               7
100
AcDbLine
 10
1.5999999648145717
 20
-55.000000050764186
 30
0.0
 11
2.5999999648145717
 21
-53.267949214677913
 31
0.0
  0
LINE
  5
24F
100
AcDbEntity
  8
0
  6
CONTINUOUS
 62
               7
100
AcDbLine
 10
2.5999999350122494
 20
-60.732050767641169
 30
0.0
 11
1.6000000244192165
 21
-59.000000110368831
 31
0.0
  0
LINE
  5
250
100
AcDbEntity
  8
0
  6
CONTINUOUS
 62
               4
100
AcDbLine
 10
-16.650000000025813
 20
30.499999999985533
 30
0.0
 11
-21.150000000025813
 21
30.49999999998272
 31
0.0
  0
ARC
  5
251
100
AcDbEntity
  8
0
  6
CONTINUOUS
 62
               4
100
AcDbCircle
 10
-17.450000190761159
 20
31.193745613082967
 30
0.0
 40
0.800000011920929
100
AcDbArc
 50
359.9999820139455
 51
73.808645430504711
  0
LINE
  5
252
100
AcDbEntity
  8
0
  6
CONTINUOUS
 62
               4
100
AcDbLine
 10
-21.200000000018392
 20
29.799999991073179
 30
0.0
 11
-13.05000000194029
 21
29.799999991077044
 31
0.0
  0
LINE
  5
253
100
AcDbEntity
  8
0
  6
CONTINUOUS
 62
               4
100
AcDbLine
 10
-13.05000000194029
 20
29.799999991077044
 30
0.0
 11
-13.05000000194147
 21
31.99999999107618
 31
0.0
  0
LINE
  5
254
100
AcDbEntity
  8
0
  6
CONTINUOUS
 62
               4
100
AcDbLine
 10
-15.420000000018419
 20
29.799999991075936
 30
0.0
 11
-15.420000000019371
 21
31.999999991074901
 31
0.0
  0
LINE
  5
255
100
AcDbEntity
  8
0
  6
CONTINUOUS
 62
               4
100
AcDbLine
 10
-16.650000000026296
 20
31.193745613083451
 30
0.0
 11
-16.650000000025429
 21
29.799999999985317
 31
0.0
  0
LINE
  5
256
100
AcDbEntity
  8
0
  6
CONTINUOUS
 62
               4
100
AcDbLine
 10
-20.436228463127321
 20
31.999999991072229
 30
0.0
 11
-21.199999996229707
 21
31.999999991071803
 31
0.0
  0
ARC
  5
257
100
AcDbEntity
  8
0
  6
CONTINUOUS
 62
               4
100
AcDbCircle
 10
-18.900000000023169
 20
26.199999809249078
 30
0.0
 40
6.0
100
AcDbArc
 50
73.808645430504711
 51
106.19128262520877
  0
ARC
  5
258
100
AcDbEntity
  8
0
  6
CONTINUOUS
 62
               4
100
AcDbCircle
 10
-20.349999809291432
 20
31.193745613081177
 30
0.0
 40
0.800000011920929
100
AcDbArc
 50
106.19135456956614
 51
180.00001798612456
  0
LINE
  5
259
100
AcDbEntity
  8
0
  6
CONTINUOUS
 62
               4
100
AcDbLine
 10
-13.05000000194147
 20
31.99999999107618
 30
0.0
 11
-17.363771536925157
 21
31.99999999107385
 31
0.0
  0
LINE
  5
25A
100
AcDbEntity
  8
0
  6
CONTINUOUS
 62
               4
100
AcDbLine
 10
-15.100000000019435
 20
31.999999991075072
 30
0.0
 11
-15.100000000019548
 21
32.199999997270481
 31
0.0
  0
LINE
  5
25B
100
AcDbEntity
  8
0
  6
CONTINUOUS
 62
               4
100
AcDbLine
 10
-21.150000000026296
 20
31.193745613080637
 30
0.0
 11
-21.150000000025429
 21
29.799999999982504
 31
0.0
  0
LINE
  5
25C
100
AcDbEntity
  8
0
  6
CONTINUOUS
 62
               7
100
AcDbLine
 10
2.5999999999868351
 20
23.99999999107925
 30
0.0
 11
2.6000000000283592
 21
-53.26794916852073
 31
0.0
  0
LINE
  5
25D
100
AcDbEntity
  8
0
  6
CONTINUOUS
 62
               4
100
AcDbLine
 10
-21.200000000015265
 20
23.999999991077999
 30
0.0
 11
-21.200000000033867
 21
62.999999991073111
 31
0.0
  0
CIRCLE
  5
25E
100
AcDbEntity
  8
0
  6
CONTINUOUS
 62
               7
100
AcDbCircle
 10
-9.3000000000223597
 20
15.999999999994827
 30
0.0
 40
2.0499999999999998
  0
CIRCLE
  5
25F
100
AcDbEntity
  8
0
  6
CONTINUOUS
 62
               7
100
AcDbCircle
 10
-9.3000000000223597
 20
15.999999999994827
 30
0.0
 40
2.6499999999999999
  0
CIRCLE
  5
260
100
AcDbEntity
  8
0
  6
CONTINUOUS
 62
               4
100
AcDbCircle
 10
-9.3000000000352543
 20
43.299999991080455
 30
0.0
 40
0.8
  0
CIRCLE
  5
261
100
AcDbEntity
  8
0
  6
CONTINUOUS
 62
               4
100
AcDbCircle
 10
-9.3000000000352543
 20
43.299999991080455
 30
0.0
 40
0.25
  0
LINE
  5
262
100
AcDbEntity
  8
0
  6
CONTINUOUS
 62
               7
100
AcDbLine
 10
-8.7000000000218378
 20
14.039770421603722
 30
0.0
 11
-8.7000000000228823
 21
17.960229578386254
 31
0.0
  0
LINE
  5
263
100
AcDbEntity
  8
0
  6
CONTINUOUS
 62
               7
100
AcDbLine
 10
-9.9000000000218353
 20
14.0397704216034
 30
0.0
 11
-9.9000000000228852
 21
17.960229578385931
 31
0.0
  0
LINE
  5
264
100
AcDbEntity
  8
0
  6
CONTINUOUS
 62
               7
100
AcDbLine
 10
-7.3397704216310782
 20
16.599999999994775
 30
0.0
 11
-11.260229578413609
 21
16.599999999994882
 31
0.0
  0
LINE
  5
265
100
AcDbEntity
  8
0
  6
CONTINUOUS
 62
               7
100
AcDbLine
 10
-7.3397704216311102
 20
15.399999999994776
 30
0.0
 11
-11.260229578413641
 21
15.399999999994877
 31
0.0
  0
ENDBLK
  5
266
100
AcDbEntity
  8
0
100
AcDbBlockEnd
  0
BLOCK
  5
267
100
AcDbEntity
  8
0
100
AcDbBlockBegin
  2
PA24F6-6
 70
               0
 10
0.0
 20
0.0
 30
0.0
  3
PA24F6-6
  1

  0
LINE
  5
268
100
AcDbEntity
  8
0
  6
CONTINUOUS
 62
               4
100
AcDbLine
 10
7.7500000000005258
 20
39.999999999998408
 30
0.0
 11
7.7500000000005258
 21
54.99999999997226
 31
0.0
  0
LINE
  5
269
100
AcDbEntity
  8
0
  6
CONTINUOUS
 62
               4
100
AcDbLine
 10
-7.7499999999994742
 20
39.999999999998636
 30
0.0
 11
-7.7499999999994742
 21
54.99999999997226
 31
0.0
  0
LINE
  5
26A
100
AcDbEntity
  8
0
  6
CONTINUOUS
 62
               4
100
AcDbLine
 10
0.0000000000005258
 20
57.99999999997226
 30
0.0
 11
1.7320508075695926
 21
56.99999999997226
 31
0.0
  0
LINE
  5
26B
100
AcDbEntity
  8
0
  6
CONTINUOUS
 62
               4
100
AcDbLine
 10
0.0000000000005258
 20
57.99999999997226
 30
0.0
 11
-1.7320508075683136
 21
56.99999999997226
 31
0.0
  0
LINE
  5
26C
100
AcDbEntity
  8
0
  6
CONTINUOUS
 62
               4
100
AcDbLine
 10
6.4951905283838443
 20
54.24999999997226
 30
0.0
 11
4.7631397208150048
 21
55.24999999997226
 31
0.0
  0
LINE
  5
26D
100
AcDbEntity
  8
0
  6
CONTINUOUS
 62
               4
100
AcDbLine
 10
6.4951905283838443
 20
54.24999999997226
 30
0.0
 11
6.4951905283838443
 21
52.24999999997226
 31
0.0
  0
LINE
  5
26E
100
AcDbEntity
  8
0
  6
CONTINUOUS
 62
               4
100
AcDbLine
 10
6.4951905283838443
 20
46.74999999997226
 30
0.0
 11
6.4951905283838443
 21
48.74999999997226
 31
0.0
  0
LINE
  5
26F
100
AcDbEntity
  8
0
  6
CONTINUOUS
 62
               4
100
AcDbLine
 10
6.4951905283838443
 20
46.74999999997226
 30
0.0
 11
4.7631397208150048
 21
45.74999999997226
 31
0.0
  0
LINE
  5
270
100
AcDbEntity
  8
0
  6
CONTINUOUS
 62
               4
100
AcDbLine
 10
0.0000000000005258
 20
42.99999999997226
 30
0.0
 11
1.7320508075695926
 21
43.99999999997226
 31
0.0
  0
LINE
  5
271
100
AcDbEntity
  8
0
  6
CONTINUOUS
 62
               4
100
AcDbLine
 10
0.0000000000005258
 20
42.99999999997226
 30
0.0
 11
-1.7320508075683136
 21
43.99999999997226
 31
0.0
  0
LINE
  5
272
100
AcDbEntity
  8
0
  6
CONTINUOUS
 62
               4
100
AcDbLine
 10
-6.4951905283827926
 20
46.74999999997226
 30
0.0
 11
-4.7631397208137258
 21
45.74999999997226
 31
0.0
  0
LINE
  5
273
100
AcDbEntity
  8
0
  6
CONTINUOUS
 62
               4
100
AcDbLine
 10
-6.4951905283827926
 20
46.74999999997226
 30
0.0
 11
-6.4951905283827926
 21
48.74999999997226
 31
0.0
  0
LINE
  5
274
100
AcDbEntity
  8
0
  6
CONTINUOUS
 62
               4
100
AcDbLine
 10
-6.4951905283827926
 20
54.24999999997226
 30
0.0
 11
-6.4951905283827926
 21
52.24999999997226
 31
0.0
  0
LINE
  5
275
100
AcDbEntity
  8
0
  6
CONTINUOUS
 62
               4
100
AcDbLine
 10
-6.4951905283827926
 20
54.24999999997226
 30
0.0
 11
-4.7631397208137258
 21
55.24999999997226
 31
0.0
  0
ARC
  5
276
100
AcDbEntity
  8
0
  6
CONTINUOUS
 62
               4
100
AcDbCircle
 10
0.0000000000005258
 20
50.49999999997226
 30
0.0
 40
6.5
100
AcDbArc
 50
165.85335236756171
 51
194.14664763243749
  0
LINE
  5
277
100
AcDbEntity
  8
0
  6
CONTINUOUS
 62
               4
100
AcDbLine
 10
-1.7320508075683136
 20
56.99999999997226
 30
0.0
 11
-1.7756447910718833
 21
56.752766233883222
 31
0.0
  0
LINE
  5
278
100
AcDbEntity
  8
0
  6
CONTINUOUS
 62
               4
100
AcDbLine
 10
1.7320508075695926
 20
56.99999999997226
 30
0.0
 11
1.7756447910731623
 21
56.752766233883222
 31
0.0
  0
LINE
  5
279
100
AcDbEntity
  8
0
  6
CONTINUOUS
 62
               4
100
AcDbLine
 10
4.7631397208150048
 20
55.24999999997226
 30
0.0
 11
4.5272320069567087
 21
55.164136614094105
 31
0.0
  0
LINE
  5
27A
100
AcDbEntity
  8
0
  6
CONTINUOUS
 62
               4
100
AcDbLine
 10
6.4951905283838443
 20
52.24999999997226
 30
0.0
 11
6.3028767980293452
 21
52.088629619761377
 31
0.0
  0
LINE
  5
27B
100
AcDbEntity
  8
0
  6
CONTINUOUS
 62
               4
100
AcDbLine
 10
6.4951905283838443
 20
48.74999999997226
 30
0.0
 11
6.3028767980293452
 21
48.911370380183143
 31
0.0
  0
LINE
  5
27C
100
AcDbEntity
  8
0
  6
CONTINUOUS
 62
               4
100
AcDbLine
 10
4.7631397208150048
 20
45.74999999997226
 30
0.0
 11
4.5272320069567087
 21
45.835863385850416
 31
0.0
  0
LINE
  5
27D
100
AcDbEntity
  8
0
  6
CONTINUOUS
 62
               4
100
AcDbLine
 10
1.7320508075695926
 20
43.99999999997226
 30
0.0
 11
1.7756447910731623
 21
44.247233766061299
 31
0.0
  0
LINE
  5
27E
100
AcDbEntity
  8
0
  6
CONTINUOUS
 62
               4
100
AcDbLine
 10
-1.7320508075683136
 20
43.99999999997226
 30
0.0
 11
-1.7756447910718833
 21
44.247233766061299
 31
0.0
  0
LINE
  5
27F
100
AcDbEntity
  8
0
  6
CONTINUOUS
 62
               4
100
AcDbLine
 10
-4.7631397208137258
 20
45.74999999997226
 30
0.0
 11
-4.5272320069556571
 21
45.835863385850416
 31
0.0
  0
LINE
  5
280
100
AcDbEntity
  8
0
  6
CONTINUOUS
 62
               4
100
AcDbLine
 10
-6.4951905283827926
 20
48.74999999997226
 30
0.0
 11
-6.3028767980280662
 21
48.911370380183143
 31
0.0
  0
LINE
  5
281
100
AcDbEntity
  8
0
  6
CONTINUOUS
 62
               4
100
AcDbLine
 10
-6.4951905283827926
 20
52.24999999997226
 30
0.0
 11
-6.3028767980280662
 21
52.088629619761377
 31
0.0
  0
LINE
  5
282
100
AcDbEntity
  8
0
  6
CONTINUOUS
 62
               4
100
AcDbLine
 10
-4.7631397208137258
 20
55.24999999997226
 30
0.0
 11
-4.5272320069556571
 21
55.164136614094105
 31
0.0
  0
ARC
  5
283
100
AcDbEntity
  8
0
  6
CONTINUOUS
 62
               4
100
AcDbCircle
 10
0.0000000000005258
 20
50.49999999997226
 30
0.0
 40
6.5
100
AcDbArc
 50
105.85335236756191
 51
134.14664763243758
  0
ARC
  5
284
100
AcDbEntity
  8
0
  6
CONTINUOUS
 62
               4
100
AcDbCircle
 10
0.0000000000005258
 20
50.49999999997226
 30
0.0
 40
6.5
100
AcDbArc
 50
45.853352367561996
 51
74.146647632437677
  0
ARC
  5
285
100
AcDbEntity
  8
0
  6
CONTINUOUS
 62
               4
100
AcDbCircle
 10
0.0000000000005258
 20
50.49999999997226
 30
0.0
 40
6.5
100
AcDbArc
 50
345.85335236756129
 51
14.146647632437864
  0
ARC
  5
286
100
AcDbEntity
  8
0
  6
CONTINUOUS
 62
               4
100
AcDbCircle
 10
0.0000000000005258
 20
50.49999999997226
 30
0.0
 40
6.5
100
AcDbArc
 50
285.85335236756146
 51
314.14664763243718
  0
ARC
  5
287
100
AcDbEntity
  8
0
  6
CONTINUOUS
 62
               4
100
AcDbCircle
 10
0.0000000000005258
 20
50.49999999997226
 30
0.0
 40
6.5
100
AcDbArc
 50
225.8533523675616
 51
254.14664763243732
  0
LINE
  5
288
100
AcDbEntity
  8
0
  6
CONTINUOUS
 62
               4
100
AcDbLine
 10
-7.2499999999994742
 20
55.49999999997226
 30
0.0
 11
-4.8989794855657891
 21
55.49999999997226
 31
0.0
  0
ARC
  5
289
100
AcDbEntity
  8
0
  6
CONTINUOUS
 62
               4
100
AcDbCircle
 10
0.0000000000005258
 20
50.49999999997226
 30
0.0
 40
7.0
100
AcDbArc
 50
98.107391093313822
 51
141.89260890668567
  0
ARC
  5
28A
100
AcDbEntity
  8
0
  6
CONTINUOUS
 62
               4
100
AcDbCircle
 10
0.0000000000005258
 20
50.49999999997226
 30
0.0
 40
7.0
100
AcDbArc
 50
158.10739109331371
 51
201.89260890668552
  0
ARC
  5
28B
100
AcDbEntity
  8
0
  6
CONTINUOUS
 62
               4
100
AcDbCircle
 10
0.0000000000005258
 20
50.49999999997226
 30
0.0
 40
7.0
100
AcDbArc
 50
218.10739109331354
 51
261.89260890668538
  0
ARC
  5
28C
100
AcDbEntity
  8
0
  6
CONTINUOUS
 62
               4
100
AcDbCircle
 10
0.0000000000005258
 20
50.49999999997226
 30
0.0
 40
7.0
100
AcDbArc
 50
278.10739109331342
 51
321.89260890668527
  0
ARC
  5
28D
100
AcDbEntity
  8
0
  6
CONTINUOUS
 62
               4
100
AcDbCircle
 10
0.0000000000005258
 20
50.49999999997226
 30
0.0
 40
7.0
100
AcDbArc
 50
338.10739109331331
 51
21.892608906685858
  0
ARC
  5
28E
100
AcDbEntity
  8
0
  6
CONTINUOUS
 62
               4
100
AcDbCircle
 10
0.0000000000005258
 20
50.49999999997226
 30
0.0
 40
7.0
100
AcDbArc
 50
38.107391093313929
 51
81.892608906685837
  0
LINE
  5
28F
100
AcDbEntity
  8
0
  6
CONTINUOUS
 62
               4
100
AcDbLine
 10
4.8989794855670681
 20
55.49999999997226
 30
0.0
 11
7.2500000000005258
 21
55.49999999997226
 31
0.0
  0
ARC
  5
290
100
AcDbEntity
  8
0
  6
CONTINUOUS
 62
               4
100
AcDbCircle
 10
-7.2499999999994742
 20
54.99999999997226
 30
0.0
 40
0.5
100
AcDbArc
 50
89.999999999999815
 51
179.99999999999963
  0
ARC
  5
291
100
AcDbEntity
  8
0
  6
CONTINUOUS
 62
               4
100
AcDbCircle
 10
7.2500000000005258
 20
54.99999999997226
 30
0.0
 40
0.5
100
AcDbArc
 50
0.0
 51
89.999999999999815
  0
CIRCLE
  5
292
100
AcDbEntity
  8
0
  6
CONTINUOUS
 62
               4
100
AcDbCircle
 10
0.0000000000005258
 20
50.49999999997226
 30
0.0
 40
3.5
  0
LINE
  5
293
100
AcDbEntity
  8
0
  6
CONTINUOUS
 62
               4
100
AcDbLine
 10
-6.9999999999994742
 20
46.99999999997226
 30
0.0
 11
-6.9999999999994742
 21
53.99999999997226
 31
0.0
  0
LINE
  5
294
100
AcDbEntity
  8
0
  6
CONTINUOUS
 62
               4
100
AcDbLine
 10
-6.9999999999994742
 20
53.99999999997226
 30
0.0
 11
-6.4951905283827926
 21
53.99999999997226
 31
0.0
  0
LINE
  5
295
100
AcDbEntity
  8
0
  6
CONTINUOUS
 62
               4
100
AcDbLine
 10
-6.9999999999994742
 20
46.99999999997226
 30
0.0
 11
-6.4951905283827926
 21
46.99999999997226
 31
0.0
  0
LINE
  5
296
100
AcDbEntity
  8
0
  6
CONTINUOUS
 62
               4
100
AcDbLine
 10
7.0000000000005258
 20
53.99999999997226
 30
0.0
 11
6.4951905283838443
 21
53.99999999997226
 31
0.0
  0
LINE
  5
297
100
AcDbEntity
  8
0
  6
CONTINUOUS
 62
               4
100
AcDbLine
 10
7.0000000000005258
 20
46.99999999997226
 30
0.0
 11
7.0000000000005258
 21
53.99999999997226
 31
0.0
  0
LINE
  5
298
100
AcDbEntity
  8
0
  6
CONTINUOUS
 62
               4
100
AcDbLine
 10
7.0000000000005258
 20
46.99999999997226
 30
0.0
 11
6.4951905283838443
 21
46.99999999997226
 31
0.0
  0
LINE
  5
299
100
AcDbEntity
  8
0
  6
CENTER
 62
             200
100
AcDbLine
 10
-10.280775623268184
 20
50.49999999997226
 30
0.0
 11
10.493518005540707
 21
50.49999999997226
 31
0.0
  0
LINE
  5
29A
100
AcDbEntity
  8
0
  6
CONTINUOUS
 62
               4
100
AcDbLine
 10
-11.899999999981489
 20
39.000000000006821
 30
0.0
 11
-11.900000000003544
 21
0.0
 31
0.0
  0
LINE
  5
29B
100
AcDbEntity
  8
0
  6
CONTINUOUS
 62
               4
100
AcDbLine
 10
11.89999999999857
 20
0.0
 30
0.0
 11
11.900000000018238
 21
38.999999991078425
 31
0.0
  0
LINE
  5
29C
100
AcDbEntity
  8
0
  6
CENTER
 62
             200
100
AcDbLine
 10
-0.0000000000000426
 20
-4.9708179906839405
 30
0.0
 11
0.0000000000005258
 21
60.661108033213281
 31
0.0
  0
LINE
  5
29D
100
AcDbEntity
  8
0
  6
DASHED
 62
               2
100
AcDbLine
 10
-11.900000000003544
 20
0.0
 30
0.0
 11
11.89999999999857
 21
0.0
 31
0.0
  0
LINE
  5
29E
100
AcDbEntity
  8
0
  6
CONTINUOUS
 62
               4
100
AcDbLine
 10
9.300000000000221
 20
15.799999999998704
 30
0.0
 11
-9.2999999999997698
 21
15.799999999998704
 31
0.0
  0
LINE
  5
29F
100
AcDbEntity
  8
0
  6
CONTINUOUS
 62
               4
100
AcDbLine
 10
7.9000000000002757
 20
17.899999999998158
 30
0.0
 11
9.300000000000253
 21
17.899999999998158
 31
0.0
  0
LINE
  5
2A0
100
AcDbEntity
  8
0
  6
CONTINUOUS
 62
               4
100
AcDbLine
 10
7.9000000000002757
 20
15.799999999998704
 30
0.0
 11
7.9000000000002757
 21
17.899999999998158
 31
0.0
  0
ARC
  5
2A1
100
AcDbEntity
  8
0
  6
CONTINUOUS
 62
               4
100
AcDbCircle
 10
8.8000000000001393
 20
8.4999999999982947
 30
0.0
 40
0.5
100
AcDbArc
 50
269.9999999999979
 51
359.99999999999767
  0
LINE
  5
2A2
100
AcDbEntity
  8
0
  6
CONTINUOUS
 62
               4
100
AcDbLine
 10
8.8000000000001393
 20
7.9999999999985221
 30
0.0
 11
-8.7999999999998835
 21
7.9999999999985221
 31
0.0
  0
ARC
  5
2A3
100
AcDbEntity
  8
0
  6
CONTINUOUS
 62
               4
100
AcDbCircle
 10
-8.7999999999998835
 20
8.4999999999985221
 30
0.0
 40
0.5
100
AcDbArc
 50
179.99999999999963
 51
269.99999999999937
  0
LINE
  5
2A4
100
AcDbEntity
  8
0
  6
CONTINUOUS
 62
               4
100
AcDbLine
 10
-7.8999999999996788
 20
17.899999999998613
 30
0.0
 11
-9.2999999999996561
 21
17.899999999998613
 31
0.0
  0
LINE
  5
2A5
100
AcDbEntity
  8
0
  6
CONTINUOUS
 62
               4
100
AcDbLine
 10
-7.8999999999997925
 20
15.799999999998704
 30
0.0
 11
-7.8999999999996788
 21
17.899999999998613
 31
0.0
  0
LINE
  5
2A6
100
AcDbEntity
  8
0
  6
CONTINUOUS
 62
               4
100
AcDbLine
 10
3.5171572868647019
 20
9.4999999999985221
 30
0.0
 11
-3.5171572868644461
 21
9.4999999999985221
 31
0.0
  0
LINE
  5
2A7
100
AcDbEntity
  8
0
  6
CONTINUOUS
 62
               4
100
AcDbLine
 10
-0.1414213562371032
 20
13.358578643100259
 30
0.0
 11
-3.658578643101734
 21
9.8414213562358555
 31
0.0
  0
LINE
  5
2A8
100
AcDbEntity
  8
0
  6
CONTINUOUS
 62
               4
100
AcDbLine
 10
0.1414213562374727
 20
13.358578643100259
 30
0.0
 11
3.6585786431019898
 21
9.8414213562358555
 31
0.0
  0
ARC
  5
2A9
100
AcDbEntity
  8
0
  6
CONTINUOUS
 62
               4
100
AcDbCircle
 10
0.0000000000001847
 20
13.217157286862971
 30
0.0
 40
0.2
100
AcDbArc
 50
44.99999999999919
 51
134.99999999999898
  0
ARC
  5
2AA
100
AcDbEntity
  8
0
  6
CONTINUOUS
 62
               4
100
AcDbCircle
 10
-3.5171572868644461
 20
9.6999999999985675
 30
0.0
 40
0.2
100
AcDbArc
 50
134.99999999999793
 51
269.99999999999937
  0
ARC
  5
2AB
100
AcDbEntity
  8
0
  6
CONTINUOUS
 62
               4
100
AcDbCircle
 10
3.5171572868647019
 20
9.6999999999985675
 30
0.0
 40
0.2
100
AcDbArc
 50
269.99999999999937
 51
45.000000000000966
  0
LINE
  5
2AC
100
AcDbEntity
  8
0
  6
CONTINUOUS
 62
               4
100
AcDbLine
 10
10.699999999373588
 20
34.900000000000773
 30
0.0
 11
11.899999993413033
 21
34.900000000000659
 31
0.0
  0
LINE
  5
2AD
100
AcDbEntity
  8
0
  6
CONTINUOUS
 62
               4
100
AcDbLine
 10
10.699999999373588
 20
38.100000000000819
 30
0.0
 11
11.899999993413147
 21
38.100000000000705
 31
0.0
  0
ARC
  5
2AE
100
AcDbEntity
  8
0
  6
CONTINUOUS
 62
               4
100
AcDbCircle
 10
10.900000000000503
 20
38.999999999998408
 30
0.0
 40
1.0
100
AcDbArc
 50
359.99999999999847
 51
89.999999999998266
  0
LINE
  5
2AF
100
AcDbEntity
  8
0
  6
CONTINUOUS
 62
               4
100
AcDbLine
 10
-10.899999999999338
 20
39.999999999998749
 30
0.0
 11
10.900000000000617
 21
39.999999999998522
 31
0.0
  0
LINE
  5
2B0
100
AcDbEntity
  8
0
  6
CONTINUOUS
 62
               4
100
AcDbLine
 10
10.700000000000458
 20
34.900000000000773
 30
0.0
 11
10.700000000000571
 21
38.100000000000819
 31
0.0
  0
ARC
  5
2B1
100
AcDbEntity
  8
0
  6
CONTINUOUS
 62
               4
100
AcDbCircle
 10
-10.899999999999338
 20
38.999999999998749
 30
0.0
 40
1.0
100
AcDbArc
 50
89.999999999999815
 51
179.99999999999963
  0
LINE
  5
2B2
100
AcDbEntity
  8
0
  6
CONTINUOUS
 62
               4
100
AcDbLine
 10
-10.699999999372423
 20
38.100000000001046
 30
0.0
 11
-11.899999993412095
 21
38.100000000001046
 31
0.0
  0
LINE
  5
2B3
100
AcDbEntity
  8
0
  6
CONTINUOUS
 62
               4
100
AcDbLine
 10
8.0000000000005258
 20
33.499999999998522
 30
0.0
 11
8.0000000000004121
 21
26.499999999998522
 31
0.0
  0
LINE
  5
2B4
100
AcDbEntity
  8
0
  6
CONTINUOUS
 62
               4
100
AcDbLine
 10
2.0000000000005258
 20
33.499999999998636
 30
0.0
 11
2.0000000000004121
 21
26.499999999998636
 31
0.0
  0
LINE
  5
2B5
100
AcDbEntity
  8
0
  6
CONTINUOUS
 62
               4
100
AcDbLine
 10
-10.69999999999952
 20
34.900000000001
 30
0.0
 11
-10.69999999999952
 21
38.100000000001046
 31
0.0
  0
LINE
  5
2B6
100
AcDbEntity
  8
0
  6
CONTINUOUS
 62
               4
100
AcDbLine
 10
-10.699999999372423
 20
34.900000000001
 30
0.0
 11
-11.899999993412095
 21
34.900000000001
 31
0.0
  0
LINE
  5
2B7
100
AcDbEntity
  8
0
  6
CONTINUOUS
 62
               4
100
AcDbLine
 10
6.6000000000002075
 20
15.899999999999864
 30
0.0
 11
-6.5999999999997243
 21
15.899999999999864
 31
0.0
  0
LINE
  5
2B8
100
AcDbEntity
  8
0
  6
CONTINUOUS
 62
               4
100
AcDbLine
 10
8.8000000000001393
 20
7.8999999999998636
 30
0.0
 11
4.0000000000001847
 21
7.8999999999998636
 31
0.0
  0
ARC
  5
2B9
100
AcDbEntity
  8
0
  6
CONTINUOUS
 62
               4
100
AcDbCircle
 10
8.8000000000001393
 20
8.3999999999998636
 30
0.0
 40
0.5
100
AcDbArc
 50
269.99999999999937
 51
0.0
  0
LINE
  5
2BA
100
AcDbEntity
  8
0
  6
CONTINUOUS
 62
               4
100
AcDbLine
 10
-9.2999999999998835
 20
8.4000000000000909
 30
0.0
 11
-9.2999999999996561
 21
18.700207536078892
 31
0.0
  0
ARC
  5
2BB
100
AcDbEntity
  8
0
  6
CONTINUOUS
 62
               4
100
AcDbCircle
 10
-8.7999999999998835
 20
8.3999999999998636
 30
0.0
 40
0.5
100
AcDbArc
 50
179.99999999999963
 51
269.99999999999937
  0
LINE
  5
2BC
100
AcDbEntity
  8
0
  6
CONTINUOUS
 62
               4
100
AcDbLine
 10
-7.0999999999997243
 20
16.399999999999864
 30
0.0
 11
-7.0999999999997243
 21
17.999999994247673
 31
0.0
  0
ARC
  5
2BD
100
AcDbEntity
  8
0
  6
CONTINUOUS
 62
               4
100
AcDbCircle
 10
-6.5999999999997243
 20
16.399999999999864
 30
0.0
 40
0.5
100
AcDbArc
 50
179.99999999999963
 51
269.99999999999937
  0
ARC
  5
2BE
100
AcDbEntity
  8
0
  6
CONTINUOUS
 62
               4
100
AcDbCircle
 10
6.6000000000002075
 20
16.399999999999864
 30
0.0
 40
0.5
100
AcDbArc
 50
269.99999999999937
 51
0.0
  0
LINE
  5
2BF
100
AcDbEntity
  8
0
  6
CONTINUOUS
 62
               4
100
AcDbLine
 10
3.5000000000001847
 20
6.6999999999998181
 30
0.0
 11
-3.4999999999998153
 21
6.6999999999998181
 31
0.0
  0
LINE
  5
2C0
100
AcDbEntity
  8
0
  6
CONTINUOUS
 62
               4
100
AcDbLine
 10
4.0000000000001847
 20
7.1999999999998181
 30
0.0
 11
4.0000000000001847
 21
7.8999999999998636
 31
0.0
  0
ARC
  5
2C1
100
AcDbEntity
  8
0
  6
CONTINUOUS
 62
               4
100
AcDbCircle
 10
3.5000000000001847
 20
7.1999999999998181
 30
0.0
 40
0.5
100
AcDbArc
 50
269.99999999999937
 51
0.0
  0
LINE
  5
2C2
100
AcDbEntity
  8
0
  6
CONTINUOUS
 62
               4
100
AcDbLine
 10
-3.9999999999998153
 20
7.1999999999999318
 30
0.0
 11
-3.9999999999998153
 21
7.8999999999999773
 31
0.0
  0
ARC
  5
2C3
100
AcDbEntity
  8
0
  6
CONTINUOUS
 62
               4
100
AcDbCircle
 10
-3.4999999999998153
 20
7.1999999999999318
 30
0.0
 40
0.5
100
AcDbArc
 50
179.99999999999807
 51
269.9999999999979
  0
LINE
  5
2C4
100
AcDbEntity
  8
0
  6
CONTINUOUS
 62
               4
100
AcDbLine
 10
9.3000000000001393
 20
8.3999999999998636
 30
0.0
 11
9.300000000000253
 21
18.700207536078665
 31
0.0
  0
LINE
  5
2C5
100
AcDbEntity
  8
0
  6
CONTINUOUS
 62
               4
100
AcDbLine
 10
-7.0999999999997243
 20
17.999999994247673
 30
0.0
 11
-9.2999999999996561
 21
17.999999994247673
 31
0.0
  0
LINE
  5
2C6
100
AcDbEntity
  8
0
  6
CONTINUOUS
 62
               4
100
AcDbLine
 10
-7.8999999999996788
 20
18.700207536078892
 30
0.0
 11
-9.2999999874515851
 21
18.700207536078892
 31
0.0
  0
LINE
  5
2C7
100
AcDbEntity
  8
0
  6
CONTINUOUS
 62
               4
100
AcDbLine
 10
7.1000000000002075
 20
17.999999994247446
 30
0.0
 11
9.300000000000253
 21
17.999999994247446
 31
0.0
  0
LINE
  5
2C8
100
AcDbEntity
  8
0
  6
CONTINUOUS
 62
               4
100
AcDbLine
 10
-7.8999999999996788
 20
18.299999994247742
 30
0.0
 11
-7.8999999999996788
 21
18.700207536078892
 31
0.0
  0
LINE
  5
2C9
100
AcDbEntity
  8
0
  6
CONTINUOUS
 62
               4
100
AcDbLine
 10
7.1000000000002075
 20
16.399999999999636
 30
0.0
 11
7.1000000000002075
 21
17.999999994247446
 31
0.0
  0
ARC
  5
2CA
100
AcDbEntity
  8
0
  6
CONTINUOUS
 62
               4
100
AcDbCircle
 10
-7.5999999999997243
 20
18.299999994247628
 30
0.0
 40
0.3
100
AcDbArc
 50
179.99999999999963
 51
269.99999999999937
  0
LINE
  5
2CB
100
AcDbEntity
  8
0
  6
CONTINUOUS
 62
               4
100
AcDbLine
 10
7.9000000000002757
 20
18.700207536078665
 30
0.0
 11
9.2999999874520682
 21
18.700207536078665
 31
0.0
  0
ARC
  5
2CC
100
AcDbEntity
  8
0
  6
CONTINUOUS
 62
               4
100
AcDbCircle
 10
7.6000000000002075
 20
18.299999994247401
 30
0.0
 40
0.3
100
AcDbArc
 50
269.9999999999979
 51
359.99999999999767
  0
LINE
  5
2CD
100
AcDbEntity
  8
0
  6
CONTINUOUS
 62
               4
100
AcDbLine
 10
7.9000000000002757
 20
18.299999994247401
 30
0.0
 11
7.9000000000002757
 21
18.700207536078665
 31
0.0
  0
LINE
  5
2CE
100
AcDbEntity
  8
0
  6
CONTINUOUS
 62
               4
100
AcDbLine
 10
2.0000000000005258
 20
33.499999999998636
 30
0.0
 11
8.0000000000005258
 21
33.499999999998522
 31
0.0
  0
LINE
  5
2CF
100
AcDbEntity
  8
0
  6
CONTINUOUS
 62
               4
100
AcDbLine
 10
2.0000000000004121
 20
26.499999999998636
 30
0.0
 11
8.0000000000004121
 21
26.499999999998522
 31
0.0
  0
LINE
  5
2D0
100
AcDbEntity
  8
0
  6
CONTINUOUS
 62
               4
100
AcDbLine
 10
-1.9999999999995879
 20
33.499999999998636
 30
0.0
 11
-7.9999999999995879
 21
33.499999999998749
 31
0.0
  0
LINE
  5
2D1
100
AcDbEntity
  8
0
  6
CONTINUOUS
 62
               4
100
AcDbLine
 10
-1.9999999999997016
 20
26.499999999998636
 30
0.0
 11
-7.9999999999997016
 21
26.499999999998749
 31
0.0
  0
LINE
  5
2D2
100
AcDbEntity
  8
0
  6
CONTINUOUS
 62
               4
100
AcDbLine
 10
-1.9999999999995879
 20
33.499999999998636
 30
0.0
 11
-1.9999999999997016
 21
26.499999999998636
 31
0.0
  0
LINE
  5
2D3
100
AcDbEntity
  8
0
  6
CONTINUOUS
 62
               4
100
AcDbLine
 10
-7.9999999999995879
 20
33.499999999998749
 30
0.0
 11
-7.9999999999997016
 21
26.499999999998749
 31
0.0
  0
LINE
  5
2D4
100
AcDbEntity
  8
0
  6
CONTINUOUS
 62
               4
100
AcDbLine
 10
2.1000000000005485
 20
33.399999999998613
 30
0.0
 11
7.9000000000005031
 21
33.399999999998499
 31
0.0
  0
LINE
  5
2D5
100
AcDbEntity
  8
0
  6
CONTINUOUS
 62
               4
100
AcDbLine
 10
7.9000000000005031
 20
33.399999999998499
 30
0.0
 11
7.9000000000005031
 21
26.599999999998545
 31
0.0
  0
LINE
  5
2D6
100
AcDbEntity
  8
0
  6
CONTINUOUS
 62
               4
100
AcDbLine
 10
2.1000000000005485
 20
33.399999999998613
 30
0.0
 11
2.1000000000004349
 21
26.599999999998658
 31
0.0
  0
LINE
  5
2D7
100
AcDbEntity
  8
0
  6
CONTINUOUS
 62
               4
100
AcDbLine
 10
2.1000000000004349
 20
26.599999999998658
 30
0.0
 11
7.9000000000005031
 21
26.599999999998545
 31
0.0
  0
LINE
  5
2D8
100
AcDbEntity
  8
0
  6
CONTINUOUS
 62
               4
100
AcDbLine
 10
-2.0999999999996106
 20
33.399999999998613
 30
0.0
 11
-7.8999999999995651
 21
33.399999999998727
 31
0.0
  0
LINE
  5
2D9
100
AcDbEntity
  8
0
  6
CONTINUOUS
 62
               4
100
AcDbLine
 10
-7.8999999999995651
 20
33.399999999998727
 30
0.0
 11
-7.8999999999996788
 21
26.599999999998772
 31
0.0
  0
LINE
  5
2DA
100
AcDbEntity
  8
0
  6
CONTINUOUS
 62
               4
100
AcDbLine
 10
-2.0999999999996106
 20
33.399999999998613
 30
0.0
 11
-2.0999999999997243
 21
26.599999999998658
 31
0.0
  0
LINE
  5
2DB
100
AcDbEntity
  8
0
  6
CONTINUOUS
 62
               4
100
AcDbLine
 10
-2.0999999999997243
 20
26.599999999998658
 30
0.0
 11
-7.8999999999996788
 21
26.599999999998772
 31
0.0
  0
LINE
  5
2DC
100
AcDbEntity
  8
0
  6
CONTINUOUS
 62
               4
100
AcDbLine
 10
-3.9999999999998153
 20
7.8999999999998636
 30
0.0
 11
-8.7999999999998835
 21
7.8999999999998636
 31
0.0
  0
ENDBLK
  5
2DD
100
AcDbEntity
  8
0
100
AcDbBlockEnd
  0
BLOCK
  5
2DE
100
AcDbEntity
  8
0
100
AcDbBlockBegin
  2
PA24F6-7
 70
               0
 10
0.0
 20
0.0
 30
0.0
  3
PA24F6-7
  1

  0
LINE
  5
2DF
100
AcDbEntity
  8
0
  6
CONTINUOUS
 62
               4
100
AcDbLine
 10
21.500000010098802
 20
57.999999999997272
 30
0.0
 11
17.000000010098802
 21
57.999999999997954
 31
0.0
  0
LINE
  5
2E0
100
AcDbEntity
  8
0
  6
CONTINUOUS
 62
               4
100
AcDbLine
 10
14.000000010096755
 20
44.499999986069724
 30
0.0
 11
14.000000010098574
 21
56.499999999998408
 31
0.0
  0
LINE
  5
2E1
100
AcDbEntity
  8
0
  6
CONTINUOUS
 62
               4
100
AcDbLine
 10
13.000000010098802
 20
57.499999999998636
 30
0.0
 11
3.526983996056174
 21
57.5
 31
0.0
  0
LINE
  5
2E2
100
AcDbEntity
  8
0
  6
CONTINUOUS
 62
               4
100
AcDbLine
 10
13.000000010096528
 20
43.499999999998636
 30
0.0
 11
3.5000000100965281
 21
43.5
 31
0.0
  0
ARC
  5
2E3
100
AcDbEntity
  8
0
  6
CONTINUOUS
 62
               4
100
AcDbCircle
 10
13.000000010096755
 20
44.499999999998636
 30
0.0
 40
1.0
100
AcDbArc
 50
269.99999999999056
 51
359.99999999999039
  0
ARC
  5
2E4
100
AcDbEntity
  8
0
  6
CONTINUOUS
 62
               4
100
AcDbCircle
 10
13.000000010098574
 20
56.499999999998636
 30
0.0
 40
1.0
100
AcDbArc
 50
359.99999999999119
 51
89.99999999999099
  0
ARC
  5
2E5
100
AcDbEntity
  8
0
  6
CONTINUOUS
 62
               4
100
AcDbCircle
 10
3.5269839960560603
 20
56.5
 30
0.0
 40
1.0
100
AcDbArc
 50
89.99999999999099
 51
120.96375629734288
  0
LINE
  5
2E6
100
AcDbEntity
  8
0
  6
CONTINUOUS
 62
               4
100
AcDbLine
 10
22.000000010096528
 20
43.499999999997158
 30
0.0
 11
22.000000010098802
 21
57.499999999997272
 31
0.0
  0
LINE
  5
2E7
100
AcDbEntity
  8
0
  6
CONTINUOUS
 62
               4
100
AcDbLine
 10
21.500000010096528
 20
42.999999999997272
 30
0.0
 11
17.000000010096528
 21
42.999999999997954
 31
0.0
  0
LINE
  5
2E8
100
AcDbEntity
  8
0
  6
CONTINUOUS
 62
               4
100
AcDbLine
 10
17.000000010096528
 20
42.99999998606927
 30
0.0
 11
17.000000010098802
 21
57.99999998606927
 31
0.0
  0
LINE
  5
2E9
100
AcDbEntity
  8
0
  6
CONTINUOUS
 62
               4
100
AcDbLine
 10
16.000000010098461
 20
55.552999999998065
 30
0.0
 11
16.000000010096869
 21
45.44699999999807
 31
0.0
  0
LINE
  5
2EA
100
AcDbEntity
  8
0
  6
CONTINUOUS
 62
               4
100
AcDbLine
 10
15.053000010098572
 20
56.499999999998295
 30
0.0
 11
14.000000010098574
 21
56.499999999998408
 31
0.0
  0
LINE
  5
2EB
100
AcDbEntity
  8
0
  6
CONTINUOUS
 62
               4
100
AcDbLine
 10
15.053000010096753
 20
44.499999999998295
 30
0.0
 11
14.000000010096755
 21
44.499999999998408
 31
0.0
  0
LINE
  5
2EC
100
AcDbEntity
  8
0
  6
CONTINUOUS
 62
             200
100
AcDbLine
 10
14.000000010098461
 20
55.552999999998519
 30
0.0
 11
16.000000010098461
 21
55.552999999998065
 31
0.0
  0
LINE
  5
2ED
100
AcDbEntity
  8
0
  6
CONTINUOUS
 62
               4
100
AcDbLine
 10
17.000000010096869
 20
45.446999999997956
 30
0.0
 11
16.000000010096869
 21
45.44699999999807
 31
0.0
  0
LINE
  5
2EE
100
AcDbEntity
  8
0
  6
CENTER
 62
             200
100
AcDbLine
 10
25.733153595186309
 20
50.499999999996589
 30
0.0
 11
11.96018732608411
 21
50.499999999998749
 31
0.0
  0
LINE
  5
2EF
100
AcDbEntity
  8
0
  6
CONTINUOUS
 62
               4
100
AcDbLine
 10
3.5000000100960733
 20
40.514702703390071
 30
0.0
 11
3.500000010098347
 21
55.0
 31
0.0
  0
ARC
  5
2F0
100
AcDbEntity
  8
0
  6
CONTINUOUS
 62
               4
100
AcDbCircle
 10
3.000000010098347
 20
55.000000000000114
 30
0.0
 40
0.5
100
AcDbArc
 50
359.99999999999039
 51
89.99999999999099
  0
LINE
  5
2F1
100
AcDbEntity
  8
0
  6
CONTINUOUS
 62
               4
100
AcDbLine
 10
3.4995677645604246
 20
40.485303651788172
 30
0.0
 11
3.2794117748009057
 21
33.000000000000114
 31
0.0
  0
ARC
  5
2F2
100
AcDbEntity
  8
0
  6
CONTINUOUS
 62
               4
100
AcDbCircle
 10
2.5000000100960733
 20
40.514702703390299
 30
0.0
 40
1.0
100
AcDbArc
 50
358.31531568209414
 51
359.99999999999039
  0
LINE
  5
2F3
100
AcDbEntity
  8
0
  6
CONTINUOUS
 62
               4
100
AcDbLine
 10
22.0000000228614
 20
56.999999999997272
 30
0.0
 11
17.000000010098688
 21
56.999999999997954
 31
0.0
  0
LINE
  5
2F4
100
AcDbEntity
  8
0
  6
CONTINUOUS
 62
               4
100
AcDbLine
 10
22.000000022861059
 20
55.249999999997272
 30
0.0
 11
17.000000010098347
 21
55.249999999997954
 31
0.0
  0
LINE
  5
2F5
100
AcDbEntity
  8
0
  6
CONTINUOUS
 62
               4
100
AcDbLine
 10
21.544286638978974
 20
54.249999999997272
 30
0.0
 11
17.349826797638684
 21
54.249999999997954
 31
0.0
  0
LINE
  5
2F6
100
AcDbEntity
  8
0
  6
CONTINUOUS
 62
               4
100
AcDbLine
 10
22.000000022860604
 20
52.249999999997272
 30
0.0
 11
17.000000010097892
 21
52.249999999997954
 31
0.0
  0
LINE
  5
2F7
100
AcDbEntity
  8
0
  6
CONTINUOUS
 62
               4
100
AcDbLine
 10
22.000000022860149
 20
48.749999999997272
 30
0.0
 11
17.000000010097438
 21
48.749999999997954
 31
0.0
  0
LINE
  5
2F8
100
AcDbEntity
  8
0
  6
CONTINUOUS
 62
               4
100
AcDbLine
 10
21.544286638977837
 20
46.749999999997272
 30
0.0
 11
17.349826797637434
 21
46.749999999997954
 31
0.0
  0
LINE
  5
2F9
100
AcDbEntity
  8
0
  6
CONTINUOUS
 62
               4
100
AcDbLine
 10
22.000000010096983
 20
45.749999999997272
 30
0.0
 11
17.000000010096983
 21
45.749999999997954
 31
0.0
  0
LINE
  5
2FA
100
AcDbEntity
  8
0
  6
CONTINUOUS
 62
               4
100
AcDbLine
 10
22.000000022859354
 20
43.999999999997272
 30
0.0
 11
17.000000010096642
 21
43.999999999997954
 31
0.0
  0
LINE
  5
2FB
100
AcDbEntity
  8
0
  6
CONTINUOUS
 62
               4
100
AcDbLine
 10
0.7500000100959596
 20
39.500000000000455
 30
0.0
 11
0.7500000100976649
 21
50.500000000000455
 31
0.0
  0
ARC
  5
2FC
100
AcDbEntity
  8
0
  6
CONTINUOUS
 62
               4
100
AcDbCircle
 10
0.2500000100976649
 20
50.500000000000568
 30
0.0
 40
0.5
100
AcDbArc
 50
359.99999999999039
 51
89.99999999999099
  0
ARC
  5
2FD
100
AcDbEntity
  8
0
  6
CONTINUOUS
 62
               4
100
AcDbCircle
 10
0.2500000100959596
 20
39.500000000000568
 30
0.0
 40
0.5
100
AcDbArc
 50
269.99999999999056
 51
359.99999999999039
  0
LINE
  5
2FE
100
AcDbEntity
  8
0
  6
CONTINUOUS
 62
               4
100
AcDbLine
 10
10.500000010098233
 20
53.999999999998977
 30
0.0
 11
5.5000000100982334
 21
53.999999999999773
 31
0.0
  0
LINE
  5
2FF
100
AcDbEntity
  8
0
  6
CONTINUOUS
 62
               4
100
AcDbLine
 10
10.50000001009721
 20
46.999999999998977
 30
0.0
 11
5.5000000100972102
 21
46.999999999999773
 31
0.0
  0
LINE
  5
300
100
AcDbEntity
  8
0
  6
CONTINUOUS
 62
               4
100
AcDbLine
 10
11.50000001009721
 20
47.999999999998863
 30
0.0
 11
11.50000001009812
 21
52.999999999998863
 31
0.0
  0
LINE
  5
301
100
AcDbEntity
  8
0
  6
CONTINUOUS
 62
               4
100
AcDbLine
 10
4.5000000100972102
 20
47.999999999999886
 30
0.0
 11
4.5000000100981197
 21
52.999999999999886
 31
0.0
  0
ARC
  5
302
100
AcDbEntity
  8
0
  6
CONTINUOUS
 62
               4
100
AcDbCircle
 10
10.50000001009812
 20
52.999999999998977
 30
0.0
 40
1.0
100
AcDbArc
 50
359.99999999999039
 51
89.99999999999099
  0
ARC
  5
303
100
AcDbEntity
  8
0
  6
CONTINUOUS
 62
               4
100
AcDbCircle
 10
10.50000001009721
 20
47.999999999998977
 30
0.0
 40
1.0
100
AcDbArc
 50
269.99999999999056
 51
359.99999999999039
  0
ARC
  5
304
100
AcDbEntity
  8
0
  6
CONTINUOUS
 62
               4
100
AcDbCircle
 10
5.5000000100981197
 20
52.999999999999773
 30
0.0
 40
1.0
100
AcDbArc
 50
89.99999999999099
 51
179.99999999999079
  0
ARC
  5
305
100
AcDbEntity
  8
0
  6
CONTINUOUS
 62
               4
100
AcDbCircle
 10
5.5000000100972102
 20
47.999999999999773
 30
0.0
 40
1.0
100
AcDbArc
 50
179.99999999999079
 51
269.99999999999056
  0
LINE
  5
306
100
AcDbEntity
  8
0
  6
CONTINUOUS
 62
               4
100
AcDbLine
 10
10.500000010097892
 20
52.499999999998977
 30
0.0
 11
5.5000000100978923
 21
52.499999999999773
 31
0.0
  0
LINE
  5
307
100
AcDbEntity
  8
0
  6
CONTINUOUS
 62
               4
100
AcDbLine
 10
10.500000010097438
 20
48.499999999998977
 30
0.0
 11
5.5000000100974376
 21
48.499999999999773
 31
0.0
  0
LINE
  5
308
100
AcDbEntity
  8
0
  6
CONTINUOUS
 62
               4
100
AcDbLine
 10
3.0124882441414229
 20
57.357492927820431
 30
0.0
 11
0.7500000100984607
 21
55.500000000000455
 31
0.0
  0
LINE
  5
309
100
AcDbEntity
  8
0
  6
CONTINUOUS
 62
               4
100
AcDbLine
 10
16.000000010098461
 20
55.552999999998065
 30
0.0
 11
17.000000010098461
 21
55.552999999997951
 31
0.0
  0
LINE
  5
30A
100
AcDbEntity
  8
0
  6
CONTINUOUS
 62
             200
100
AcDbLine
 10
16.000000010096869
 20
45.44699999999807
 30
0.0
 11
14.000000010096869
 21
45.446999999998525
 31
0.0
  0
LINE
  5
30B
100
AcDbEntity
  8
0
  6
CONTINUOUS
 62
               4
100
AcDbLine
 10
22.000000010098802
 20
57.499999999997272
 30
0.0
 11
21.500000010098802
 21
57.999999999997272
 31
0.0
  0
LINE
  5
30C
100
AcDbEntity
  8
0
  6
CONTINUOUS
 62
               4
100
AcDbLine
 10
22.000000010096528
 20
43.499999999997158
 30
0.0
 11
21.500000010096528
 21
42.999999999997272
 31
0.0
  0
LINE
  5
30D
100
AcDbEntity
  8
0
  6
CONTINUOUS
 62
               4
100
AcDbLine
 10
16.000000010096869
 20
45.44699999999807
 30
0.0
 11
15.053000010096753
 21
44.499999999998295
 31
0.0
  0
LINE
  5
30E
100
AcDbEntity
  8
0
  6
CONTINUOUS
 62
               4
100
AcDbLine
 10
16.000000010098461
 20
55.552999999998065
 30
0.0
 11
15.053000010098572
 21
56.499999999998295
 31
0.0
  0
LINE
  5
30F
100
AcDbEntity
  8
0
  6
CONTINUOUS
 62
               4
100
AcDbLine
 10
5.5000000000001137
 20
6.199999999999477
 30
0.0
 11
0.5000000000001137
 21
6.199999999999477
 31
0.0
  0
LINE
  5
310
100
AcDbEntity
  8
0
  6
CONTINUOUS
 62
               4
100
AcDbLine
 10
5.5000000000001137
 20
5.7999999999994998
 30
0.0
 11
5.5000000000001137
 21
6.199999999999477
 31
0.0
  0
LINE
  5
311
100
AcDbEntity
  8
0
  6
CONTINUOUS
 62
               4
100
AcDbLine
 10
0.5000000000001137
 20
4.7499999999995453
 30
0.0
 11
0.5000000000001137
 21
5.7999999999994998
 31
0.0
  0
LINE
  5
312
100
AcDbEntity
  8
0
  6
CONTINUOUS
 62
               4
100
AcDbLine
 10
0.5000000000001137
 20
6.5499999999994998
 30
0.0
 11
0.5000000000001137
 21
6.199999999999477
 31
0.0
  0
LINE
  5
313
100
AcDbEntity
  8
0
  6
CONTINUOUS
 62
               4
100
AcDbLine
 10
0.5000000000001137
 20
4.7499999999995453
 30
0.0
 11
0.0
 21
4.7499999999995453
 31
0.0
  0
LINE
  5
314
100
AcDbEntity
  8
0
  6
CONTINUOUS
 62
               4
100
AcDbLine
 10
0.5000000000001137
 20
6.5499999999994998
 30
0.0
 11
0.0771115476978821
 21
6.5499999999994998
 31
0.0
  0
LINE
  5
315
100
AcDbEntity
  8
0
  6
CONTINUOUS
 62
               4
100
AcDbLine
 10
0.7500000000001137
 20
6.8999999999995225
 30
0.0
 11
5.2500000000001137
 21
6.8999999999995225
 31
0.0
  0
LINE
  5
316
100
AcDbEntity
  8
0
  6
CONTINUOUS
 62
               4
100
AcDbLine
 10
0.7499999836954885
 20
7.5612494865430335
 30
0.0
 11
0.7499999836952611
 21
6.1999999999995907
 31
0.0
  0
LINE
  5
317
100
AcDbEntity
  8
0
  6
CONTINUOUS
 62
               4
100
AcDbLine
 10
5.2499999836954885
 20
7.593745613097667
 30
0.0
 11
5.2499999836952611
 21
6.1999999999995907
 31
0.0
  0
ARC
  5
318
100
AcDbEntity
  8
0
  6
CONTINUOUS
 62
               4
100
AcDbCircle
 10
4.4499997929606252
 20
7.5937456130977807
 30
0.0
 40
0.800000011920929
100
AcDbArc
 50
359.99998201390565
 51
30.518595218099186
  0
LINE
  5
319
100
AcDbEntity
  8
0
  6
CONTINUOUS
 62
               4
100
AcDbLine
 10
5.8000000000001819
 20
5.7999999999992724
 30
0.0
 11
5.8000000000002956
 21
7.5000000000001137
 31
0.0
  0
LINE
  5
31A
100
AcDbEntity
  8
0
  6
CONTINUOUS
 62
               4
100
AcDbLine
 10
0.5000000000002274
 20
5.7999999999997272
 30
0.0
 11
5.8000000000001819
 21
5.7999999999992724
 31
0.0
  0
ARC
  5
31B
100
AcDbEntity
  8
0
  6
CONTINUOUS
 62
               4
100
AcDbCircle
 10
6.3000000000002956
 20
7.5000000000001137
 30
0.0
 40
0.5
100
AcDbArc
 50
89.999999999999815
 51
179.99999999999963
  0
LINE
  5
31C
100
AcDbEntity
  8
0
  6
CONTINUOUS
 62
               4
100
AcDbLine
 10
0.0
 20
0.0
 30
0.0
 11
35.800000000000523
 21
0.0000000000003411
 31
0.0
  0
LINE
  5
31D
100
AcDbEntity
  8
0
  6
CONTINUOUS
 62
               4
100
AcDbLine
 10
36.899999995466374
 20
38.100000000002353
 30
0.0
 11
35.799999999996999
 21
38.100000000002296
 31
0.0
  0
LINE
  5
31E
100
AcDbEntity
  8
0
  6
CONTINUOUS
 62
               4
100
AcDbLine
 10
36.899999995466487
 20
34.900000000002365
 30
0.0
 11
35.799999999997681
 21
34.900000000002308
 31
0.0
  0
LINE
  5
31F
100
AcDbEntity
  8
0
  6
CONTINUOUS
 62
               4
100
AcDbLine
 10
35.79999999999734
 20
40.000000000000341
 30
0.0
 11
36.399999999997362
 21
40.000000000000398
 31
0.0
  0
ARC
  5
320
100
AcDbEntity
  8
0
  6
CONTINUOUS
 62
               4
100
AcDbCircle
 10
36.399999999997362
 20
39.500000000000398
 30
0.0
 40
0.5
100
AcDbArc
 50
0.0000000000006361
 51
90.000000000000441
  0
ARC
  5
321
100
AcDbEntity
  8
0
  6
CONTINUOUS
 62
               4
100
AcDbCircle
 10
36.399999999997476
 20
35.500000000002387
 30
0.0
 40
0.5
100
AcDbArc
 50
270.00000000000125
 51
0.000000000001832
  0
ARC
  5
322
100
AcDbEntity
  8
0
  6
CONTINUOUS
 62
               4
100
AcDbCircle
 10
36.399999999997362
 20
37.500000000002387
 30
0.0
 40
0.5
100
AcDbArc
 50
0.0000000000018066
 51
90.000000000001606
  0
LINE
  5
323
100
AcDbEntity
  8
0
  6
CONTINUOUS
 62
               4
100
AcDbLine
 10
35.799999999997453
 20
37.999999985762997
 30
0.0
 11
35.79999999999734
 21
39.99999998576294
 31
0.0
  0
LINE
  5
324
100
AcDbEntity
  8
0
  6
CONTINUOUS
 62
               4
100
AcDbLine
 10
35.799999999997453
 20
38.000000000002331
 30
0.0
 11
36.399999999997362
 21
38.000000000002387
 31
0.0
  0
LINE
  5
325
100
AcDbEntity
  8
0
  6
CONTINUOUS
 62
               4
100
AcDbLine
 10
35.799999999997567
 20
35.000000000002331
 30
0.0
 11
36.39999999999759
 21
35.000000000002387
 31
0.0
  0
LINE
  5
326
100
AcDbEntity
  8
0
  6
CONTINUOUS
 62
               4
100
AcDbLine
 10
36.899999995467397
 20
0.0000000000003411
 30
0.0
 11
36.89999999546626
 21
39.500000000000398
 31
0.0
  0
ARC
  5
327
100
AcDbEntity
  8
0
  6
CONTINUOUS
 62
               4
100
AcDbCircle
 10
1.4999999999998863
 20
32.500000000000114
 30
0.0
 40
0.5
100
AcDbArc
 50
89.999999999999815
 51
179.99999999999963
  0
ARC
  5
328
100
AcDbEntity
  8
0
  6
CONTINUOUS
 62
               4
100
AcDbCircle
 10
0.4999999999998863
 20
16.500000000000114
 30
0.0
 40
0.5
100
AcDbArc
 50
269.99999999999937
 51
0.0
  0
ARC
  5
329
100
AcDbEntity
  8
0
  6
CONTINUOUS
 62
               4
100
AcDbCircle
 10
2.0000000000004547
 20
5.99999999999784
 30
0.0
 40
2.0
100
AcDbArc
 50
89.999999999999815
 51
179.99999999999963
  0
LINE
  5
32A
100
AcDbEntity
  8
0
  6
CONTINUOUS
 62
               4
100
AcDbLine
 10
2.0000000000004547
 20
7.99999999999784
 30
0.0
 11
7.9999999999994316
 21
7.99999999999784
 31
0.0
  0
LINE
  5
32B
100
AcDbEntity
  8
0
  6
CONTINUOUS
 62
               4
100
AcDbLine
 10
0.9999999999998863
 20
32.500000000000114
 30
0.0
 11
0.9999999999998863
 21
16.500000000000114
 31
0.0
  0
LINE
  5
32C
100
AcDbEntity
  8
0
  6
DASHED
 62
             200
100
AcDbLine
 10
1.9999999999998863
 20
32.999999973150807
 30
0.0
 11
1.9999999999998863
 21
15.000000000000114
 31
0.0
  0
LINE
  5
32D
100
AcDbEntity
  8
0
  6
CONTINUOUS
 62
               4
100
AcDbLine
 10
3.7999999999999545
 20
33.000000000000114
 30
0.0
 11
3.7999999999998408
 21
39.0
 31
0.0
  0
ARC
  5
32E
100
AcDbEntity
  8
0
  6
CONTINUOUS
 62
               4
100
AcDbCircle
 10
4.7999999999998408
 20
39.0
 30
0.0
 40
1.0
100
AcDbArc
 50
89.999999999999815
 51
179.99999999999963
  0
LINE
  5
32F
100
AcDbEntity
  8
0
  6
DASHED
 62
             200
100
AcDbLine
 10
8.0
 20
37.100000012398823
 30
0.0
 11
8.0
 21
34.099999990464994
 31
0.0
  0
LINE
  5
330
100
AcDbEntity
  8
0
  6
CONTINUOUS
 62
               4
100
AcDbLine
 10
8.0
 20
40.0
 30
0.0
 11
8.0
 21
7.99999999999784
 31
0.0
  0
LINE
  5
331
100
AcDbEntity
  8
0
  6
CONTINUOUS
 62
               4
100
AcDbLine
 10
7.9999999999999716
 20
40.000000000000028
 30
0.0
 11
35.79999999999734
 21
40.000000000000341
 31
0.0
  0
LINE
  5
332
100
AcDbEntity
  8
0
  6
CONTINUOUS
 62
               4
100
AcDbLine
 10
0.0
 20
0.0
 30
0.0
 11
0.0000000000004547
 21
5.9999999999979536
 31
0.0
  0
LINE
  5
333
100
AcDbEntity
  8
0
  6
CONTINUOUS
 62
               4
100
AcDbLine
 10
35.800000000000523
 20
0.0000000000003411
 30
0.0
 11
35.799999999997681
 21
35.000000000002331
 31
0.0
  0
LINE
  5
334
100
AcDbEntity
  8
0
  6
CONTINUOUS
 62
               4
100
AcDbLine
 10
36.999999995469125
 20
26.60000000000025
 30
0.0
 11
36.999999995469125
 21
33.399999995469443
 31
0.0
  0
LINE
  5
335
100
AcDbEntity
  8
0
  6
CONTINUOUS
 62
               4
100
AcDbLine
 10
36.89999999093834
 20
33.500000000000227
 30
0.0
 11
36.999999995469125
 21
33.399999995469443
 31
0.0
  0
LINE
  5
336
100
AcDbEntity
  8
0
  6
CONTINUOUS
 62
               4
100
AcDbLine
 10
36.999999995469125
 20
26.60000000000025
 30
0.0
 11
36.899999995469102
 21
26.500000000000227
 31
0.0
  0
LINE
  5
337
100
AcDbEntity
  8
0
  6
CONTINUOUS
 62
               4
100
AcDbLine
 10
-11.999999989903927
 20
40.514702703392459
 30
0.0
 11
-11.999999989901653
 21
55.000000000002501
 31
0.0
  0
ARC
  5
338
100
AcDbEntity
  8
0
  6
CONTINUOUS
 62
               4
100
AcDbCircle
 10
-11.499999989901653
 20
55.000000000002387
 30
0.0
 40
0.5
100
AcDbArc
 50
89.99999999999099
 51
179.99999999999079
  0
LINE
  5
339
100
AcDbEntity
  8
0
  6
CONTINUOUS
 62
               4
100
AcDbLine
 10
-11.999567744368278
 20
40.485303651790559
 30
0.0
 11
-11.779411754610805
 21
33.000000000000398
 31
0.0
  0
ARC
  5
33A
100
AcDbEntity
  8
0
  6
CONTINUOUS
 62
               4
100
AcDbCircle
 10
-10.999999989903927
 20
40.514702703392345
 30
0.0
 40
1.0
100
AcDbArc
 50
179.99999999999079
 51
181.68468431788708
  0
LINE
  5
33B
100
AcDbEntity
  8
0
  6
CONTINUOUS
 62
               4
100
AcDbLine
 10
-9.2499999899040404
 20
39.500000000002046
 30
0.0
 11
-9.2499999899023351
 21
50.500000000002046
 31
0.0
  0
ARC
  5
33C
100
AcDbEntity
  8
0
  6
CONTINUOUS
 62
               4
100
AcDbCircle
 10
-8.7499999899023351
 20
50.500000000001933
 30
0.0
 40
0.5
100
AcDbArc
 50
89.99999999999099
 51
179.99999999999079
  0
ARC
  5
33D
100
AcDbEntity
  8
0
  6
CONTINUOUS
 62
               4
100
AcDbCircle
 10
-8.7499999899040404
 20
39.500000000001933
 30
0.0
 40
0.5
100
AcDbArc
 50
179.99999999999079
 51
269.99999999999056
  0
ARC
  5
33E
100
AcDbEntity
  8
0
  6
CONTINUOUS
 62
               4
100
AcDbCircle
 10
-9.4999999999995453
 20
32.500000000000341
 30
0.0
 40
0.5
100
AcDbArc
 50
0.0
 51
89.999999999999815
  0
ARC
  5
33F
100
AcDbEntity
  8
0
  6
CONTINUOUS
 62
               4
100
AcDbCircle
 10
-8.4999999999995453
 20
16.500000000000114
 30
0.0
 40
0.5
100
AcDbArc
 50
179.99999999999963
 51
269.99999999999937
  0
ARC
  5
340
100
AcDbEntity
  8
0
  6
CONTINUOUS
 62
               4
100
AcDbCircle
 10
-1.4999999999976126
 20
2.4999999915609692
 30
0.0
 40
0.5
100
AcDbArc
 50
179.99999999999963
 51
269.99999999999937
  0
ARC
  5
341
100
AcDbEntity
  8
0
  6
CONTINUOUS
 62
               4
100
AcDbCircle
 10
-11.499999999999545
 20
12.49999999155807
 30
0.0
 40
0.5
100
AcDbArc
 50
179.99999999999963
 51
269.99999999999937
  0
LINE
  5
342
100
AcDbEntity
  8
0
  6
CONTINUOUS
 62
               4
100
AcDbLine
 10
-2.4999999999977263
 20
11.999999991558468
 30
0.0
 11
-11.499999999999545
 21
11.99999999155807
 31
0.0
  0
ARC
  5
343
100
AcDbEntity
  8
0
  6
CONTINUOUS
 62
               4
100
AcDbCircle
 10
-1.9999999999995453
 20
11.999999991558468
 30
0.0
 40
10.0
100
AcDbArc
 50
180.0000000000021
 51
270.00000000000193
  0
LINE
  5
344
100
AcDbEntity
  8
0
  6
CONTINUOUS
 62
               4
100
AcDbLine
 10
-1.9999999999976126
 20
11.499999991558468
 30
0.0
 11
-1.9999999999976126
 21
2.4999999915609692
 31
0.0
  0
ARC
  5
345
100
AcDbEntity
  8
0
  6
CONTINUOUS
 62
               4
100
AcDbCircle
 10
-2.4999999999976126
 20
11.499999991558468
 30
0.0
 40
0.5
100
AcDbArc
 50
0.000000000002519
 51
90.000000000002316
  0
LINE
  5
346
100
AcDbEntity
  8
0
  6
CONTINUOUS
 62
               4
100
AcDbLine
 10
-11.999999999999545
 20
11.999999991558468
 30
0.0
 11
-11.999999999999545
 21
33.000000000007788
 31
0.0
  0
LINE
  5
347
100
AcDbEntity
  8
0
  6
CONTINUOUS
 62
               4
100
AcDbLine
 10
-8.9999999999995453
 20
16.500000000000114
 30
0.0
 11
-8.9999999999995453
 21
32.500000000000341
 31
0.0
  0
LINE
  5
348
100
AcDbEntity
  8
0
  6
DASHED
 62
             200
100
AcDbLine
 10
-9.9999999999995453
 20
15.000000000000114
 30
0.0
 11
-9.9999999999995453
 21
33.000000000000398
 31
0.0
  0
LINE
  5
349
100
AcDbEntity
  8
0
  6
CONTINUOUS
 62
               4
100
AcDbLine
 10
3.7999999999999545
 20
33.000000000000114
 30
0.0
 11
-11.999999999999545
 21
33.000000000000398
 31
0.0
  0
LINE
  5
34A
100
AcDbEntity
  8
0
  6
DASHED
 62
             200
100
AcDbLine
 10
-9.9999999999995453
 20
15.000000000000114
 30
0.0
 11
1.9999999999998863
 21
15.000000000000114
 31
0.0
  0
LINE
  5
34B
100
AcDbEntity
  8
0
  6
CONTINUOUS
 62
               4
100
AcDbLine
 10
-8.4999999999995453
 20
16.000000000000114
 30
0.0
 11
0.4999999999998863
 21
16.000000000000114
 31
0.0
  0
LINE
  5
34C
100
AcDbEntity
  8
0
  6
CONTINUOUS
 62
               4
100
AcDbLine
 10
-2.2999999999994998
 20
1.9999999915609692
 30
0.0
 11
0.0000000000001137
 21
1.9999999915609692
 31
0.0
  0
LINE
  5
34D
100
AcDbEntity
  8
0
  6
CONTINUOUS
 62
               4
100
AcDbLine
 10
0.2500000100958459
 20
39.000000000000568
 30
0.0
 11
-8.7499999899041541
 21
39.000000000001933
 31
0.0
  0
LINE
  5
34E
100
AcDbEntity
  8
0
  6
CONTINUOUS
 62
               4
100
AcDbLine
 10
0.2500000100976649
 20
51.000000000000568
 30
0.0
 11
-8.7499999899023351
 21
51.000000000001933
 31
0.0
  0
LINE
  5
34F
100
AcDbEntity
  8
0
  6
CONTINUOUS
 62
               4
100
AcDbLine
 10
3.0000000100984607
 20
55.500000000000114
 30
0.0
 11
-11.499999989901539
 21
55.500000000002387
 31
0.0
  0
LINE
  5
350
100
AcDbEntity
  8
0
  6
CONTINUOUS
 62
               4
100
AcDbLine
 10
7.9999999999999716
 20
40.000000000000028
 30
0.0
 11
4.7999999999998408
 21
40.000000000000028
 31
0.0
  0
ENDBLK
  5
351
100
AcDbEntity
  8
0
100
AcDbBlockEnd
  0
BLOCK
  5
352
100
AcDbEntity
  8
0
100
AcDbBlockBegin
  2
PA24F6-8
 70
               0
 10
0.0
 20
0.0
 30
0.0
  3
PA24F6-8
  1

  0
LINE
  5
353
100
AcDbEntity
  8
0
  6
CENTER
 62
             200
100
AcDbLine
 10
-10.28077562326871
 20
50.500000000010573
 30
0.0
 11
10.493518005539954
 21
50.500000000010573
 31
0.0
  0
LINE
  5
354
100
AcDbEntity
  8
0
  6
CENTER
 62
             200
100
AcDbLine
 10
0.0
 20
26.680299168985641
 30
0.0
 11
0.0
 21
60.661108033251594
 31
0.0
  0
ARC
  5
355
100
AcDbEntity
  8
0
  6
CONTINUOUS
 62
               4
100
AcDbCircle
 10
-6.75
 20
40.514702703400701
 30
0.0
 40
1.0
100
AcDbArc
 50
179.99999999999963
 51
181.68468431789586
  0
ARC
  5
356
100
AcDbEntity
  8
0
  6
CONTINUOUS
 62
               4
100
AcDbCircle
 10
6.75
 20
40.514702703400644
 30
0.0
 40
1.0
100
AcDbArc
 50
358.31531568210374
 51
0.0
  0
LINE
  5
357
100
AcDbEntity
  8
0
  6
CONTINUOUS
 62
               4
100
AcDbLine
 10
-7.5
 20
32.000000000010573
 30
0.0
 11
7.5
 21
32.000000000010573
 31
0.0
  0
LINE
  5
358
100
AcDbEntity
  8
0
  6
CONTINUOUS
 62
               4
100
AcDbLine
 10
-7.5
 20
32.000000000010573
 30
0.0
 11
-7.5
 21
31.000000000010573
 31
0.0
  0
LINE
  5
359
100
AcDbEntity
  8
0
  6
CONTINUOUS
 62
               4
100
AcDbLine
 10
7.5
 20
32.000000000010573
 30
0.0
 11
7.5
 21
31.000000000010573
 31
0.0
  0
LINE
  5
35A
100
AcDbEntity
  8
0
  6
CONTINUOUS
 62
               4
100
AcDbLine
 10
-7.7495677544643513
 20
40.485303651798802
 30
0.0
 11
-7.5
 21
32.000000000010573
 31
0.0
  0
LINE
  5
35B
100
AcDbEntity
  8
0
  6
CONTINUOUS
 62
               4
100
AcDbLine
 10
7.7495677544643513
 20
40.485303651798745
 30
0.0
 11
7.5
 21
32.000000000010573
 31
0.0
  0
ARC
  5
35C
100
AcDbEntity
  8
0
  6
CONTINUOUS
 62
               4
100
AcDbCircle
 10
7.25
 20
55.000000000010573
 30
0.0
 40
0.5
100
AcDbArc
 50
0.0
 51
89.999999999999815
  0
ARC
  5
35D
100
AcDbEntity
  8
0
  6
CONTINUOUS
 62
               4
100
AcDbCircle
 10
-7.25
 20
55.000000000010573
 30
0.0
 40
0.5
100
AcDbArc
 50
89.999999999999815
 51
179.99999999999963
  0
LINE
  5
35E
100
AcDbEntity
  8
0
  6
CONTINUOUS
 62
               4
100
AcDbLine
 10
-7.25
 20
55.500000000010573
 30
0.0
 11
7.25
 21
55.500000000010573
 31
0.0
  0
ARC
  5
35F
100
AcDbEntity
  8
0
  6
CONTINUOUS
 62
               4
100
AcDbCircle
 10
0.0
 20
50.500000000010573
 30
0.0
 40
7.0
100
AcDbArc
 50
45.584691402806847
 51
134.41530859719276
  0
LINE
  5
360
100
AcDbEntity
  8
0
  6
CONTINUOUS
 62
               4
100
AcDbLine
 10
0.0
 20
58.000000000010573
 30
0.0
 11
-0.9872025991885494
 21
57.430038313624379
 31
0.0
  0
LINE
  5
361
100
AcDbEntity
  8
0
  6
CONTINUOUS
 62
               4
100
AcDbLine
 10
0.0
 20
58.000000000010573
 30
0.0
 11
0.9872025991885494
 21
57.430038313624379
 31
0.0
  0
LINE
  5
362
100
AcDbEntity
  8
0
  6
CONTINUOUS
 62
               4
100
AcDbLine
 10
-7.75
 20
40.514702703400701
 30
0.0
 11
-7.75
 21
55.000000000010573
 31
0.0
  0
LINE
  5
363
100
AcDbEntity
  8
0
  6
CONTINUOUS
 62
               4
100
AcDbLine
 10
7.75
 20
40.514702703400644
 30
0.0
 11
7.75
 21
55.000000000010573
 31
0.0
  0
LINE
  5
364
100
AcDbEntity
  8
0
  6
DASHED
 62
             200
100
AcDbLine
 10
10.899999999999181
 20
16.00000000000432
 30
0.0
 11
11.900000012938108
 21
16.00000000000432
 31
0.0
  0
LINE
  5
365
100
AcDbEntity
  8
0
  6
DASHED
 62
             200
100
AcDbLine
 10
9.9000000129381078
 20
15.00000000000432
 30
0.0
 11
10.899999999999181
 21
15.00000000000432
 31
0.0
  0
LINE
  5
366
100
AcDbEntity
  8
0
  6
DASHED
 62
             200
100
AcDbLine
 10
10.899999999999181
 20
15.00000000000432
 30
0.0
 11
10.900000000000091
 21
33.000000000009948
 31
0.0
  0
LINE
  5
367
100
AcDbEntity
  8
0
  6
DASHED
 62
             200
100
AcDbLine
 10
9.8999999999991815
 20
15.00000000000432
 30
0.0
 11
9.9000000000000909
 21
33.000000000010004
 31
0.0
  0
ARC
  5
368
100
AcDbEntity
  8
0
  6
CONTINUOUS
 62
               4
100
AcDbCircle
 10
11.400000000000091
 20
32.500000000009891
 30
0.0
 40
0.5
100
AcDbArc
 50
0.0
 51
89.999999999999815
  0
LINE
  5
369
100
AcDbEntity
  8
0
  6
CONTINUOUS
 62
               4
100
AcDbLine
 10
8.0999999999983174
 20
3.0000000000125624
 30
0.0
 11
8.0999999999989996
 21
11.499999991561594
 31
0.0
  0
LINE
  5
36A
100
AcDbEntity
  8
0
  6
CONTINUOUS
 62
               4
100
AcDbLine
 10
10.899999998980547
 20
11.99999999156131
 30
0.0
 11
8.5999999870596184
 21
11.999999991561538
 31
0.0
  0
ARC
  5
36B
100
AcDbEntity
  8
0
  6
CONTINUOUS
 62
               4
100
AcDbCircle
 10
8.5999999999989996
 20
11.499999991561538
 30
0.0
 40
0.5
100
AcDbArc
 50
89.999999999993619
 51
179.99999999999341
  0
ARC
  5
36C
100
AcDbEntity
  8
0
  6
CONTINUOUS
 62
               4
100
AcDbCircle
 10
10.899999999998954
 20
12.99999999156131
 30
0.0
 40
1.0
100
AcDbArc
 50
269.99999999999318
 51
359.99999999999301
  0
ARC
  5
36D
100
AcDbEntity
  8
0
  6
CONTINUOUS
 62
               4
100
AcDbCircle
 10
7.0999999999983174
 20
3.0000000000125624
 30
0.0
 40
1.0
100
AcDbArc
 50
269.99999999999636
 51
359.99999999999608
  0
ARC
  5
36E
100
AcDbEntity
  8
0
  6
CONTINUOUS
 62
               4
100
AcDbCircle
 10
-10.900000000001
 20
12.999999991562447
 30
0.0
 40
1.0
100
AcDbArc
 50
179.99999999999963
 51
269.99999999999937
  0
ARC
  5
36F
100
AcDbEntity
  8
0
  6
CONTINUOUS
 62
               4
100
AcDbCircle
 10
-8.6000000000012733
 20
11.499999991562447
 30
0.0
 40
0.5
100
AcDbArc
 50
0.0
 51
89.999999999999815
  0
LINE
  5
370
100
AcDbEntity
  8
0
  6
CONTINUOUS
 62
               4
100
AcDbLine
 10
-10.899999998982821
 20
11.999999991562447
 30
0.0
 11
-8.5999999870618922
 21
11.999999991562447
 31
0.0
  0
LINE
  5
371
100
AcDbEntity
  8
0
  6
CONTINUOUS
 62
               4
100
AcDbLine
 10
7.7000000000000455
 20
31.000000000010118
 30
0.0
 11
7.7000000000000455
 21
33.000000000010118
 31
0.0
  0
LINE
  5
372
100
AcDbEntity
  8
0
  6
CONTINUOUS
 62
               4
100
AcDbLine
 10
11.400000000000091
 20
33.000000000009891
 30
0.0
 11
7.7000000000000455
 21
33.000000000010118
 31
0.0
  0
ARC
  5
373
100
AcDbEntity
  8
0
  6
CONTINUOUS
 62
               4
100
AcDbCircle
 10
-11.399999999999864
 20
32.500000000011084
 30
0.0
 40
0.5
100
AcDbArc
 50
90.000000000002316
 51
180.0000000000021
  0
LINE
  5
374
100
AcDbEntity
  8
0
  6
CONTINUOUS
 62
               4
100
AcDbLine
 10
-11.400000000000091
 20
33.000000000011084
 30
0.0
 11
-7.7000000000000455
 21
33.000000000010971
 31
0.0
  0
LINE
  5
375
100
AcDbEntity
  8
0
  6
CONTINUOUS
 62
               4
100
AcDbLine
 10
-7.7000000000000455
 20
31.000000000010971
 30
0.0
 11
-7.7000000000000455
 21
33.000000000010971
 31
0.0
  0
LINE
  5
376
100
AcDbEntity
  8
0
  6
CONTINUOUS
 62
               4
100
AcDbLine
 10
7.0999999953266979
 20
12.000000000001876
 30
0.0
 11
-7.1000000000019554
 21
12.000000000001307
 31
0.0
  0
ARC
  5
377
100
AcDbEntity
  8
0
  6
CONTINUOUS
 62
               4
100
AcDbCircle
 10
10.899999999998499
 20
3.000000000012335
 30
0.0
 40
1.0
100
AcDbArc
 50
270.00000000000193
 51
0.0000000000025444
  0
ARC
  5
378
100
AcDbEntity
  8
0
  6
CONTINUOUS
 62
               4
100
AcDbCircle
 10
-10.900000000001455
 20
3.0000000000134719
 30
0.0
 40
1.0
100
AcDbArc
 50
180.0000000000021
 51
270.00000000000193
  0
ARC
  5
379
100
AcDbEntity
  8
0
  6
CONTINUOUS
 62
               4
100
AcDbCircle
 10
10.900000000000318
 20
38.999999991574271
 30
0.0
 40
1.0
100
AcDbArc
 50
0.000000000002519
 51
90.000000000002316
  0
ARC
  5
37A
100
AcDbEntity
  8
0
  6
CONTINUOUS
 62
               4
100
AcDbCircle
 10
-10.899999999999636
 20
38.999999991575351
 30
0.0
 40
1.0
100
AcDbArc
 50
90.000000000002316
 51
180.0000000000021
  0
LINE
  5
37B
100
AcDbEntity
  8
0
  6
CONTINUOUS
 62
               4
100
AcDbLine
 10
-10.899999999999636
 20
39.999999991575351
 30
0.0
 11
-7.75
 21
39.99999999157518
 31
0.0
  0
LINE
  5
37C
100
AcDbEntity
  8
0
  6
CONTINUOUS
 62
               4
100
AcDbLine
 10
-7.7000000000000455
 20
31.000000000010971
 30
0.0
 11
7.7000000000000455
 21
31.000000000010175
 31
0.0
  0
LINE
  5
37D
100
AcDbEntity
  8
0
  6
CONTINUOUS
 62
               4
100
AcDbLine
 10
-10.900000000001683
 20
2.0000000000134719
 30
0.0
 11
10.899999999998272
 21
2.000000000012335
 31
0.0
  0
LINE
  5
37E
100
AcDbEntity
  8
0
  6
CONTINUOUS
 62
               4
100
AcDbLine
 10
11.899999999998272
 20
0.0
 30
0.0
 11
11.900000000000318
 21
38.999999991574157
 31
0.0
  0
LINE
  5
37F
100
AcDbEntity
  8
0
  6
CONTINUOUS
 62
               4
100
AcDbLine
 10
-11.900000000001683
 20
0.0
 30
0.0
 11
-11.899999999999636
 21
38.999999991575351
 31
0.0
  0
ARC
  5
380
100
AcDbEntity
  8
0
  6
CONTINUOUS
 62
               4
100
AcDbCircle
 10
-7.1000000000015007
 20
3.0000000000133014
 30
0.0
 40
1.0
100
AcDbArc
 50
179.99999999999653
 51
269.99999999999636
  0
LINE
  5
381
100
AcDbEntity
  8
0
  6
CONTINUOUS
 62
               4
100
AcDbLine
 10
-8.1000000000015007
 20
3.000000000013415
 30
0.0
 11
-8.1000000000010459
 21
11.499999991562447
 31
0.0
  0
LINE
  5
382
100
AcDbEntity
  8
0
  6
CONTINUOUS
 62
               4
100
AcDbLine
 10
7.75
 20
39.999999991574441
 30
0.0
 11
10.900000000000546
 21
39.999999991574271
 31
0.0
  0
LINE
  5
383
100
AcDbEntity
  8
0
  6
DASHED
 62
             200
100
AcDbLine
 10
-10.899999999999409
 20
16.00000000000432
 30
0.0
 11
-11.900000012938335
 21
16.00000000000432
 31
0.0
  0
LINE
  5
384
100
AcDbEntity
  8
0
  6
DASHED
 62
             200
100
AcDbLine
 10
-10.899999999999409
 20
15.00000000000432
 30
0.0
 11
-10.900000000000318
 21
33.000000000009948
 31
0.0
  0
LINE
  5
385
100
AcDbEntity
  8
0
  6
DASHED
 62
             200
100
AcDbLine
 10
-9.8999999999994088
 20
15.00000000000432
 30
0.0
 11
-9.9000000000003183
 21
33.000000000010004
 31
0.0
  0
LINE
  5
386
100
AcDbEntity
  8
0
  6
DASHED
 62
             200
100
AcDbLine
 10
-9.9000000129383352
 20
15.00000000000432
 30
0.0
 11
-10.899999999999409
 21
15.00000000000432
 31
0.0
  0
LINE
  5
387
100
AcDbEntity
  8
0
  6
CONTINUOUS
 62
               4
100
AcDbLine
 10
-11.900000021647884
 20
0.0
 30
0.0
 11
11.899999999998272
 21
0.0
 31
0.0
  0
ENDBLK
  5
388
100
AcDbEntity
  8
0
100
AcDbBlockEnd
  0
BLOCK
  5
389
100
AcDbEntity
  8
0
100
AcDbBlockBegin
  2
PA24F6-9
 70
               0
 10
0.0
 20
0.0
 30
0.0
  3
PA24F6-9
  1

  0
LINE
  5
38A
100
AcDbEntity
  8
0
  6
CONTINUOUS
 62
               4
100
AcDbLine
 10
-5.1000000288909639
 20
36.999999991088657
 30
0.0
 11
3.3999999954786055
 21
36.999999991088657
 31
0.0
  0
ARC
  5
38B
100
AcDbEntity
  8
0
  6
CONTINUOUS
 62
               4
100
AcDbCircle
 10
-5.1000000045331042
 20
14.131652503172177
 30
0.0
 40
1.0
100
AcDbArc
 50
179.99999999999963
 51
194.99999999999955
  0
ARC
  5
38C
100
AcDbEntity
  8
0
  6
CONTINUOUS
 62
               4
100
AcDbCircle
 10
3.3999999954786055
 20
37.500000000000114
 30
0.0
 40
0.5
100
AcDbArc
 50
269.99999999999937
 51
0.0
  0
LINE
  5
38D
100
AcDbEntity
  8
0
  6
CONTINUOUS
 62
               4
100
AcDbLine
 10
3.8999999954786055
 20
39.000000000000114
 30
0.0
 11
3.8999999954786055
 21
37.500000000000114
 31
0.0
  0
ARC
  5
38E
100
AcDbEntity
  8
0
  6
CONTINUOUS
 62
               4
100
AcDbCircle
 10
4.8999999954786055
 20
39.000000000000114
 30
0.0
 40
1.0
100
AcDbArc
 50
89.999999999999815
 51
179.99999999999963
  0
ARC
  5
38F
100
AcDbEntity
  8
0
  6
CONTINUOUS
 62
               4
100
AcDbCircle
 10
-5.100000004520826
 20
36.000000000000114
 30
0.0
 40
1.0
100
AcDbArc
 50
89.999999999999815
 51
179.99999999999963
  0
LINE
  5
390
100
AcDbEntity
  8
0
  6
CONTINUOUS
 62
               4
100
AcDbLine
 10
-6.100000004520826
 20
14.131652503172177
 30
0.0
 11
-6.100000004520826
 21
35.999999988357217
 31
0.0
  0
ARC
  5
391
100
AcDbEntity
  8
0
  6
CONTINUOUS
 62
               4
100
AcDbCircle
 10
-5.6000000000016605
 20
14.065826257580625
 30
0.0
 40
0.5
100
AcDbArc
 50
179.99999999999963
 51
194.99999999999918
  0
LINE
  5
392
100
AcDbEntity
  8
0
  6
CONTINUOUS
 62
               4
100
AcDbLine
 10
36.899999995467667
 20
0.0000000000003411
 30
0.0
 11
36.899999995466445
 21
39.500000000000369
 31
0.0
  0
LINE
  5
393
100
AcDbEntity
  8
0
  6
CONTINUOUS
 62
               4
100
AcDbLine
 10
7.9000000000017501
 20
8.0000000000001137
 30
0.0
 11
7.89999999999743
 21
40.000000000000085
 31
0.0
  0
LINE
  5
394
100
AcDbEntity
  8
0
  6
CONTINUOUS
 62
               4
100
AcDbLine
 10
-5.8320508052160456
 20
12.999999999999432
 30
0.0
 11
7.4000000000124366
 21
13.000000000000114
 31
0.0
  0
LINE
  5
395
100
AcDbEntity
  8
0
  6
CONTINUOUS
 62
               4
100
AcDbLine
 10
-4.7444935236394947
 20
8.9411809690149084
 30
0.0
 11
-6.0829629131462077
 21
13.936416735029638
 31
0.0
  0
LINE
  5
396
100
AcDbEntity
  8
0
  6
CONTINUOUS
 62
               4
100
AcDbLine
 10
4.5362284294552175
 20
7.9999999999994316
 30
0.0
 11
7.9000000000019774
 21
7.9999999999994316
 31
0.0
  0
ARC
  5
397
100
AcDbEntity
  8
0
  6
CONTINUOUS
 62
               4
100
AcDbCircle
 10
6.3000000000005905
 20
7.4999999999994316
 30
0.0
 40
0.5
100
AcDbArc
 50
89.999999999999815
 51
179.99999999999963
  0
LINE
  5
398
100
AcDbEntity
  8
0
  6
CONTINUOUS
 62
               4
100
AcDbLine
 10
5.8000000000004768
 20
5.7999999999985903
 30
0.0
 11
5.8000000000005905
 21
7.4999999999994316
 31
0.0
  0
ARC
  5
399
100
AcDbEntity
  8
0
  6
CONTINUOUS
 62
               4
100
AcDbCircle
 10
0.5000000000005223
 20
5.299999999999045
 30
0.0
 40
0.5
100
AcDbArc
 50
89.999999999999815
 51
179.99999999999963
  0
LINE
  5
39A
100
AcDbEntity
  8
0
  6
CONTINUOUS
 62
               4
100
AcDbLine
 10
5.0000000000007496
 20
12.699999999992656
 30
0.0
 11
5.0000000000007496
 21
12.0
 31
0.0
  0
ARC
  5
39B
100
AcDbEntity
  8
0
  6
CONTINUOUS
 62
               4
100
AcDbCircle
 10
4.0071067811881669
 20
12.199999999992542
 30
0.0
 40
0.5
100
AcDbArc
 50
89.999999999994813
 51
134.9999999999944
  0
LINE
  5
39C
100
AcDbEntity
  8
0
  6
CONTINUOUS
 62
               4
100
AcDbLine
 10
0.5000000000005223
 20
5.799999999999045
 30
0.0
 11
5.8000000000004768
 21
5.7999999999985903
 31
0.0
  0
ARC
  5
39D
100
AcDbEntity
  8
0
  6
CONTINUOUS
 62
               4
100
AcDbCircle
 10
4.449999809265659
 20
7.1937456130966666
 30
0.0
 40
0.800000011920929
100
AcDbArc
 50
359.99998201390565
 51
73.808645430464111
  0
ARC
  5
39E
100
AcDbEntity
  8
0
  6
CONTINUOUS
 62
               4
100
AcDbCircle
 10
1.5500001907353855
 20
7.193745613096894
 30
0.0
 40
0.800000011920929
100
AcDbArc
 50
106.19135456952553
 51
180.00001798608395
  0
ARC
  5
39F
100
AcDbEntity
  8
0
  6
CONTINUOUS
 62
               4
100
AcDbCircle
 10
3.0000000000000675
 20
2.1999998092637725
 30
0.0
 40
6.0
100
AcDbArc
 50
73.80871737482147
 51
106.19135456952553
  0
LINE
  5
3A0
100
AcDbEntity
  8
0
  6
CONTINUOUS
 62
               4
100
AcDbLine
 10
5.2500000000005222
 20
7.1937456130965529
 30
0.0
 11
5.2500000000004086
 21
5.7999999999983629
 31
0.0
  0
LINE
  5
3A1
100
AcDbEntity
  8
0
  6
CONTINUOUS
 62
               4
100
AcDbLine
 10
0.7500000000005223
 20
7.193745613096894
 30
0.0
 11
0.7500000000004086
 21
5.7999999999988177
 31
0.0
  0
LINE
  5
3A2
100
AcDbEntity
  8
0
  6
CONTINUOUS
 62
               4
100
AcDbLine
 10
5.8000000000004768
 20
12.199999999993679
 30
0.0
 11
7.9000000000004995
 21
12.199999999993906
 31
0.0
  0
LINE
  5
3A3
100
AcDbEntity
  8
0
  6
CONTINUOUS
 62
               4
100
AcDbLine
 10
4.0071067811873711
 20
12.699999999993338
 30
0.0
 11
5.8000000000004768
 21
12.699999999993679
 31
0.0
  0
LINE
  5
3A4
100
AcDbEntity
  8
0
  6
CONTINUOUS
 62
               4
100
AcDbLine
 10
5.8000000000004768
 20
12.199999991713753
 30
0.0
 11
5.8000000000004768
 21
12.699999999993679
 31
0.0
  0
LINE
  5
3A5
100
AcDbEntity
  8
0
  6
CONTINUOUS
 62
               4
100
AcDbLine
 10
3.1000000000074799
 20
11.999999999999886
 30
0.0
 11
3.653553390594265
 21
12.553553390586671
 31
0.0
  0
LINE
  5
3A6
100
AcDbEntity
  8
0
  6
CONTINUOUS
 62
               4
100
AcDbLine
 10
0.7500000000004086
 20
6.4999999999989768
 30
0.0
 11
5.2500000000004086
 21
6.4999999999986358
 31
0.0
  0
LINE
  5
3A7
100
AcDbEntity
  8
0
  6
CONTINUOUS
 62
               4
100
AcDbLine
 10
5.0000000000002949
 20
8.2000000093935341
 30
0.0
 11
5.0000000000002949
 21
8.0
 31
0.0
  0
LINE
  5
3A8
100
AcDbEntity
  8
0
  6
CONTINUOUS
 62
               4
100
AcDbLine
 10
0.0
 20
0.0
 30
0.0
 11
0.0000000000005222
 21
5.299999999999045
 31
0.0
  0
ARC
  5
3A9
100
AcDbEntity
  8
0
  6
CONTINUOUS
 62
               4
100
AcDbCircle
 10
7.1000000000036145
 20
8.7000000093931931
 30
0.0
 40
0.5
100
AcDbArc
 50
270.00000000000267
 51
0.0000000000025444
  0
ARC
  5
3AA
100
AcDbEntity
  8
0
  6
CONTINUOUS
 62
               4
100
AcDbCircle
 10
7.1000000000029324
 20
11.499999999999659
 30
0.0
 40
0.5
100
AcDbArc
 50
0.000000000002519
 51
90.000000000002316
  0
LINE
  5
3AB
100
AcDbEntity
  8
0
  6
CONTINUOUS
 62
               4
100
AcDbLine
 10
7.6000000000036145
 20
8.7000000093933068
 30
0.0
 11
7.6000000000029324
 21
11.499999999999773
 31
0.0
  0
LINE
  5
3AC
100
AcDbEntity
  8
0
  6
CONTINUOUS
 62
               4
100
AcDbLine
 10
1.5000000000021139
 20
11.999999999999432
 30
0.0
 11
1.5000000000021139
 21
12.999999999999432
 31
0.0
  0
LINE
  5
3AD
100
AcDbEntity
  8
0
  6
CONTINUOUS
 62
               4
100
AcDbLine
 10
0.5000000000021139
 20
11.999999999999432
 30
0.0
 11
0.5000000000021139
 21
12.999999999999432
 31
0.0
  0
LINE
  5
3AE
100
AcDbEntity
  8
0
  6
CONTINUOUS
 62
               4
100
AcDbLine
 10
-4.9124889263641087
 20
11.999999999999204
 30
0.0
 11
7.1000000000029324
 21
11.999999999999659
 31
0.0
  0
LINE
  5
3AF
100
AcDbEntity
  8
0
  6
CONTINUOUS
 62
               4
100
AcDbLine
 10
-3.7785677023331807
 20
8.2000000093929657
 30
0.0
 11
7.1000000000036145
 21
8.2000000093931931
 31
0.0
  0
ARC
  5
3B0
100
AcDbEntity
  8
0
  6
CONTINUOUS
 62
               4
100
AcDbCircle
 10
7.4000000000123229
 20
13.499999999999773
 30
0.0
 40
0.5
100
AcDbArc
 50
270.00000000000193
 51
0.0000000000025444
  0
ARC
  5
3B1
100
AcDbEntity
  8
0
  6
CONTINUOUS
 62
               4
100
AcDbCircle
 10
-3.7785677023339765
 20
9.2000000093955805
 30
0.0
 40
1.0
100
AcDbArc
 50
194.99999981259796
 51
269.99999999999937
  0
ARC
  5
3B2
100
AcDbEntity
  8
0
  6
CONTINUOUS
 62
               4
100
AcDbCircle
 10
6.900000000012664
 20
13.299999999999727
 30
0.0
 40
1.0
100
AcDbArc
 50
197.45760312372443
 51
0.0000000000081422
  0
ARC
  5
3B3
100
AcDbEntity
  8
0
  6
CONTINUOUS
 62
               4
100
AcDbCircle
 10
-4.9124889263641087
 20
11.499999999999204
 30
0.0
 40
0.5
100
AcDbArc
 50
89.999999999999815
 51
194.99999999999952
  0
LINE
  5
3B4
100
AcDbEntity
  8
0
  6
CONTINUOUS
 62
               4
100
AcDbLine
 10
2.0000000000010907
 20
8.1160795923631213
 30
0.0
 11
2.0000000000010907
 21
8.2000000093930794
 31
0.0
  0
LINE
  5
3B5
100
AcDbEntity
  8
0
  6
CONTINUOUS
 62
               4
100
AcDbLine
 10
4.8999999999967478
 20
40.000000000000028
 30
0.0
 11
7.89999999999743
 21
40.000000000000057
 31
0.0
  0
LINE
  5
3B6
100
AcDbEntity
  8
0
  6
CONTINUOUS
 62
               4
100
AcDbLine
 10
35.799999999997752
 20
35.000000000002274
 30
0.0
 11
36.399999999997888
 21
35.000000000002387
 31
0.0
  0
LINE
  5
3B7
100
AcDbEntity
  8
0
  6
CONTINUOUS
 62
               4
100
AcDbLine
 10
35.799999999997638
 20
38.000000000002302
 30
0.0
 11
36.399999999997547
 21
38.000000000002359
 31
0.0
  0
LINE
  5
3B8
100
AcDbEntity
  8
0
  6
CONTINUOUS
 62
               4
100
AcDbLine
 10
35.799999999997638
 20
37.999999985762969
 30
0.0
 11
35.799999999997524
 21
39.999999985762912
 31
0.0
  0
ARC
  5
3B9
100
AcDbEntity
  8
0
  6
CONTINUOUS
 62
               4
100
AcDbCircle
 10
36.399999999997661
 20
37.500000000002359
 30
0.0
 40
0.5
100
AcDbArc
 50
0.0000000000018066
 51
90.000000000001606
  0
ARC
  5
3BA
100
AcDbEntity
  8
0
  6
CONTINUOUS
 62
               4
100
AcDbCircle
 10
36.399999999997661
 20
35.500000000002387
 30
0.0
 40
0.5
100
AcDbArc
 50
270.00000000000125
 51
0.000000000001832
  0
LINE
  5
3BB
100
AcDbEntity
  8
0
  6
CONTINUOUS
 62
               4
100
AcDbLine
 10
36.999999995466581
 20
26.600000000000364
 30
0.0
 11
36.899999995466558
 21
26.500000000000341
 31
0.0
  0
LINE
  5
3BC
100
AcDbEntity
  8
0
  6
CONTINUOUS
 62
               4
100
AcDbLine
 10
36.899999990935683
 20
33.500000000000341
 30
0.0
 11
36.999999995466467
 21
33.399999995469557
 31
0.0
  0
ARC
  5
3BD
100
AcDbEntity
  8
0
  6
CONTINUOUS
 62
               4
100
AcDbCircle
 10
36.399999999997547
 20
39.500000000000369
 30
0.0
 40
0.5
100
AcDbArc
 50
0.0000000000006361
 51
90.000000000000441
  0
LINE
  5
3BE
100
AcDbEntity
  8
0
  6
CONTINUOUS
 62
               4
100
AcDbLine
 10
35.799999999997524
 20
40.000000000000313
 30
0.0
 11
36.399999999997547
 21
40.000000000000369
 31
0.0
  0
LINE
  5
3BF
100
AcDbEntity
  8
0
  6
CONTINUOUS
 62
               4
100
AcDbLine
 10
36.899999995466672
 20
34.900000000002365
 30
0.0
 11
35.799999999997866
 21
34.900000000002251
 31
0.0
  0
LINE
  5
3C0
100
AcDbEntity
  8
0
  6
CONTINUOUS
 62
               4
100
AcDbLine
 10
36.899999995466558
 20
38.100000000002325
 30
0.0
 11
35.799999999997297
 21
38.100000000002268
 31
0.0
  0
LINE
  5
3C1
100
AcDbEntity
  8
0
  6
CONTINUOUS
 62
               4
100
AcDbLine
 10
0.0000000000002949
 20
0.0
 30
0.0
 11
35.800000000000978
 21
0.0000000000003411
 31
0.0
  0
LINE
  5
3C2
100
AcDbEntity
  8
0
  6
CONTINUOUS
 62
               4
100
AcDbLine
 10
35.800000000000978
 20
0.0000000000003411
 30
0.0
 11
35.799999999997866
 21
35.000000000002274
 31
0.0
  0
LINE
  5
3C3
100
AcDbEntity
  8
0
  6
CONTINUOUS
 62
               4
100
AcDbLine
 10
36.999999995466467
 20
26.60000000000025
 30
0.0
 11
36.999999995466467
 21
33.399999995469557
 31
0.0
  0
LINE
  5
3C4
100
AcDbEntity
  8
0
  6
CONTINUOUS
 62
               4
100
AcDbLine
 10
7.89999999999743
 20
40.000000000000057
 30
0.0
 11
35.799999999997524
 21
40.000000000000313
 31
0.0
  0
LINE
  5
3C5
100
AcDbEntity
  8
0
  6
CONTINUOUS
 62
               4
100
AcDbLine
 10
-25.399218157295596
 20
15.446184224360735
 30
0.0
 11
-25.787446724949465
 21
16.895072963794377
 31
0.0
  0
LINE
  5
3C6
100
AcDbEntity
  8
0
  6
CONTINUOUS
 62
               4
100
AcDbLine
 10
-25.787446724949465
 20
21.104927036206135
 30
0.0
 11
-25.399218157295596
 21
22.55381577563972
 31
0.0
  0
LINE
  5
3C7
100
AcDbEntity
  8
0
  6
CONTINUOUS
 62
               4
100
AcDbLine
 10
-26.10000000452084
 20
18.250000000000256
 30
0.0
 11
-26.10000000452084
 21
19.750000000000256
 31
0.0
  0
LINE
  5
3C8
100
AcDbEntity
  8
0
  6
CONTINUOUS
 62
               4
100
AcDbLine
 10
-17.10000000452084
 20
19.750000000000256
 30
0.0
 11
-26.10000000452084
 21
19.750000000000256
 31
0.0
  0
LINE
  5
3C9
100
AcDbEntity
  8
0
  6
CONTINUOUS
 62
               4
100
AcDbLine
 10
-17.10000000452084
 20
18.250000000000256
 30
0.0
 11
-26.10000000452084
 21
18.250000000000256
 31
0.0
  0
LINE
  5
3CA
100
AcDbEntity
  8
0
  6
CONTINUOUS
 62
               4
100
AcDbLine
 10
-26.10000000452084
 20
19.250000000000256
 30
0.0
 11
-33.100000004520837
 21
19.250000000000256
 31
0.0
  0
LINE
  5
3CB
100
AcDbEntity
  8
0
  6
CONTINUOUS
 62
               4
100
AcDbLine
 10
-26.10000000452084
 20
18.750000000000256
 30
0.0
 11
-33.100000004520837
 21
18.750000000000256
 31
0.0
  0
LINE
  5
3CC
100
AcDbEntity
  8
0
  6
CONTINUOUS
 62
               4
100
AcDbLine
 10
-17.10000000452084
 20
20.330046973794055
 30
0.0
 11
-25.399218157295596
 21
22.55381577563972
 31
0.0
  0
LINE
  5
3CD
100
AcDbEntity
  8
0
  6
CONTINUOUS
 62
               4
100
AcDbLine
 10
-20.730790185280345
 20
19.750000000000256
 30
0.0
 11
-25.787446724949465
 21
21.104927036206135
 31
0.0
  0
LINE
  5
3CE
100
AcDbEntity
  8
0
  6
CONTINUOUS
 62
               4
100
AcDbLine
 10
-25.658037202398024
 20
21.587889949350682
 30
0.0
 11
-32.419517986421681
 21
23.3996232650683
 31
0.0
  0
LINE
  5
3CF
100
AcDbEntity
  8
0
  6
CONTINUOUS
 62
               4
100
AcDbLine
 10
-25.52862767984681
 20
22.070852862495229
 30
0.0
 11
-32.29010846387024
 21
23.882586178212847
 31
0.0
  0
LINE
  5
3D0
100
AcDbEntity
  8
0
  6
CONTINUOUS
 62
               4
100
AcDbLine
 10
-20.730790185280345
 20
18.250000000000256
 30
0.0
 11
-25.787446724949465
 21
16.895072963794377
 31
0.0
  0
LINE
  5
3D1
100
AcDbEntity
  8
0
  6
CONTINUOUS
 62
               4
100
AcDbLine
 10
-17.10000000452084
 20
17.669953026206457
 30
0.0
 11
-25.399218157295596
 21
15.446184224360735
 31
0.0
  0
LINE
  5
3D2
100
AcDbEntity
  8
0
  6
CONTINUOUS
 62
               4
100
AcDbLine
 10
-25.52862767984681
 20
15.929147137505282
 30
0.0
 11
-32.29010846387024
 21
14.117413821787608
 31
0.0
  0
LINE
  5
3D3
100
AcDbEntity
  8
0
  6
CONTINUOUS
 62
               4
100
AcDbLine
 10
-25.658037202398024
 20
16.412110050649829
 30
0.0
 11
-32.419517986421454
 21
14.600376734932155
 31
0.0
  0
LINE
  5
3D4
100
AcDbEntity
  8
0
  6
CONTINUOUS
 62
               4
100
AcDbLine
 10
-32.29010846387024
 20
23.882586178212847
 30
0.0
 11
-32.419517986421681
 21
23.3996232650683
 31
0.0
  0
LINE
  5
3D5
100
AcDbEntity
  8
0
  6
CONTINUOUS
 62
               4
100
AcDbLine
 10
-33.100000004520837
 20
19.250000000000256
 30
0.0
 11
-33.100000004520837
 21
18.750000000000256
 31
0.0
  0
LINE
  5
3D6
100
AcDbEntity
  8
0
  6
CONTINUOUS
 62
               4
100
AcDbLine
 10
-32.419517986421454
 20
14.600376734932155
 30
0.0
 11
-32.29010846387024
 21
14.117413821787608
 31
0.0
  0
LINE
  5
3D7
100
AcDbEntity
  8
0
  6
CENTER
 62
             200
100
AcDbLine
 10
-13.709090663925227
 20
19.355001580933468
 30
0.0
 11
-32.924301241640421
 21
14.206301424242326
 31
0.0
  0
LINE
  5
3D8
100
AcDbEntity
  8
0
  6
CENTER
 62
             200
100
AcDbLine
 10
-13.709090663925227
 20
18.644998419066688
 30
0.0
 11
-32.924301241639967
 21
23.793698575759343
 31
0.0
  0
LINE
  5
3D9
100
AcDbEntity
  8
0
  6
CENTER
 62
             200
100
AcDbLine
 10
-5.0477954494986541
 20
18.999999999999886
 30
0.0
 11
-33.768196432301181
 21
19.000000000001013
 31
0.0
  0
LINE
  5
3DA
100
AcDbEntity
  8
0
  6
CONTINUOUS
 62
             200
100
AcDbLine
 10
-12.150872613388689
 20
16.150000000000084
 30
0.0
 11
-13.010872613388589
 21
21.850000000000129
 31
0.0
  0
LINE
  5
3DB
100
AcDbEntity
  8
0
  6
CONTINUOUS
 62
               4
100
AcDbLine
 10
-17.10000000452084
 20
21.000000000000412
 30
0.0
 11
-13.912626999353737
 21
21.000000000000291
 31
0.0
  0
LINE
  5
3DC
100
AcDbEntity
  8
0
  6
CONTINUOUS
 62
               4
100
AcDbLine
 10
-17.10000000452084
 20
17.000000000000412
 30
0.0
 11
-13.309118227423998
 21
17.000000000000263
 31
0.0
  0
LINE
  5
3DD
100
AcDbEntity
  8
0
  6
CONTINUOUS
 62
             200
100
AcDbLine
 10
-13.180872613388889
 20
16.150000000000084
 30
0.0
 11
-14.040872613388789
 21
21.850000000000129
 31
0.0
  0
LINE
  5
3DE
100
AcDbEntity
  8
0
  6
CONTINUOUS
 62
               4
100
AcDbLine
 10
-6.6000000045208083
 20
15.599999999999874
 30
0.0
 11
-8.6000000045208651
 21
15.599999999999959
 31
0.0
  0
LINE
  5
3DF
100
AcDbEntity
  8
0
  6
CONTINUOUS
 62
               4
100
AcDbLine
 10
-6.6000000045208651
 20
22.399999999999871
 30
0.0
 11
-8.6000000045208083
 21
22.399999999999956
 31
0.0
  0
LINE
  5
3E0
100
AcDbEntity
  8
0
  6
CONTINUOUS
 62
               4
100
AcDbLine
 10
-9.1000000045208367
 20
16.099999999999959
 30
0.0
 11
-9.1000000045208367
 21
21.899999999999956
 31
0.0
  0
ARC
  5
3E1
100
AcDbEntity
  8
0
  6
CONTINUOUS
 62
               4
100
AcDbCircle
 10
-8.6000000045208367
 20
21.899999999999956
 30
0.0
 40
0.5
100
AcDbArc
 50
89.999999999999815
 51
179.99999999999963
  0
ARC
  5
3E2
100
AcDbEntity
  8
0
  6
CONTINUOUS
 62
               4
100
AcDbCircle
 10
-8.6000000045208367
 20
16.099999999999959
 30
0.0
 40
0.5
100
AcDbArc
 50
179.99999999999963
 51
269.99999999999937
  0
LINE
  5
3E3
100
AcDbEntity
  8
0
  6
CONTINUOUS
 62
               4
100
AcDbLine
 10
-17.10000000452084
 20
17.000000000000412
 30
0.0
 11
-17.10000000452084
 21
21.000000000000412
 31
0.0
  0
LINE
  5
3E4
100
AcDbEntity
  8
0
  6
CONTINUOUS
 62
               4
100
AcDbLine
 10
-12.882626999353537
 20
21.000000000000249
 30
0.0
 11
-9.1000000045208367
 21
21.000000000000107
 31
0.0
  0
LINE
  5
3E5
100
AcDbEntity
  8
0
  6
CONTINUOUS
 62
               4
100
AcDbLine
 10
-12.279118227423769
 20
17.000000000000227
 30
0.0
 11
-9.1000000045208367
 21
17.000000000000107
 31
0.0
  0
ARC
  5
3E6
100
AcDbEntity
  8
0
  6
CONTINUOUS
 62
               4
100
AcDbCircle
 10
-6.6000000045208367
 20
15.099999999999874
 30
0.0
 40
0.5
100
AcDbArc
 50
0.0
 51
89.999999999999815
  0
ARC
  5
3E7
100
AcDbEntity
  8
0
  6
CONTINUOUS
 62
               4
100
AcDbCircle
 10
-6.6000000045208367
 20
22.899999999999871
 30
0.0
 40
0.5
100
AcDbArc
 50
269.99999999999937
 51
0.0
  0
ENDBLK
  5
3E8
100
AcDbEntity
  8
0
100
AcDbBlockEnd
  0
BLOCK
  5
3E9
100
AcDbEntity
  8
0
100
AcDbBlockBegin
  2
PA24F6-10
 70
               0
 10
0.0
 20
0.0
 30
0.0
  3
PA24F6-10
  1

  0
LINE
  5
3EA
100
AcDbEntity
  8
0
  6
CONTINUOUS
 62
               4
100
AcDbLine
 10
-11.899999999981503
 20
39.000000000006821
 30
0.0
 11
-11.900000000003558
 21
0.0
 31
0.0
  0
LINE
  5
3EB
100
AcDbEntity
  8
0
  6
CONTINUOUS
 62
               4
100
AcDbLine
 10
11.899999999998528
 20
0.0
 30
0.0
 11
11.900000000018224
 21
38.999999991078425
 31
0.0
  0
LINE
  5
3EC
100
AcDbEntity
  8
0
  6
CENTER
 62
             200
100
AcDbLine
 10
-0.0000000000000568
 20
-4.9708179906839405
 30
0.0
 11
0.0000000000006819
 21
48.111272014543232
 31
0.0
  0
LINE
  5
3ED
100
AcDbEntity
  8
0
  6
DASHED
 62
               2
100
AcDbLine
 10
-11.900000000003558
 20
0.0
 30
0.0
 11
11.899999999998528
 21
0.0
 31
0.0
  0
LINE
  5
3EE
100
AcDbEntity
  8
0
  6
CONTINUOUS
 62
               4
100
AcDbLine
 10
9.3000000000001783
 20
15.799999999998704
 30
0.0
 11
-9.2999999999998124
 21
15.799999999998704
 31
0.0
  0
LINE
  5
3EF
100
AcDbEntity
  8
0
  6
CONTINUOUS
 62
               4
100
AcDbLine
 10
7.9000000000002331
 20
17.899999999998158
 30
0.0
 11
9.3000000000002103
 21
17.899999999998158
 31
0.0
  0
LINE
  5
3F0
100
AcDbEntity
  8
0
  6
CONTINUOUS
 62
               4
100
AcDbLine
 10
7.9000000000002331
 20
15.799999999998704
 30
0.0
 11
7.9000000000002331
 21
17.899999999998158
 31
0.0
  0
ARC
  5
3F1
100
AcDbEntity
  8
0
  6
CONTINUOUS
 62
               4
100
AcDbCircle
 10
8.8000000000000966
 20
8.4999999999982947
 30
0.0
 40
0.5
100
AcDbArc
 50
269.9999999999979
 51
359.99999999999767
  0
LINE
  5
3F2
100
AcDbEntity
  8
0
  6
CONTINUOUS
 62
               4
100
AcDbLine
 10
8.8000000000000966
 20
7.9999999999985221
 30
0.0
 11
-8.7999999999999261
 21
7.9999999999985221
 31
0.0
  0
ARC
  5
3F3
100
AcDbEntity
  8
0
  6
CONTINUOUS
 62
               4
100
AcDbCircle
 10
-8.7999999999999261
 20
8.4999999999985221
 30
0.0
 40
0.5
100
AcDbArc
 50
179.99999999999963
 51
269.99999999999937
  0
LINE
  5
3F4
100
AcDbEntity
  8
0
  6
CONTINUOUS
 62
               4
100
AcDbLine
 10
-7.8999999999997215
 20
17.899999999998613
 30
0.0
 11
-9.2999999999997556
 21
17.899999999998613
 31
0.0
  0
LINE
  5
3F5
100
AcDbEntity
  8
0
  6
CONTINUOUS
 62
               4
100
AcDbLine
 10
-7.8999999999998352
 20
15.799999999998704
 30
0.0
 11
-7.8999999999997215
 21
17.899999999998613
 31
0.0
  0
LINE
  5
3F6
100
AcDbEntity
  8
0
  6
CONTINUOUS
 62
               4
100
AcDbLine
 10
3.5171572868646592
 20
9.4999999999985221
 30
0.0
 11
-3.5171572868644887
 21
9.4999999999985221
 31
0.0
  0
LINE
  5
3F7
100
AcDbEntity
  8
0
  6
CONTINUOUS
 62
               4
100
AcDbLine
 10
-0.1414213562371458
 20
13.358578643100259
 30
0.0
 11
-3.6585786431017766
 21
9.8414213562358555
 31
0.0
  0
LINE
  5
3F8
100
AcDbEntity
  8
0
  6
CONTINUOUS
 62
               4
100
AcDbLine
 10
0.14142135623743
 20
13.358578643100259
 30
0.0
 11
3.6585786431019471
 21
9.8414213562358555
 31
0.0
  0
ARC
  5
3F9
100
AcDbEntity
  8
0
  6
CONTINUOUS
 62
               4
100
AcDbCircle
 10
0.0000000000001421
 20
13.217157286862971
 30
0.0
 40
0.2
100
AcDbArc
 50
44.99999999999919
 51
134.99999999999898
  0
ARC
  5
3FA
100
AcDbEntity
  8
0
  6
CONTINUOUS
 62
               4
100
AcDbCircle
 10
-3.5171572868644887
 20
9.6999999999985675
 30
0.0
 40
0.2
100
AcDbArc
 50
134.99999999999793
 51
269.99999999999937
  0
ARC
  5
3FB
100
AcDbEntity
  8
0
  6
CONTINUOUS
 62
               4
100
AcDbCircle
 10
3.5171572868646592
 20
9.6999999999985675
 30
0.0
 40
0.2
100
AcDbArc
 50
269.99999999999937
 51
45.000000000000966
  0
LINE
  5
3FC
100
AcDbEntity
  8
0
  6
CONTINUOUS
 62
               4
100
AcDbLine
 10
10.699999999373546
 20
34.900000000000773
 30
0.0
 11
11.89999999341299
 21
34.900000000000659
 31
0.0
  0
LINE
  5
3FD
100
AcDbEntity
  8
0
  6
CONTINUOUS
 62
               4
100
AcDbLine
 10
10.699999999373546
 20
38.100000000000819
 30
0.0
 11
11.899999993413104
 21
38.100000000000705
 31
0.0
  0
ARC
  5
3FE
100
AcDbEntity
  8
0
  6
CONTINUOUS
 62
               4
100
AcDbCircle
 10
10.90000000000046
 20
38.999999999998408
 30
0.0
 40
1.0
100
AcDbArc
 50
359.99999999999847
 51
89.999999999998266
  0
LINE
  5
3FF
100
AcDbEntity
  8
0
  6
CONTINUOUS
 62
               4
100
AcDbLine
 10
-10.899999999999437
 20
39.999999999998749
 30
0.0
 11
10.900000000000574
 21
39.999999999998522
 31
0.0
  0
LINE
  5
400
100
AcDbEntity
  8
0
  6
CONTINUOUS
 62
               4
100
AcDbLine
 10
10.700000000000415
 20
34.900000000000773
 30
0.0
 11
10.700000000000529
 21
38.100000000000819
 31
0.0
  0
ARC
  5
401
100
AcDbEntity
  8
0
  6
CONTINUOUS
 62
               4
100
AcDbCircle
 10
-10.899999999999437
 20
38.999999999998749
 30
0.0
 40
1.0
100
AcDbArc
 50
89.999999999999815
 51
179.99999999999963
  0
LINE
  5
402
100
AcDbEntity
  8
0
  6
CONTINUOUS
 62
               4
100
AcDbLine
 10
-10.699999999372523
 20
38.100000000001046
 30
0.0
 11
-11.899999993412081
 21
38.100000000001046
 31
0.0
  0
LINE
  5
403
100
AcDbEntity
  8
0
  6
CONTINUOUS
 62
               4
100
AcDbLine
 10
8.0000000000004832
 20
33.499999999998522
 30
0.0
 11
8.0000000000003695
 21
26.499999999998522
 31
0.0
  0
LINE
  5
404
100
AcDbEntity
  8
0
  6
CONTINUOUS
 62
               4
100
AcDbLine
 10
2.0000000000004832
 20
33.499999999998636
 30
0.0
 11
2.0000000000003695
 21
26.499999999998636
 31
0.0
  0
LINE
  5
405
100
AcDbEntity
  8
0
  6
CONTINUOUS
 62
               4
100
AcDbLine
 10
-10.699999999999505
 20
34.900000000001
 30
0.0
 11
-10.699999999999505
 21
38.100000000001046
 31
0.0
  0
LINE
  5
406
100
AcDbEntity
  8
0
  6
CONTINUOUS
 62
               4
100
AcDbLine
 10
-10.699999999372523
 20
34.900000000001
 30
0.0
 11
-11.899999993412081
 21
34.900000000001
 31
0.0
  0
LINE
  5
407
100
AcDbEntity
  8
0
  6
CONTINUOUS
 62
               4
100
AcDbLine
 10
6.6000000000001648
 20
15.899999999999864
 30
0.0
 11
-6.5999999999997669
 21
15.899999999999864
 31
0.0
  0
LINE
  5
408
100
AcDbEntity
  8
0
  6
CONTINUOUS
 62
               4
100
AcDbLine
 10
8.8000000000000966
 20
7.8999999999998636
 30
0.0
 11
4.0000000000001421
 21
7.8999999999998636
 31
0.0
  0
ARC
  5
409
100
AcDbEntity
  8
0
  6
CONTINUOUS
 62
               4
100
AcDbCircle
 10
8.8000000000000966
 20
8.3999999999998636
 30
0.0
 40
0.5
100
AcDbArc
 50
269.99999999999937
 51
0.0
  0
LINE
  5
40A
100
AcDbEntity
  8
0
  6
CONTINUOUS
 62
               4
100
AcDbLine
 10
-9.2999999999999261
 20
8.4000000000000909
 30
0.0
 11
-9.2999999999997556
 21
18.700207536078892
 31
0.0
  0
ARC
  5
40B
100
AcDbEntity
  8
0
  6
CONTINUOUS
 62
               4
100
AcDbCircle
 10
-8.7999999999999261
 20
8.3999999999998636
 30
0.0
 40
0.5
100
AcDbArc
 50
179.99999999999963
 51
269.99999999999937
  0
LINE
  5
40C
100
AcDbEntity
  8
0
  6
CONTINUOUS
 62
               4
100
AcDbLine
 10
-7.0999999999997669
 20
16.399999999999864
 30
0.0
 11
-7.0999999999997669
 21
17.999999994247673
 31
0.0
  0
ARC
  5
40D
100
AcDbEntity
  8
0
  6
CONTINUOUS
 62
               4
100
AcDbCircle
 10
-6.5999999999997669
 20
16.399999999999864
 30
0.0
 40
0.5
100
AcDbArc
 50
179.99999999999963
 51
269.99999999999937
  0
ARC
  5
40E
100
AcDbEntity
  8
0
  6
CONTINUOUS
 62
               4
100
AcDbCircle
 10
6.6000000000001648
 20
16.399999999999864
 30
0.0
 40
0.5
100
AcDbArc
 50
269.99999999999937
 51
0.0
  0
LINE
  5
40F
100
AcDbEntity
  8
0
  6
CONTINUOUS
 62
               4
100
AcDbLine
 10
3.5000000000001421
 20
6.6999999999998181
 30
0.0
 11
-3.4999999999998579
 21
6.6999999999998181
 31
0.0
  0
LINE
  5
410
100
AcDbEntity
  8
0
  6
CONTINUOUS
 62
               4
100
AcDbLine
 10
4.0000000000001421
 20
7.1999999999998181
 30
0.0
 11
4.0000000000001421
 21
7.8999999999998636
 31
0.0
  0
ARC
  5
411
100
AcDbEntity
  8
0
  6
CONTINUOUS
 62
               4
100
AcDbCircle
 10
3.5000000000001421
 20
7.1999999999998181
 30
0.0
 40
0.5
100
AcDbArc
 50
269.99999999999937
 51
0.0
  0
LINE
  5
412
100
AcDbEntity
  8
0
  6
CONTINUOUS
 62
               4
100
AcDbLine
 10
-3.9999999999998579
 20
7.1999999999999318
 30
0.0
 11
-3.9999999999998579
 21
7.8999999999999773
 31
0.0
  0
ARC
  5
413
100
AcDbEntity
  8
0
  6
CONTINUOUS
 62
               4
100
AcDbCircle
 10
-3.4999999999998579
 20
7.1999999999999318
 30
0.0
 40
0.5
100
AcDbArc
 50
179.99999999999807
 51
269.9999999999979
  0
LINE
  5
414
100
AcDbEntity
  8
0
  6
CONTINUOUS
 62
               4
100
AcDbLine
 10
9.3000000000000966
 20
8.3999999999998636
 30
0.0
 11
9.3000000000002103
 21
18.700207536078665
 31
0.0
  0
LINE
  5
415
100
AcDbEntity
  8
0
  6
CONTINUOUS
 62
               4
100
AcDbLine
 10
-7.0999999999997669
 20
17.999999994247673
 30
0.0
 11
-9.2999999999997556
 21
17.999999994247673
 31
0.0
  0
LINE
  5
416
100
AcDbEntity
  8
0
  6
CONTINUOUS
 62
               4
100
AcDbLine
 10
-7.8999999999997215
 20
18.700207536078892
 30
0.0
 11
-9.2999999874516277
 21
18.700207536078892
 31
0.0
  0
LINE
  5
417
100
AcDbEntity
  8
0
  6
CONTINUOUS
 62
               4
100
AcDbLine
 10
7.1000000000001648
 20
17.999999994247446
 30
0.0
 11
9.3000000000002103
 21
17.999999994247446
 31
0.0
  0
LINE
  5
418
100
AcDbEntity
  8
0
  6
CONTINUOUS
 62
               4
100
AcDbLine
 10
-7.8999999999997215
 20
18.299999994247742
 30
0.0
 11
-7.8999999999997215
 21
18.700207536078892
 31
0.0
  0
LINE
  5
419
100
AcDbEntity
  8
0
  6
CONTINUOUS
 62
               4
100
AcDbLine
 10
7.1000000000001648
 20
16.399999999999636
 30
0.0
 11
7.1000000000001648
 21
17.999999994247446
 31
0.0
  0
ARC
  5
41A
100
AcDbEntity
  8
0
  6
CONTINUOUS
 62
               4
100
AcDbCircle
 10
-7.5999999999997669
 20
18.299999994247628
 30
0.0
 40
0.3
100
AcDbArc
 50
179.99999999999963
 51
269.99999999999937
  0
LINE
  5
41B
100
AcDbEntity
  8
0
  6
CONTINUOUS
 62
               4
100
AcDbLine
 10
7.9000000000002331
 20
18.700207536078665
 30
0.0
 11
9.2999999874520256
 21
18.700207536078665
 31
0.0
  0
ARC
  5
41C
100
AcDbEntity
  8
0
  6
CONTINUOUS
 62
               4
100
AcDbCircle
 10
7.6000000000001648
 20
18.299999994247401
 30
0.0
 40
0.3
100
AcDbArc
 50
269.9999999999979
 51
359.99999999999767
  0
LINE
  5
41D
100
AcDbEntity
  8
0
  6
CONTINUOUS
 62
               4
100
AcDbLine
 10
7.9000000000002331
 20
18.299999994247401
 30
0.0
 11
7.9000000000002331
 21
18.700207536078665
 31
0.0
  0
LINE
  5
41E
100
AcDbEntity
  8
0
  6
CONTINUOUS
 62
               4
100
AcDbLine
 10
2.0000000000004832
 20
33.499999999998636
 30
0.0
 11
8.0000000000004832
 21
33.499999999998522
 31
0.0
  0
LINE
  5
41F
100
AcDbEntity
  8
0
  6
CONTINUOUS
 62
               4
100
AcDbLine
 10
2.0000000000003695
 20
26.499999999998636
 30
0.0
 11
8.0000000000003695
 21
26.499999999998522
 31
0.0
  0
LINE
  5
420
100
AcDbEntity
  8
0
  6
CONTINUOUS
 62
               4
100
AcDbLine
 10
-1.9999999999996305
 20
33.499999999998636
 30
0.0
 11
-7.9999999999996305
 21
33.499999999998749
 31
0.0
  0
LINE
  5
421
100
AcDbEntity
  8
0
  6
CONTINUOUS
 62
               4
100
AcDbLine
 10
-1.9999999999997442
 20
26.499999999998636
 30
0.0
 11
-7.9999999999997442
 21
26.499999999998749
 31
0.0
  0
LINE
  5
422
100
AcDbEntity
  8
0
  6
CONTINUOUS
 62
               4
100
AcDbLine
 10
-1.9999999999996305
 20
33.499999999998636
 30
0.0
 11
-1.9999999999997442
 21
26.499999999998636
 31
0.0
  0
LINE
  5
423
100
AcDbEntity
  8
0
  6
CONTINUOUS
 62
               4
100
AcDbLine
 10
-7.9999999999996305
 20
33.499999999998749
 30
0.0
 11
-7.9999999999997442
 21
26.499999999998749
 31
0.0
  0
LINE
  5
424
100
AcDbEntity
  8
0
  6
CONTINUOUS
 62
               4
100
AcDbLine
 10
2.1000000000005059
 20
33.399999999998613
 30
0.0
 11
7.9000000000004604
 21
33.399999999998499
 31
0.0
  0
LINE
  5
425
100
AcDbEntity
  8
0
  6
CONTINUOUS
 62
               4
100
AcDbLine
 10
7.9000000000004604
 20
33.399999999998499
 30
0.0
 11
7.9000000000004604
 21
26.599999999998545
 31
0.0
  0
LINE
  5
426
100
AcDbEntity
  8
0
  6
CONTINUOUS
 62
               4
100
AcDbLine
 10
2.1000000000005059
 20
33.399999999998613
 30
0.0
 11
2.1000000000003922
 21
26.599999999998658
 31
0.0
  0
LINE
  5
427
100
AcDbEntity
  8
0
  6
CONTINUOUS
 62
               4
100
AcDbLine
 10
2.1000000000003922
 20
26.599999999998658
 30
0.0
 11
7.9000000000004604
 21
26.599999999998545
 31
0.0
  0
LINE
  5
428
100
AcDbEntity
  8
0
  6
CONTINUOUS
 62
               4
100
AcDbLine
 10
-2.0999999999996533
 20
33.399999999998613
 30
0.0
 11
-7.8999999999996078
 21
33.399999999998727
 31
0.0
  0
LINE
  5
429
100
AcDbEntity
  8
0
  6
CONTINUOUS
 62
               4
100
AcDbLine
 10
-7.8999999999996078
 20
33.399999999998727
 30
0.0
 11
-7.8999999999997215
 21
26.599999999998772
 31
0.0
  0
LINE
  5
42A
100
AcDbEntity
  8
0
  6
CONTINUOUS
 62
               4
100
AcDbLine
 10
-2.0999999999996533
 20
33.399999999998613
 30
0.0
 11
-2.0999999999997669
 21
26.599999999998658
 31
0.0
  0
LINE
  5
42B
100
AcDbEntity
  8
0
  6
CONTINUOUS
 62
               4
100
AcDbLine
 10
-2.0999999999997669
 20
26.599999999998658
 30
0.0
 11
-7.8999999999997215
 21
26.599999999998772
 31
0.0
  0
LINE
  5
42C
100
AcDbEntity
  8
0
  6
CONTINUOUS
 62
               4
100
AcDbLine
 10
-3.9999999999998579
 20
7.8999999999998636
 30
0.0
 11
-8.7999999999999261
 21
7.8999999999998636
 31
0.0
  0
LINE
  5
42D
100
AcDbEntity
  8
0
  6
CONTINUOUS
 62
               4
100
AcDbLine
 10
-2.7499999999994031
 20
39.999999999998636
 30
0.0
 11
-2.7499999999994031
 21
42.082435091041987
 31
0.0
  0
LINE
  5
42E
100
AcDbEntity
  8
0
  6
CONTINUOUS
 62
               4
100
AcDbLine
 10
-4.2499999999994031
 20
39.999999999998636
 30
0.0
 11
-4.2499999999994031
 21
41.679310091041941
 31
0.0
  0
LINE
  5
42F
100
AcDbEntity
  8
0
  6
CONTINUOUS
 62
               4
100
AcDbLine
 10
4.2500000000005969
 20
39.999999999998636
 30
0.0
 11
4.2500000000005969
 21
42.08243509104193
 31
0.0
  0
LINE
  5
430
100
AcDbEntity
  8
0
  6
CONTINUOUS
 62
               4
100
AcDbLine
 10
2.7500000000005969
 20
39.999999999998636
 30
0.0
 11
2.7500000000005969
 21
41.679310091041884
 31
0.0
  0
LINE
  5
431
100
AcDbEntity
  8
0
  6
CONTINUOUS
 62
               4
100
AcDbLine
 10
-3.7499999999994031
 20
44.000872591041912
 30
0.0
 11
-3.7499999999992895
 21
47.500872591041912
 31
0.0
  0
LINE
  5
432
100
AcDbEntity
  8
0
  6
CONTINUOUS
 62
               4
100
AcDbLine
 10
-3.2499999999994031
 20
44.000872591041912
 30
0.0
 11
-3.2499999999992895
 21
47.500872591041912
 31
0.0
  0
LINE
  5
433
100
AcDbEntity
  8
0
  6
CONTINUOUS
 62
               4
100
AcDbLine
 10
-2.7499999999994031
 20
44.000872591041912
 30
0.0
 11
-4.2499999999994031
 21
44.000872591041912
 31
0.0
  0
LINE
  5
434
100
AcDbEntity
  8
0
  6
CONTINUOUS
 62
               4
100
AcDbLine
 10
-4.2499999999994031
 20
42.340872591041943
 30
0.0
 11
-4.2499999999994031
 21
44.000872591041912
 31
0.0
  0
LINE
  5
435
100
AcDbEntity
  8
0
  6
CONTINUOUS
 62
               4
100
AcDbLine
 10
-2.7499999999994031
 20
42.712435091041925
 30
0.0
 11
-2.7499999999994031
 21
44.000872591041912
 31
0.0
  0
LINE
  5
436
100
AcDbEntity
  8
0
  6
CONTINUOUS
 62
               4
100
AcDbLine
 10
-3.2499999999992895
 20
47.500872591041912
 30
0.0
 11
-3.7499999999992895
 21
47.500872591041912
 31
0.0
  0
LINE
  5
437
100
AcDbEntity
  8
0
  6
CONTINUOUS
 62
             200
100
AcDbLine
 10
-4.4865455211431424
 20
41.615738482234633
 30
0.0
 11
-2.3110328296804425
 21
42.200407518065163
 31
0.0
  0
LINE
  5
438
100
AcDbEntity
  8
0
  6
CONTINUOUS
 62
             200
100
AcDbLine
 10
-4.5416827949836716
 20
42.230920339889963
 30
0.0
 11
-2.3516980976836237
 21
42.819478727289265
 31
0.0
  0
LINE
  5
439
100
AcDbEntity
  8
0
  6
CONTINUOUS
 62
               4
100
AcDbLine
 10
3.2500000000005969
 20
44.000872591041912
 30
0.0
 11
3.2500000000007105
 21
47.500872591041912
 31
0.0
  0
LINE
  5
43A
100
AcDbEntity
  8
0
  6
CONTINUOUS
 62
               4
100
AcDbLine
 10
3.7500000000005969
 20
44.000872591041912
 30
0.0
 11
3.7500000000007105
 21
47.500872591041912
 31
0.0
  0
LINE
  5
43B
100
AcDbEntity
  8
0
  6
CONTINUOUS
 62
               4
100
AcDbLine
 10
4.2500000000005969
 20
44.000872591041912
 30
0.0
 11
2.7500000000005969
 21
44.000872591041912
 31
0.0
  0
LINE
  5
43C
100
AcDbEntity
  8
0
  6
CONTINUOUS
 62
               4
100
AcDbLine
 10
2.7500000000005969
 20
42.340872591041943
 30
0.0
 11
2.7500000000005969
 21
44.000872591041912
 31
0.0
  0
LINE
  5
43D
100
AcDbEntity
  8
0
  6
CONTINUOUS
 62
               4
100
AcDbLine
 10
4.2500000000005969
 20
42.712435091041925
 30
0.0
 11
4.2500000000005969
 21
44.000872591041912
 31
0.0
  0
LINE
  5
43E
100
AcDbEntity
  8
0
  6
CONTINUOUS
 62
               4
100
AcDbLine
 10
3.7500000000007105
 20
47.500872591041912
 30
0.0
 11
3.2500000000007105
 21
47.500872591041912
 31
0.0
  0
LINE
  5
43F
100
AcDbEntity
  8
0
  6
CONTINUOUS
 62
             200
100
AcDbLine
 10
2.5134544788568576
 20
41.615738482234576
 30
0.0
 11
4.6889671703195575
 21
42.200407518065106
 31
0.0
  0
LINE
  5
440
100
AcDbEntity
  8
0
  6
CONTINUOUS
 62
             200
100
AcDbLine
 10
2.4583172050163284
 20
42.230920339889906
 30
0.0
 11
4.6483019023163763
 21
42.819478727289265
 31
0.0
  0
LINE
  5
441
100
AcDbEntity
  8
0
  6
CONTINUOUS
 62
               4
100
AcDbLine
 10
0.7500000000005969
 20
39.999999999998636
 30
0.0
 11
0.7500000000005969
 21
42.082435091041987
 31
0.0
  0
LINE
  5
442
100
AcDbEntity
  8
0
  6
CONTINUOUS
 62
               4
100
AcDbLine
 10
-0.7499999999994031
 20
39.999999999998636
 30
0.0
 11
-0.7499999999994031
 21
41.679310091041941
 31
0.0
  0
LINE
  5
443
100
AcDbEntity
  8
0
  6
CONTINUOUS
 62
             200
100
AcDbLine
 10
-1.0416827949836716
 20
42.230920339889963
 30
0.0
 11
1.1483019023163763
 21
42.819478727289265
 31
0.0
  0
LINE
  5
444
100
AcDbEntity
  8
0
  6
CONTINUOUS
 62
             200
100
AcDbLine
 10
-0.9865455211431424
 20
41.615738482234633
 30
0.0
 11
1.1889671703195575
 21
42.200407518065163
 31
0.0
  0
LINE
  5
445
100
AcDbEntity
  8
0
  6
CONTINUOUS
 62
               4
100
AcDbLine
 10
0.2500000000007105
 20
47.500872591041912
 30
0.0
 11
-0.2499999999992895
 21
47.500872591041912
 31
0.0
  0
LINE
  5
446
100
AcDbEntity
  8
0
  6
CONTINUOUS
 62
               4
100
AcDbLine
 10
0.7500000000005969
 20
42.712435091041925
 30
0.0
 11
0.7500000000005969
 21
44.000872591041912
 31
0.0
  0
LINE
  5
447
100
AcDbEntity
  8
0
  6
CONTINUOUS
 62
               4
100
AcDbLine
 10
-0.7499999999994031
 20
42.340872591041943
 30
0.0
 11
-0.7499999999994031
 21
44.000872591041912
 31
0.0
  0
LINE
  5
448
100
AcDbEntity
  8
0
  6
CONTINUOUS
 62
               4
100
AcDbLine
 10
0.7500000000005969
 20
44.000872591041912
 30
0.0
 11
-0.7499999999994031
 21
44.000872591041912
 31
0.0
  0
LINE
  5
449
100
AcDbEntity
  8
0
  6
CONTINUOUS
 62
               4
100
AcDbLine
 10
0.2500000000005969
 20
44.000872591041912
 30
0.0
 11
0.2500000000007105
 21
47.500872591041912
 31
0.0
  0
LINE
  5
44A
100
AcDbEntity
  8
0
  6
CONTINUOUS
 62
               4
100
AcDbLine
 10
-0.2499999999994031
 20
44.000872591041912
 30
0.0
 11
-0.2499999999992895
 21
47.500872591041912
 31
0.0
  0
LINE
  5
44B
100
AcDbEntity
  8
0
  6
CENTER
 62
             200
100
AcDbLine
 10
3.5000000000005627
 20
39.545852726060602
 30
0.0
 11
3.5000000000006821
 21
48.111272014543232
 31
0.0
  0
LINE
  5
44C
100
AcDbEntity
  8
0
  6
CENTER
 62
             200
100
AcDbLine
 10
-3.4999999999994373
 20
39.545852726060701
 30
0.0
 11
-3.4999999999993179
 21
48.111272014543232
 31
0.0
  0
ENDBLK
  5
44D
100
AcDbEntity
  8
0
100
AcDbBlockEnd
  0
BLOCK
  5
46F
100
AcDbEntity
  8
0
  6
ByBlock
 62
               0
100
AcDbBlockBegin
  2
_OPEN30
 70
               2
 10
0.0
 20
0.0
 30
0.0
  3
_OPEN30
  1

  0
LINE
  5
470
100
AcDbEntity
  8
0
  6
ByBlock
 62
               0
100
AcDbLine
 10
-1.0
 20
0.267949
 30
0.0
 11
0.0
 21
0.0
 31
0.0
  0
LINE
  5
471
100
AcDbEntity
  8
0
  6
ByBlock
 62
               0
100
AcDbLine
 10
0.0
 20
0.0
 30
0.0
 11
-1.0
 21
-0.267949
 31
0.0
  0
LINE
  5
472
100
AcDbEntity
  8
0
  6
ByBlock
 62
               0
100
AcDbLine
 10
0.0
 20
0.0
 30
0.0
 11
-1.0
 21
0.0
 31
0.0
  0
ENDBLK
  5
473
100
AcDbEntity
  8
0
  6
ByBlock
 62
               0
100
AcDbBlockEnd
  0
ENDSEC
  0
SECTION
  2
ENTITIES
  0
INSERT
  5
44E
100
AcDbEntity
  8
0
  6
ByBlock
100
AcDbBlockReference
  2
PA24F6-1
 10
110.97615683536156
 20
107.00654017040398
 30
0.0
  0
INSERT
  5
44F
100
AcDbEntity
  8
0
  6
ByBlock
100
AcDbBlockReference
  2
PA24F6-3
 10
-2.9977208654065164
 20
107.00654017040804
 30
0.0
 50
359.99999999998482
  0
INSERT
  5
450
100
AcDbEntity
  8
0
  6
ByBlock
100
AcDbBlockReference
  2
PA24F6-4
 10
110.97615683536156
 20
-38.59345982960474
 30
0.0
  0
INSERT
  5
451
100
AcDbEntity
  8
0
  6
ByBlock
100
AcDbBlockReference
  2
PA24F6-5
 10
-84.971598566155819
 20
107.00654017041217
 30
0.0
 50
359.99999999996788
  0
INSERT
  5
452
100
AcDbEntity
  8
0
  6
ByBlock
100
AcDbBlockReference
  2
PA24F6-6
 10
-81.331235660298901
 20
-143.49999999999983
 30
0.0
  0
INSERT
  5
453
100
AcDbEntity
  8
0
  6
ByBlock
100
AcDbBlockReference
  2
PA24F6-7
 10
-170.83637472814257
 20
-143.50000000000017
 30
0.0
 50
359.99999999999869
  0
INSERT
  5
454
100
AcDbEntity
  8
0
  6
ByBlock
100
AcDbBlockReference
  2
PA24F6-9
 10
17.755732950831391
 20
-143.50000000000037
 30
0.0
 50
359.99999999999869
  0
INSERT
  5
455
100
AcDbEntity
  8
0
  6
ByBlock
100
AcDbBlockReference
  2
PA24F6-8
 10
-236.4979083083158
 20
-143.5
 30
0.0
  0
INSERT
  5
456
100
AcDbEntity
  8
0
  6
ByBlock
100
AcDbBlockReference
  2
PA24F6-10
 10
228.69589922977605
 20
-143.50000000000017
 30
0.0
  0
INSERT
  5
457
100
AcDbEntity
  8
0
  6
ByBlock
100
AcDbBlockReference
  2
PA24F6-2
 10
136.83190131077333
 20
-143.50000000000034
 30
0.0
 50
359.99999999999869
  0
MTEXT
  5
458
100
AcDbEntity
  8
0
  6
CONTINUOUS
 62
               7
100
AcDbMText
 10
-257.93165789425552
 20
185.5
 30
0.0
 40
6.3000001907348633
 41
0.0
 71
               4
 72
               1
  1
\W1.065;\A1;PA/PB SERIES
  0
MTEXT
  5
459
100
AcDbEntity
  8
0
  6
CONTINUOUS
 62
               7
100
AcDbMText
 10
170.28099805280428
 20
-185.0
 30
0.0
 40
9.0
 41
0.0
 71
               4
 72
               1
  1
\W1.121;\A1;KOGANEI CORP.
  0
MTEXT
  5
45A
100
AcDbEntity
  8
0
  6
CONTINUOUS
 62
               7
100
AcDbMText
 10
198.27702406779611
 20
185.5
 30
0.0
 40
6.3000001907348633
 41
0.0
 71
               4
 72
               1
  1
\W1.311;\A1;Ver. 1.0
  0
LINE
  5
45B
100
AcDbEntity
  8
0
  6
CONTINUOUS
 62
               7
100
AcDbLine
 10
-161.25
 20
195.5
 30
0.0
 11
-161.25
 21
175.5
 31
0.0
  0
LINE
  5
45C
100
AcDbEntity
  8
0
  6
CONTINUOUS
 62
               7
100
AcDbLine
 10
162.0999755859375
 20
195.5
 30
0.0
 11
162.0999755859375
 21
175.5
 31
0.0
  0
LINE
  5
45D
100
AcDbEntity
  8
0
  6
CONTINUOUS
 62
               7
100
AcDbLine
 10
-281.25
 20
175.5
 30
0.0
 11
-161.25
 21
175.5
 31
0.0
  0
LINE
  5
45E
100
AcDbEntity
  8
0
  6
CONTINUOUS
 62
               7
100
AcDbLine
 10
162.0999755859375
 20
175.5
 30
0.0
 11
282.099853515625
 21
175.5
 31
0.0
  0
LINE
  5
45F
100
AcDbEntity
  8
0
  6
CONTINUOUS
 62
               7
100
AcDbLine
 10
162.0999755859375
 20
-175.0
 30
0.0
 11
282.099853515625
 21
-175.0
 31
0.0
  0
LINE
  5
460
100
AcDbEntity
  8
0
  6
CONTINUOUS
 62
               7
100
AcDbLine
 10
162.0999755859375
 20
-175.0
 30
0.0
 11
162.0999755859375
 21
-195.0
 31
0.0
  0
LINE
  5
461
100
AcDbEntity
  8
0
  6
CONTINUOUS
 62
               7
100
AcDbLine
 10
-281.25
 20
-195.0
 30
0.0
 11
282.099853515625
 21
-195.0
 31
0.0
  0
LINE
  5
462
100
AcDbEntity
  8
0
  6
CONTINUOUS
 62
               7
100
AcDbLine
 10
-281.25
 20
195.5
 30
0.0
 11
-281.25
 21
-195.0
 31
0.0
  0
LINE
  5
463
100
AcDbEntity
  8
0
  6
CONTINUOUS
 62
               7
100
AcDbLine
 10
-281.25
 20
195.5
 30
0.0
 11
282.099853515625
 21
195.5
 31
0.0
  0
LINE
  5
464
100
AcDbEntity
  8
0
  6
CONTINUOUS
 62
               7
100
AcDbLine
 10
282.099853515625
 20
195.5
 30
0.0
 11
282.099853515625
 21
-195.0
 31
0.0
  0
MTEXT
  5
465
100
AcDbEntity
  8
0
  6
CONTINUOUS
 62
               7
100
AcDbMText
 10
-268.51037079943035
 20
160.5
 30
0.0
 40
6.3000001907348633
 41
0.0
 71
               4
 72
               1
  1
\W1.038;\A1;MODEL：PA24F6-03(02)-G2
  0
MTEXT
  5
466
100
AcDbEntity
  8
0
  6
CONTINUOUS
 62
               7
100
AcDbMText
 10
-230.48436819415886
 20
150.5
 30
0.0
 40
6.3000001907348633
 41
0.0
 71
               4
 72
               1
  1
\W1.063;\A1;PA24HF6-03(02)-G2
  0
LINE
  5
467
100
AcDbEntity
  8
0
  6
CONTINUOUS
 62
               7
100
AcDbLine
 10
-281.25
 20
-72.073045889549661
 30
0.0
 11
282.099853515625
 21
-72.073045889549661
 31
0.0
  0
LINE
  5
468
100
AcDbEntity
  8
0
  6
CONTINUOUS
 62
               7
100
AcDbLine
 10
-26.520894368489579
 20
-72.073045889549661
 30
0.0
 11
-26.520894368489579
 21
-195.0
 31
0.0
  0
LINE
  5
469
100
AcDbEntity
  8
0
  6
CONTINUOUS
 62
               7
100
AcDbLine
 10
94.316569010416686
 20
-72.073045889549661
 30
0.0
 11
94.316569010416686
 21
-195.0
 31
0.0
  0
MTEXT
  5
46A
100
AcDbEntity
  8
0
  6
CONTINUOUS
 62
               1
100
AcDbMText
 10
-267.25
 20
-92.073045889549661
 30
0.0
 40
4.5
 41
0.0
 71
               4
 72
               1
  1
\A1;-39
  0
MTEXT
  5
46B
100
AcDbEntity
  8
0
  6
CONTINUOUS
 62
               1
100
AcDbMText
 10
-17.520894368489564
 20
-92.073045889549661
 30
0.0
 40
4.5
 41
0.0
 71
               4
 72
               1
  1
\A1;-G3
  0
MTEXT
  5
46C
100
AcDbEntity
  8
0
  6
CONTINUOUS
 62
               1
100
AcDbMText
 10
108.41031899784383
 20
-92.073045889549661
 30
0.0
 40
4.5
 41
0.0
 71
               4
 72
               1
  1
\W1.125;\A1;-G1
  0
MTEXT
  5
46D
100
AcDbEntity
  8
0
  6
CONTINUOUS
 62
               2
100
AcDbMText
 10
-178.91497453959386
 20
53.66278969357694
 30
0.0
 40
4.5
 41
0.0
 71
               4
 72
               1
  1
\W1.077;\A1;3-Rc3/8(Rc1/4)
  0
LEADER
  5
474
100
AcDbEntity
  8
0
  6
CONTINUOUS
 62
               2
100
AcDbLeader
  3
MXDIMSTYLE
 73
               3
 74
               0
 75
               0
 40
0.0
 76
               3
 10
-98.421598613867118
 20
71.818529236409731
 30
0.0
 10
-111.59210664187052
 20
49.006540170414098
 30
0.0
 10
-178.91497451220133
 20
49.006540170414098
 30
0.0
 77
               2
1001
ACAD
1000
DSTYLE
1002
{
1070
               6
1000
_OPEN30
1070
               7
1000
_OPEN30
1070
              41
1040
2.77
1070
             173
1070
               1
1070
             341
1005
46E
1002
}
  0
MTEXT
  5
475
100
AcDbEntity
  8
0
  6
CONTINUOUS
 62
               2
100
AcDbMText
 10
-147.21567323596349
 20
30.662789693574922
 30
0.0
 40
4.5
 41
0.0
 71
               4
 72
               1
  1
\W1.050;\A1;2-RC1/4
  0
LEADER
  5
476
100
AcDbEntity
  8
0
  6
CONTINUOUS
 62
               2
100
AcDbLeader
  3
MXDIMSTYLE
 73
               3
 74
               0
 75
               0
 40
0.0
 76
               3
 10
-97.521598566192964
 20
50.377375045804882
 30
0.0
 10
-111.59210664187691
 20
26.00654017041208
 30
0.0
 10
-147.21567326937935
 20
26.00654017041208
 30
0.0
 77
               2
1001
ACAD
1000
DSTYLE
1002
{
1070
               6
1000
_OPEN30
1070
               7
1000
_OPEN30
1070
              41
1040
2.77
1070
             173
1070
               1
1070
             341
1005
46E
1002
}
  0
ENDSEC
  0
SECTION
  2
OBJECTS
  0
DICTIONARY
  5
19
100
AcDbDictionary
  3
ACAD_GROUP
350
1A
  3
ACAD_MLINESTYLE
350
1B
  0
DICTIONARY
  5
1A
102
{ACAD_REACTORS
330
19
102
}
100
AcDbDictionary
  0
DICTIONARY
  5
1B
102
{ACAD_REACTORS
330
19
102
}
100
AcDbDictionary
  3
STANDARD
350
1C
  0
MLINESTYLE
  5
1C
102
{ACAD_REACTORS
330
1B
102
}
100
AcDbMlineStyle
  2
Standard
 70
               0
  3

 62
               0
 51
90.0
 52
90.0
 71
               2
 49
0.5
 62
             256
  6
ByLayer
 49
-0.5
 62
             256
  6
ByLayer
  0
ENDSEC
  0
EOF
