  0
SECTION
  2
HEADER
  9
$ACADVER
  1
AC1012
  9
$DWGCODEPAGE
  3
dos932
  9
$INSBASE
 10
0.0
 20
0.0
 30
0.0
  9
$EXTMIN
 10
-281.25
 20
-195.0
 30
0.0
  9
$EXTMAX
 10
285.6319057062413
 20
195.5
 30
0.0
  9
$LIMMIN
 10
-281.25
 20
-195.0
  9
$LIMMAX
 10
285.6319057062413
 20
195.5
  9
$ORTHOMODE
 70
               0
  9
$REGENMODE
 70
               1
  9
$FILLMODE
 70
               1
  9
$QTEXTMODE
 70
               0
  9
$MIRRTEXT
 70
               1
  9
$DRAGMODE
 70
               2
  9
$LTSCALE
 40
1.0
  9
$OSMODE
 70
               0
  9
$ATTMODE
 70
               1
  9
$TEXTSIZE
 40
3.2000000476837158
  9
$TRACEWID
 40
0.05
  9
$TEXTSTYLE
  7
MX_NOTE_STANDARD
  9
$CLAYER
  8
0
  9
$CELTYPE
  6
CONTINUOUS
  9
$CECOLOR
 62
             256
  9
$CELTSCALE
 40
1.0
  9
$DELOBJ
 70
               1
  9
$DISPSILH
 70
               0
  9
$DIMSCALE
 40
1.0
  9
$DIMASZ
 40
2.5
  9
$DIMEXO
 40
1.5
  9
$DIMDLI
 40
3.75
  9
$DIMRND
 40
0.0
  9
$DIMDLE
 40
0.0
  9
$DIMEXE
 40
1.5
  9
$DIMTP
 40
0.0
  9
$DIMTM
 40
0.0
  9
$DIMTXT
 40
3.2000000476837158
  9
$DIMCEN
 40
2.5
  9
$DIMTSZ
 40
0.0
  9
$DIMTOL
 70
               0
  9
$DIMLIM
 70
               0
  9
$DIMTIH
 70
               0
  9
$DIMTOH
 70
               0
  9
$DIMSE1
 70
               0
  9
$DIMSE2
 70
               0
  9
$DIMTAD
 70
               1
  9
$DIMZIN
 70
               8
  9
$DIMBLK
  1

  9
$DIMASO
 70
               1
  9
$DIMSHO
 70
               1
  9
$DIMPOST
  1

  9
$DIMAPOST
  1

  9
$DIMALT
 70
               0
  9
$DIMALTD
 70
               4
  9
$DIMALTF
 40
0.03937007874016
  9
$DIMLFAC
 40
1.0
  9
$DIMTOFL
 70
               1
  9
$DIMTVP
 40
0.0
  9
$DIMTIX
 70
               0
  9
$DIMSOXD
 70
               0
  9
$DIMSAH
 70
               0
  9
$DIMBLK1
  1

  9
$DIMBLK2
  1

  9
$DIMSTYLE
  2
MXDIMSTYLE
  9
$DIMCLRD
 70
               0
  9
$DIMCLRE
 70
               0
  9
$DIMCLRT
 70
               0
  9
$DIMTFAC
 40
1.0
  9
$DIMGAP
 40
1.0
  9
$DIMJUST
 70
               0
  9
$DIMSD1
 70
               0
  9
$DIMSD2
 70
               0
  9
$DIMTOLJ
 70
               1
  9
$DIMTZIN
 70
               0
  9
$DIMALTZ
 70
               0
  9
$DIMALTTZ
 70
               0
  9
$DIMFIT
 70
               3
  9
$DIMUPT
 70
               1
  9
$DIMUNIT
 70
               2
  9
$DIMDEC
 70
               4
  9
$DIMTDEC
 70
               4
  9
$DIMALTU
 70
               2
  9
$DIMALTTD
 70
               4
  9
$DIMTXSTY
  7
MX_NOTE_STANDARD
  9
$DIMAUNIT
 70
               0
  9
$LUNITS
 70
               2
  9
$LUPREC
 70
               4
  9
$SKETCHINC
 40
0.1
  9
$FILLETRAD
 40
0.0
  9
$AUNITS
 70
               0
  9
$AUPREC
 70
               0
  9
$MENU
  1
acad
  9
$ELEVATION
 40
0.0
  9
$PELEVATION
 40
0.0
  9
$THICKNESS
 40
0.0
  9
$LIMCHECK
 70
               0
  9
$BLIPMODE
 70
               1
  9
$CHAMFERA
 40
0.0
  9
$CHAMFERB
 40
0.0
  9
$CHAMFERC
 40
0.0
  9
$CHAMFERD
 40
0.0
  9
$SKPOLY
 70
               0
  9
$TDCREATE
 40
2453378.356805556
  9
$TDUPDATE
 40
2453378.356805556
  9
$TDINDWG
 40
0.0000000000
  9
$TDUSRTIMER
 40
0.0000000000
  9
$USRTIMER
 70
               1
  9
$ANGBASE
 50
0.0
  9
$ANGDIR
 70
               0
  9
$PDMODE
 70
               0
  9
$PDSIZE
 40
0.0
  9
$PLINEWID
 40
0.0
  9
$COORDS
 70
               1
  9
$SPLFRAME
 70
               0
  9
$SPLINETYPE
 70
               6
  9
$SPLINESEGS
 70
               8
  9
$ATTDIA
 70
               0
  9
$ATTREQ
 70
               1
  9
$HANDLING
 70
               1
  9
$HANDSEED
  5
59F
  9
$SURFTAB1
 70
               6
  9
$SURFTAB2
 70
               6
  9
$SURFTYPE
 70
               6
  9
$SURFU
 70
               6
  9
$SURFV
 70
               6
  9
$UCSNAME
  2

  9
$UCSORG
 10
0.0
 20
0.0
 30
0.0
  9
$UCSXDIR
 10
1.0
 20
0.0
 30
0.0
  9
$UCSYDIR
 10
0.0
 20
1.0
 30
0.0
  9
$PUCSNAME
  2

  9
$PUCSORG
 10
0.0
 20
0.0
 30
0.0
  9
$PUCSXDIR
 10
1.0
 20
0.0
 30
0.0
  9
$PUCSYDIR
 10
0.0
 20
1.0
 30
0.0
  9
$USERI1
 70
               0
  9
$USERI2
 70
               0
  9
$USERI3
 70
               0
  9
$USERI4
 70
               0
  9
$USERI5
 70
               0
  9
$USERR1
 40
0.0
  9
$USERR2
 40
0.0
  9
$USERR3
 40
0.0
  9
$USERR4
 40
0.0
  9
$USERR5
 40
0.0
  9
$WORLDVIEW
 70
               1
  9
$SHADEDGE
 70
               3
  9
$SHADEDIF
 70
              70
  9
$TILEMODE
 70
               1
  9
$MAXACTVP
 70
              16
  9
$PINSBASE
 10
0.0
 20
0.0
 30
0.0
  9
$PLIMCHECK
 70
               0
  9
$PEXTMIN
 10
1.0000000000000000E+20
 20
1.0000000000000000E+20
 30
1.0000000000000000E+20
  9
$PEXTMAX
 10
-1.0000000000000000E+20
 20
-1.0000000000000000E+20
 30
-1.0000000000000000E+20
  9
$PLIMMIN
 10
0.0
 20
0.0
  9
$PLIMMAX
 10
12.0
 20
9.0
  9
$UNITMODE
 70
               0
  9
$VISRETAIN
 70
               0
  9
$PLINEGEN
 70
               1
  9
$PSLTSCALE
 70
               0
  9
$TREEDEPTH
 70
            3020
  9
$PICKSTYLE
 70
               1
  9
$CMLSTYLE
  2
Standard
  9
$CMLJUST
 70
               0
  9
$CMLSCALE
 40
1.0
  9
$SAVEIMAGES
 70
               0
  0
ENDSEC
  0
SECTION
  2
CLASSES
  0
CLASS
  1
LWPOLYLINE
  2
AcDbPolyline
  3
"AutoCAD"
 90
        0
280
               0
281
               1
  0
CLASS
  1
IMAGE
  2
AcDbRasterImage
  3
ISM
 90
      127
280
               0
281
               1
  0
CLASS
  1
OLE2FRAME
  2
AcDbOle2Frame
  3
""
 90
        0
280
               0
281
               1
  0
CLASS
  1
HATCH
  2
AcDbHatch
  3
"ACAD_SEDONA"
 90
        0
280
               0
281
               1
  0
CLASS
  1
DICTIONARYVAR
  2
AcDbDictionaryVar
  3
"AutoCAD"
 90
        0
280
               0
281
               0
  0
CLASS
  1
RASTERVARIABLES
  2
AcDbRasterVariables
  3
ISM
 90
        0
280
               0
281
               0
  0
CLASS
  1
IMAGEDEF
  2
AcDbRasterImageDef
  3
ISM
 90
        0
280
               0
281
               0
  0
CLASS
  1
IMAGEDEF_REACTOR
  2
AcDbRasterImageDefReactor
  3
ISM
 90
        1
280
               0
281
               0
  0
CLASS
  1
IDBUFFER
  2
AcDbIdBuffer
  3
"Acad"
 90
        0
280
               0
281
               0
  0
CLASS
  1
SPATIAL_FILTER
  2
AcDbSpatialFilter
  3
"Acad"
 90
        0
280
               0
281
               0
  0
CLASS
  1
XRECORD
  2
AcDbXrecord
  3
"<Built In>"
 90
        0
280
               0
281
               0
  0
CLASS
  1
SORTENTSTABLE
  2
AcDbSortentsTable
  3
"AutoCAD"
 90
        0
280
               0
281
               0
  0
CLASS
  1
LAYER_INDEX
  2
AcDbLayerIndex
  3
"Acad"
 90
        0
280
               0
281
               0
  0
CLASS
  1
SPATIAL_INDEX
  2
AcDbSpatialIndex
  3
"Acad"
 90
        0
280
               0
281
               0
  0
CLASS
  1
OBJECT_PTR
  2
CAseDLPNTableRecord
  3
"ASE-LPNTableRecord"
 90
        1
280
               0
281
               0
  0
CLASS
  1
LAYOUT
  2
AcDbLayout
  3
"AutoCAD 2000"
 90
        1
280
               0
281
               0
  0
CLASS
  1
PLOTSETTINGS
  2
AcDbPlotSettings
  3
"AutoCAD 2000"
 90
        1
280
               0
281
               0
  0
CLASS
  1
ACDBDICTIONARYWDFLT
  2
AcDbDictionaryWithDefault
  3
"AutoCAD 2000"
 90
        1
280
               0
281
               0
  0
CLASS
  1
ACDBPLACEHOLDER
  2
AcDbPlaceHolder
  3
"AutoCAD 2000"
 90
        1
280
               0
281
               0
  0
ENDSEC
  0
SECTION
  2
TABLES
  0
TABLE
  2
VPORT
  5
7
100
AcDbSymbolTable
 70
               1
  0
VPORT
  5
15
100
AcDbSymbolTableRecord
100
AcDbViewportTableRecord
  2
*ACTIVE
 70
               0
 10
0.0
 20
0.0
 11
1.0
 21
1.0
 12
2.1909528531206206
 22
0.25
 13
0.0
 23
0.0
 14
1.0
 24
1.0
 15
0.0
 25
0.0
 16
0.0
 26
0.0
 36
1.0
 17
0.0
 27
0.0
 37
0.0
 40
394.40500000000003
 41
1.7320508075688772
 42
50.0
 43
0.0
 44
0.0
 50
0.0
 51
0.0
 71
               0
 72
             100
 73
               1
 74
               1
 75
               0
 76
               0
 77
               0
 78
               0
  0
ENDTAB
  0
TABLE
  2
LTYPE
  5
4
100
AcDbSymbolTable
 70
               6
  0
LTYPE
  5
11
100
AcDbSymbolTableRecord
100
AcDbLinetypeTableRecord
  2
BYBLOCK
 70
              64
  3

 72
              65
 73
               0
 40
0.0
  0
LTYPE
  5
12
100
AcDbSymbolTableRecord
100
AcDbLinetypeTableRecord
  2
BYLAYER
 70
              64
  3

 72
              65
 73
               0
 40
0.0
  0
LTYPE
  5
13
100
AcDbSymbolTableRecord
100
AcDbLinetypeTableRecord
  2
CONTINUOUS
 70
              64
  3
Solid line
 72
              65
 73
               0
 40
0.0
  0
LTYPE
  5
24
100
AcDbSymbolTableRecord
100
AcDbLinetypeTableRecord
  2
CENTER
 70
              64
  3
Center ____ _ ____ _ ____ _ ____ _ ____ _ ____
 72
              65
 73
               4
 40
26.0
 49
20.0
 74
               0
 49
-2.0
 74
               0
 49
2.0
 74
               0
 49
-2.0
 74
               0
  0
LTYPE
  5
DB
100
AcDbSymbolTableRecord
100
AcDbLinetypeTableRecord
  2
PHANTOM
 70
              64
  3
Phantom ______  __  __  ______  __  __  ______
 72
              65
 73
               6
 40
30.0
 49
20.0
 74
               0
 49
-2.0
 74
               0
 49
2.0
 74
               0
 49
-2.0
 74
               0
 49
2.0
 74
               0
 49
-2.0
 74
               0
  0
LTYPE
  5
144
100
AcDbSymbolTableRecord
100
AcDbLinetypeTableRecord
  2
DASHED
 70
              64
  3
Dashed __ __ __ __ __ __ __ __ __ __ __ __ __ _
 72
              65
 73
               2
 40
4.0
 49
2.0
 74
               0
 49
-2.0
 74
               0
  0
ENDTAB
  0
TABLE
  2
LAYER
  5
2
100
AcDbSymbolTable
 70
               2
  0
LAYER
  5
14
100
AcDbSymbolTableRecord
100
AcDbLayerTableRecord
  2
0
 70
               0
 62
               7
  6
CONTINUOUS
  0
LAYER
  5
1D
100
AcDbSymbolTableRecord
100
AcDbLayerTableRecord
  2
DEFPOINTS
 70
               0
 62
               7
  6
CONTINUOUS
  0
ENDTAB
  0
TABLE
  2
STYLE
  5
3
100
AcDbSymbolTable
 70
               1
  0
STYLE
  5
17
100
AcDbSymbolTableRecord
100
AcDbTextStyleTableRecord
  2
MX_NOTE_STANDARD
 70
               0
 40
0.0
 41
1.0
 50
0.0
 71
               0
 42
3.2000000476837158
  3
txt.shx
  4
extfont.shx
  0
ENDTAB
  0
TABLE
  2
VIEW
  5
5
100
AcDbSymbolTable
 70
               0
  0
ENDTAB
  0
TABLE
  2
UCS
  5
6
100
AcDbSymbolTable
 70
               0
  0
ENDTAB
  0
TABLE
  2
APPID
  5
8
100
AcDbSymbolTable
 70
               1
  0
APPID
  5
16
100
AcDbSymbolTableRecord
100
AcDbRegAppTableRecord
  2
ACAD
 70
               0
  0
ENDTAB
  0
TABLE
  2
DIMSTYLE
  5
9
100
AcDbSymbolTable
 70
               1
  0
DIMSTYLE
105
18
100
AcDbSymbolTableRecord
100
AcDbDimStyleTableRecord
  2
MXDIMSTYLE
 70
               0
  3

  4

  5

  6

  7

 40
1.0
 41
2.5
 42
1.5
 43
3.75
 44
1.5
 45
0.0
 46
0.0
 47
0.0
 48
0.0
 71
               0
 72
               0
 73
               0
 74
               0
 75
               0
 76
               0
 77
               1
 78
               8
140
3.2000000476837158
141
2.5
142
0.0
143
0.03937007874016
144
1.0
145
0.0
146
1.0
147
1.0
170
               0
171
               4
172
               1
173
               0
174
               0
175
               0
176
               0
177
               0
178
               0
270
               2
271
               4
272
               4
273
               2
274
               4
275
               0
280
               0
281
               0
282
               0
283
               1
284
               0
285
               0
286
               0
287
               3
288
               1
340
17
  0
ENDTAB
  0
TABLE
  2
BLOCK_RECORD
  5
1
100
AcDbSymbolTable
 70
               5
  0
BLOCK_RECORD
  5
A
100
AcDbSymbolTableRecord
100
AcDbBlockTableRecord
  2
*MODEL_SPACE
  0
BLOCK_RECORD
  5
B
100
AcDbSymbolTableRecord
100
AcDbBlockTableRecord
  2
*PAPER_SPACE
  0
BLOCK_RECORD
  5
1E
100
AcDbSymbolTableRecord
100
AcDbBlockTableRecord
  2
PB-H-1
  0
BLOCK_RECORD
  5
1F
100
AcDbSymbolTableRecord
100
AcDbBlockTableRecord
  2
PB-H-2
  0
BLOCK_RECORD
  5
20
100
AcDbSymbolTableRecord
100
AcDbBlockTableRecord
  2
PB-H-3
  0
BLOCK_RECORD
  5
21
100
AcDbSymbolTableRecord
100
AcDbBlockTableRecord
  2
PB-H-4
  0
BLOCK_RECORD
  5
591
100
AcDbSymbolTableRecord
100
AcDbBlockTableRecord
  2
_OPEN30
  0
ENDTAB
  0
ENDSEC
  0
SECTION
  2
BLOCKS
  0
BLOCK
  5
D
100
AcDbEntity
  8
0
100
AcDbBlockBegin
  2
*MODEL_SPACE
 70
               0
 10
0.0
 20
0.0
 30
0.0
  3
*MODEL_SPACE
  1

  0
ENDBLK
  5
E
100
AcDbEntity
  8
0
100
AcDbBlockEnd
  0
BLOCK
  5
F
100
AcDbEntity
 67
               1
  8
0
100
AcDbBlockBegin
  2
*PAPER_SPACE
 70
               0
 10
0.0
 20
0.0
 30
0.0
  3
*PAPER_SPACE
  1

  0
ENDBLK
  5
10
100
AcDbEntity
 67
               1
  8
0
100
AcDbBlockEnd
  0
BLOCK
  5
22
100
AcDbEntity
  8
0
100
AcDbBlockBegin
  2
PB-H-1
 70
               0
 10
0.0
 20
0.0
 30
0.0
  3
PB-H-1
  1

  0
LINE
  5
23
100
AcDbEntity
  8
0
  6
CONTINUOUS
 62
               7
100
AcDbLine
 10
42.287566607972408
 20
-79.9999999780362
 30
0.0
 11
42.149999984767362
 21
-79.9999999780362
 31
0.0
  0
LINE
  5
25
100
AcDbEntity
  8
0
  6
CENTER
 62
               2
100
AcDbLine
 10
64.000000000000043
 20
-98.999999978036229
 30
0.0
 11
64.000000000000057
 21
55.020339263112945
 31
0.0
  0
LINE
  5
26
100
AcDbEntity
  8
0
  6
CENTER
 62
               2
100
AcDbLine
 10
40.000000000000611
 20
-74.9999999780362
 30
0.0
 11
40.000000000000625
 21
55.020339263112945
 31
0.0
  0
LINE
  5
27
100
AcDbEntity
  8
0
  6
CENTER
 62
             200
100
AcDbLine
 10
40.000000000000597
 20
-137.68125051170546
 30
0.0
 11
40.000000000000611
 21
-74.9999999780362
 31
0.0
  0
LINE
  5
28
100
AcDbEntity
  8
0
  6
CENTER
 62
             200
100
AcDbLine
 10
64.000000000000028
 20
-162.7170180228828
 30
0.0
 11
64.000000000000043
 21
-98.999999978036229
 31
0.0
  0
LINE
  5
29
100
AcDbEntity
  8
0
  6
CONTINUOUS
 62
               7
100
AcDbLine
 10
51.99999999190976
 20
-98.999999978036229
 30
0.0
 11
75.999999991909817
 21
-98.999999978036229
 31
0.0
  0
LINE
  5
2A
100
AcDbEntity
  8
0
  6
CONTINUOUS
 62
               7
100
AcDbLine
 10
28.000000000000625
 20
-74.9999999780362
 30
0.0
 11
52.000000000000682
 21
-74.9999999780362
 31
0.0
  0
LINE
  5
2B
100
AcDbEntity
  8
0
  6
CENTER
 62
               2
100
AcDbLine
 10
0.0000000000000568
 20
-6.2503225806450189
 30
0.0
 11
-0.0000000000000568
 21
5.3343396226416786
 31
0.0
  0
LINE
  5
2C
100
AcDbEntity
  8
0
  6
CENTER
 62
               2
100
AcDbLine
 10
-6.7409670136822513
 20
-39.000000000000156
 30
0.0
 11
4.9021674071616985
 21
-38.999999999999787
 31
0.0
  0
LINE
  5
2D
100
AcDbEntity
  8
0
  6
CONTINUOUS
 62
               7
100
AcDbLine
 10
28.000000000000625
 20
-79.9999999780362
 30
0.0
 11
28.000000000000043
 21
7.0000000000001563
 31
0.0
  0
ARC
  5
2E
100
AcDbEntity
  8
0
  6
CONTINUOUS
 62
               7
100
AcDbCircle
 10
27.000000000000014
 20
7.0000000000001563
 30
0.0
 40
1.0
100
AcDbArc
 50
0.0
 51
89.999999999999815
  0
ARC
  5
2F
100
AcDbEntity
  8
0
  6
CONTINUOUS
 62
               7
100
AcDbCircle
 10
-5.4999999999996021
 20
-42.750000000000099
 30
0.0
 40
0.5
100
AcDbArc
 50
89.999999999999815
 51
179.99999999999963
  0
ARC
  5
30
100
AcDbEntity
  8
0
  6
CONTINUOUS
 62
               7
100
AcDbCircle
 10
-5.4999999999995453
 20
-35.250000000000099
 30
0.0
 40
0.5
100
AcDbArc
 50
179.99999999999963
 51
269.99999999999937
  0
ARC
  5
31
100
AcDbEntity
  8
0
  6
CONTINUOUS
 62
               7
100
AcDbCircle
 10
-5.4999999999999716
 20
3.7499999999999289
 30
0.0
 40
0.5
100
AcDbArc
 50
179.99999999999963
 51
269.99999999999937
  0
ARC
  5
32
100
AcDbEntity
  8
0
  6
CONTINUOUS
 62
               7
100
AcDbCircle
 10
-5.4999999999999147
 20
-3.7500000000000711
 30
0.0
 40
0.5
100
AcDbArc
 50
89.999999999999815
 51
179.99999999999963
  0
LINE
  5
33
100
AcDbEntity
  8
0
  6
CONTINUOUS
 62
               7
100
AcDbLine
 10
24.20000000000006
 20
-6.99999999999973
 30
0.0
 11
24.20000000000006
 21
-2.99999999999973
 31
0.0
  0
LINE
  5
34
100
AcDbEntity
  8
0
  6
CENTER
 62
               2
100
AcDbLine
 10
0.0000000000003979
 20
-44.173511978380006
 30
0.0
 11
0.0000000000003126
 21
-33.199139784946126
 31
0.0
  0
ARC
  5
35
100
AcDbEntity
  8
0
  6
CONTINUOUS
 62
               7
100
AcDbCircle
 10
-4.9999999999999716
 20
7.0000000000001563
 30
0.0
 40
1.0
100
AcDbArc
 50
89.999999999999815
 51
179.99999999999963
  0
LINE
  5
36
100
AcDbEntity
  8
0
  6
CONTINUOUS
 62
               7
100
AcDbLine
 10
-5.9999999999999716
 20
6.9999999910751711
 30
0.0
 11
-5.9999999999999716
 21
3.7499999999999289
 31
0.0
  0
LINE
  5
37
100
AcDbEntity
  8
0
  6
CONTINUOUS
 62
               7
100
AcDbLine
 10
-5.9999999999993747
 20
-78.499999999999957
 30
0.0
 11
-5.9999999999996021
 21
-42.750000000000099
 31
0.0
  0
ARC
  5
38
100
AcDbEntity
  8
0
  6
CONTINUOUS
 62
               7
100
AcDbCircle
 10
0.0000000000002842
 20
-38.999999999999986
 30
0.0
 40
3.25
100
AcDbArc
 50
270.00000000000063
 51
90.000000000000199
  0
LINE
  5
39
100
AcDbEntity
  8
0
  6
CONTINUOUS
 62
               7
100
AcDbLine
 10
-0.0000000038421035
 20
-42.249999999999986
 30
0.0
 11
-5.4999999999996021
 21
-42.250000000000099
 31
0.0
  0
LINE
  5
3A
100
AcDbEntity
  8
0
  6
CONTINUOUS
 62
               7
100
AcDbLine
 10
-0.0000000038421035
 20
-35.749999999999986
 30
0.0
 11
-5.4999999999995453
 21
-35.750000000000099
 31
0.0
  0
ARC
  5
3B
100
AcDbEntity
  8
0
  6
CONTINUOUS
 62
               7
100
AcDbCircle
 10
0.0000000000000568
 20
0.0000000000000426
 30
0.0
 40
3.25
100
AcDbArc
 50
270.00000000000063
 51
90.000000000000199
  0
LINE
  5
3C
100
AcDbEntity
  8
0
  6
CONTINUOUS
 62
               7
100
AcDbLine
 10
0.0000000000000568
 20
-3.2499999999999574
 30
0.0
 11
-5.4999999999999147
 21
-3.2500000000000711
 31
0.0
  0
LINE
  5
3D
100
AcDbEntity
  8
0
  6
CONTINUOUS
 62
               7
100
AcDbLine
 10
-0.0000000038424446
 20
3.2500000000000426
 30
0.0
 11
-5.4999999999999716
 21
3.2499999999999289
 31
0.0
  0
LINE
  5
3E
100
AcDbEntity
  8
0
  6
CENTER
 62
               2
100
AcDbLine
 10
-6.7409670136830471
 20
-0.0000000000000711
 30
0.0
 11
4.9021674071609169
 21
0.0000000000000426
 31
0.0
  0
LINE
  5
3F
100
AcDbEntity
  8
0
  6
CONTINUOUS
 62
               7
100
AcDbLine
 10
-5.9999999999996021
 20
-35.250000000000099
 30
0.0
 11
-5.9999999999998579
 21
-3.7500000000000711
 31
0.0
  0
CIRCLE
  5
40
100
AcDbEntity
  8
0
  6
CONTINUOUS
 62
               7
100
AcDbCircle
 10
13.999999999999602
 20
-24.999999978036342
 30
0.0
 40
9.3155000000000001
  0
CIRCLE
  5
41
100
AcDbEntity
  8
0
  6
CONTINUOUS
 62
               2
100
AcDbCircle
 10
13.999999999999602
 20
-24.999999978036342
 30
0.0
 40
10.477499999999999
  0
CIRCLE
  5
42
100
AcDbEntity
  8
0
  6
CONTINUOUS
 62
               7
100
AcDbCircle
 10
13.999999999999943
 20
-52.999999978036314
 30
0.0
 40
9.3155000000000001
  0
CIRCLE
  5
43
100
AcDbEntity
  8
0
  6
CONTINUOUS
 62
               2
100
AcDbCircle
 10
13.999999999999943
 20
-52.999999978036314
 30
0.0
 40
10.477499999999999
  0
LINE
  5
44
100
AcDbEntity
  8
0
  6
CONTINUOUS
 62
               7
100
AcDbLine
 10
22.499999996157968
 20
-9.9999999780362288
 30
0.0
 11
22.499999996157911
 21
-4.4999999999998437
 31
0.0
  0
LINE
  5
45
100
AcDbEntity
  8
0
  6
CONTINUOUS
 62
               7
100
AcDbLine
 10
8.0000000000002842
 20
-39.733500816614466
 30
0.0
 11
8.0000000000002842
 21
-38.266499139458162
 31
0.0
  0
LINE
  5
46
100
AcDbEntity
  8
0
  6
CONTINUOUS
 62
               7
100
AcDbLine
 10
0.0000000000001705
 20
-78.499999999999901
 30
0.0
 11
-0.0000000000000568
 21
-52.999999978036371
 31
0.0
  0
ARC
  5
47
100
AcDbEntity
  8
0
  6
CONTINUOUS
 62
               7
100
AcDbCircle
 10
13.999999999999943
 20
-52.999999978036314
 30
0.0
 40
14.0
100
AcDbArc
 50
117.81813928465206
 51
179.99999999999994
  0
ARC
  5
48
100
AcDbEntity
  8
0
  6
CONTINUOUS
 62
               7
100
AcDbCircle
 10
7.0000000000002842
 20
-39.733500816614523
 30
0.0
 40
1.0
100
AcDbArc
 50
297.81813928465203
 51
0.0000000000004071
  0
ARC
  5
49
100
AcDbEntity
  8
0
  6
CONTINUOUS
 62
               7
100
AcDbCircle
 10
7.0000000000002842
 20
-38.266499139458219
 30
0.0
 40
1.0
100
AcDbArc
 50
0.0000000000004071
 51
62.18186071534867
  0
ARC
  5
4A
100
AcDbEntity
  8
0
  6
CONTINUOUS
 62
               7
100
AcDbCircle
 10
21.499999996157968
 20
-9.9999999780362288
 30
0.0
 40
1.0
100
AcDbArc
 50
269.99999999999983
 51
0.0000000000004071
  0
LINE
  5
4B
100
AcDbEntity
  8
0
  6
CONTINUOUS
 62
               7
100
AcDbLine
 10
21.499999986686205
 20
-10.999999978036229
 30
0.0
 11
13.999999986686205
 21
-10.999999978036342
 31
0.0
  0
LINE
  5
4C
100
AcDbEntity
  8
0
  6
CENTER
 62
               2
100
AcDbLine
 10
25.999999999999829
 20
-24.9999999780362
 30
0.0
 11
1.9999999999998295
 21
-24.999999978036371
 31
0.0
  0
ARC
  5
4D
100
AcDbEntity
  8
0
  6
CONTINUOUS
 62
               7
100
AcDbCircle
 10
-4.4999999999993747
 20
-78.499999999999957
 30
0.0
 40
1.5
100
AcDbArc
 50
180.0
 51
269.99999999999983
  0
ARC
  5
4E
100
AcDbEntity
  8
0
  6
CONTINUOUS
 62
               7
100
AcDbCircle
 10
1.5000000000001705
 20
-78.499999999999901
 30
0.0
 40
1.5
100
AcDbArc
 50
180.0
 51
269.99999999999983
  0
ARC
  5
4F
100
AcDbEntity
  8
0
  6
CONTINUOUS
 62
               7
100
AcDbCircle
 10
23.999999996157911
 20
-4.49999999999973
 30
0.0
 40
1.5
100
AcDbArc
 50
90.000000000000199
 51
180.0
  0
ARC
  5
50
100
AcDbEntity
  8
0
  6
CONTINUOUS
 62
               7
100
AcDbCircle
 10
13.999999999999716
 20
-24.999999978036342
 30
0.0
 40
14.0
100
AcDbArc
 50
90.000000000000199
 51
242.18186071534785
  0
LINE
  5
51
100
AcDbEntity
  8
0
  6
CENTER
 62
               2
100
AcDbLine
 10
2.0
 20
-52.999999978036357
 30
0.0
 11
26.0
 21
-52.999999978036207
 31
0.0
  0
LINE
  5
52
100
AcDbEntity
  8
0
  6
CONTINUOUS
 62
               7
100
AcDbLine
 10
28.000000000000071
 20
-2.99999999999973
 30
0.0
 11
23.999999996157911
 21
-2.99999999999973
 31
0.0
  0
LINE
  5
53
100
AcDbEntity
  8
0
  6
CONTINUOUS
 62
               7
100
AcDbLine
 10
28.000000000000625
 20
-79.999999999999844
 30
0.0
 11
-4.4999999999993747
 21
-79.999999999999957
 31
0.0
  0
LINE
  5
54
100
AcDbEntity
  8
0
  6
CONTINUOUS
 62
               7
100
AcDbLine
 10
26.99999998668666
 20
8.0000000000001563
 30
0.0
 11
-4.9999999999999432
 21
8.0000000000001563
 31
0.0
  0
LINE
  5
55
100
AcDbEntity
  8
0
  6
CONTINUOUS
 62
               7
100
AcDbLine
 10
28.000000000000071
 20
-6.99999999999973
 30
0.0
 11
22.499999996157911
 21
-6.99999999999973
 31
0.0
  0
LINE
  5
56
100
AcDbEntity
  8
0
  6
CENTER
 62
               2
100
AcDbLine
 10
104.00000000000121
 20
-6.2503225586813755
 30
0.0
 11
104.00000000000132
 21
5.334339644605322
 31
0.0
  0
LINE
  5
57
100
AcDbEntity
  8
0
  6
CENTER
 62
               2
100
AcDbLine
 10
110.7409670136835
 20
-38.999999978036513
 30
0.0
 11
99.097832592839552
 21
-38.999999978036143
 31
0.0
  0
LINE
  5
58
100
AcDbEntity
  8
0
  6
CENTER
 62
               2
100
AcDbLine
 10
90.000000000001293
 20
-65.130828232587618
 30
0.0
 11
90.000000000001663
 21
-12.699999956072801
 31
0.0
  0
ARC
  5
59
100
AcDbEntity
  8
0
  6
CONTINUOUS
 62
               7
100
AcDbCircle
 10
77.000000000001251
 20
7.0000000219637997
 30
0.0
 40
1.0
100
AcDbArc
 50
89.999999999999815
 51
179.99999999999963
  0
ARC
  5
5A
100
AcDbEntity
  8
0
  6
CONTINUOUS
 62
               7
100
AcDbCircle
 10
109.50000000000085
 20
-42.749999978036456
 30
0.0
 40
0.5
100
AcDbArc
 50
0.0
 51
89.999999999999815
  0
ARC
  5
5B
100
AcDbEntity
  8
0
  6
CONTINUOUS
 62
               7
100
AcDbCircle
 10
109.5000000000008
 20
-35.249999978036456
 30
0.0
 40
0.5
100
AcDbArc
 50
270.00000000000023
 51
0.0
  0
ARC
  5
5C
100
AcDbEntity
  8
0
  6
CONTINUOUS
 62
               7
100
AcDbCircle
 10
109.50000000000122
 20
3.7500000219635723
 30
0.0
 40
0.5
100
AcDbArc
 50
269.99999999999937
 51
0.0
  0
ARC
  5
5D
100
AcDbEntity
  8
0
  6
CONTINUOUS
 62
               7
100
AcDbCircle
 10
109.50000000000117
 20
-3.7499999780364277
 30
0.0
 40
0.5
100
AcDbArc
 50
0.0
 51
89.999999999999815
  0
LINE
  5
5E
100
AcDbEntity
  8
0
  6
CONTINUOUS
 62
               7
100
AcDbLine
 10
79.800000000001205
 20
-6.9999999780360866
 30
0.0
 11
79.800000000001205
 21
-2.9999999780360866
 31
0.0
  0
LINE
  5
5F
100
AcDbEntity
  8
0
  6
CENTER
 62
               2
100
AcDbLine
 10
104.00000000000085
 20
-44.173511956416363
 30
0.0
 11
104.00000000000095
 21
-33.199139762982483
 31
0.0
  0
ARC
  5
60
100
AcDbEntity
  8
0
  6
CONTINUOUS
 62
               7
100
AcDbCircle
 10
109.00000000000122
 20
7.0000000219637997
 30
0.0
 40
1.0
100
AcDbArc
 50
0.0
 51
89.999999999999815
  0
LINE
  5
61
100
AcDbEntity
  8
0
  6
CONTINUOUS
 62
               7
100
AcDbLine
 10
110.00000000000122
 20
7.0000000130388145
 30
0.0
 11
110.00000000000122
 21
3.7500000219635723
 31
0.0
  0
LINE
  5
62
100
AcDbEntity
  8
0
  6
CONTINUOUS
 62
               7
100
AcDbLine
 10
110.00000000000063
 20
-78.499999978036314
 30
0.0
 11
110.00000000000085
 21
-42.749999978036456
 31
0.0
  0
ARC
  5
63
100
AcDbEntity
  8
0
  6
CONTINUOUS
 62
               7
100
AcDbCircle
 10
104.00000000000097
 20
-38.999999978036342
 30
0.0
 40
3.25
100
AcDbArc
 50
89.999999999999389
 51
269.99999999999898
  0
LINE
  5
64
100
AcDbEntity
  8
0
  6
CONTINUOUS
 62
               7
100
AcDbLine
 10
104.00000000384335
 20
-42.249999978036342
 30
0.0
 11
109.50000000000085
 21
-42.249999978036456
 31
0.0
  0
LINE
  5
65
100
AcDbEntity
  8
0
  6
CONTINUOUS
 62
               7
100
AcDbLine
 10
104.00000000384335
 20
-35.749999978036342
 30
0.0
 11
109.5000000000008
 21
-35.749999978036456
 31
0.0
  0
ARC
  5
66
100
AcDbEntity
  8
0
  6
CONTINUOUS
 62
               7
100
AcDbCircle
 10
104.00000000000119
 20
0.000000021963686
 30
0.0
 40
3.25
100
AcDbArc
 50
89.999999999999389
 51
269.99999999999898
  0
LINE
  5
67
100
AcDbEntity
  8
0
  6
CONTINUOUS
 62
               7
100
AcDbLine
 10
104.00000000000119
 20
-3.249999978036314
 30
0.0
 11
109.50000000000117
 21
-3.2499999780364277
 31
0.0
  0
LINE
  5
68
100
AcDbEntity
  8
0
  6
CONTINUOUS
 62
               7
100
AcDbLine
 10
104.0000000038437
 20
3.250000021963686
 30
0.0
 11
109.50000000000122
 21
3.2500000219635723
 31
0.0
  0
LINE
  5
69
100
AcDbEntity
  8
0
  6
CENTER
 62
               2
100
AcDbLine
 10
110.7409670136843
 20
0.0000000219635723
 30
0.0
 11
99.097832592840348
 21
0.000000021963686
 31
0.0
  0
LINE
  5
6A
100
AcDbEntity
  8
0
  6
CONTINUOUS
 62
               7
100
AcDbLine
 10
110.00000000000085
 20
-35.249999978036456
 30
0.0
 11
110.00000000000111
 21
-3.7499999780364277
 31
0.0
  0
CIRCLE
  5
6B
100
AcDbEntity
  8
0
  6
CONTINUOUS
 62
               7
100
AcDbCircle
 10
90.000000000001648
 20
-24.999999956072699
 30
0.0
 40
9.3155000000000001
  0
CIRCLE
  5
6C
100
AcDbEntity
  8
0
  6
CONTINUOUS
 62
               2
100
AcDbCircle
 10
90.000000000001648
 20
-24.999999956072699
 30
0.0
 40
10.477499999999999
  0
CIRCLE
  5
6D
100
AcDbEntity
  8
0
  6
CONTINUOUS
 62
               7
100
AcDbCircle
 10
90.000000000001307
 20
-52.999999956072671
 30
0.0
 40
9.3155000000000001
  0
CIRCLE
  5
6E
100
AcDbEntity
  8
0
  6
CONTINUOUS
 62
               2
100
AcDbCircle
 10
90.000000000001307
 20
-52.999999956072671
 30
0.0
 40
10.477499999999999
  0
LINE
  5
6F
100
AcDbEntity
  8
0
  6
CONTINUOUS
 62
               7
100
AcDbLine
 10
81.500000003843297
 20
-9.9999999560725854
 30
0.0
 11
81.500000003843354
 21
-4.4999999780362003
 31
0.0
  0
LINE
  5
70
100
AcDbEntity
  8
0
  6
CONTINUOUS
 62
               7
100
AcDbLine
 10
96.000000000000966
 20
-39.733500794650823
 30
0.0
 11
96.000000000000966
 21
-38.266499117494519
 31
0.0
  0
LINE
  5
71
100
AcDbEntity
  8
0
  6
CONTINUOUS
 62
               7
100
AcDbLine
 10
104.00000000000108
 20
-78.499999978036257
 30
0.0
 11
104.00000000000131
 21
-52.999999956072728
 31
0.0
  0
ARC
  5
72
100
AcDbEntity
  8
0
  6
CONTINUOUS
 62
               7
100
AcDbCircle
 10
90.000000000001307
 20
-52.999999956072671
 30
0.0
 40
14.0
100
AcDbArc
 50
359.99999999999966
 51
62.181860715347533
  0
ARC
  5
73
100
AcDbEntity
  8
0
  6
CONTINUOUS
 62
               7
100
AcDbCircle
 10
97.000000000000966
 20
-39.73350079465088
 30
0.0
 40
1.0
100
AcDbArc
 50
179.9999999999992
 51
242.18186071534677
  0
ARC
  5
74
100
AcDbEntity
  8
0
  6
CONTINUOUS
 62
               7
100
AcDbCircle
 10
97.000000000000966
 20
-38.266499117494575
 30
0.0
 40
1.0
100
AcDbArc
 50
117.81813928465094
 51
179.9999999999992
  0
ARC
  5
75
100
AcDbEntity
  8
0
  6
CONTINUOUS
 62
               7
100
AcDbCircle
 10
82.500000003843297
 20
-9.9999999560725854
 30
0.0
 40
1.0
100
AcDbArc
 50
179.9999999999992
 51
269.99999999999898
  0
LINE
  5
76
100
AcDbEntity
  8
0
  6
CONTINUOUS
 62
               7
100
AcDbLine
 10
82.500000013315059
 20
-10.999999956072585
 30
0.0
 11
90.000000013315059
 21
-10.999999956072699
 31
0.0
  0
LINE
  5
77
100
AcDbEntity
  8
0
  6
CENTER
 62
               2
100
AcDbLine
 10
78.000000000001421
 20
-24.999999956072557
 30
0.0
 11
102.00000000000142
 21
-24.999999956072728
 31
0.0
  0
ARC
  5
78
100
AcDbEntity
  8
0
  6
CONTINUOUS
 62
               7
100
AcDbCircle
 10
108.50000000000063
 20
-78.499999978036314
 30
0.0
 40
1.5
100
AcDbArc
 50
269.99999999999898
 51
359.99999999999881
  0
ARC
  5
79
100
AcDbEntity
  8
0
  6
CONTINUOUS
 62
               7
100
AcDbCircle
 10
102.50000000000108
 20
-78.499999978036257
 30
0.0
 40
1.5
100
AcDbArc
 50
269.99999999999898
 51
359.99999999999881
  0
ARC
  5
7A
100
AcDbEntity
  8
0
  6
CONTINUOUS
 62
               7
100
AcDbCircle
 10
80.000000003843354
 20
-4.4999999780360866
 30
0.0
 40
1.5
100
AcDbArc
 50
359.99999999999881
 51
89.999999999999389
  0
ARC
  5
7B
100
AcDbEntity
  8
0
  6
CONTINUOUS
 62
               7
100
AcDbCircle
 10
90.000000000001535
 20
-24.999999956072699
 30
0.0
 40
14.0
100
AcDbArc
 50
297.81813928465175
 51
89.999999999999389
  0
LINE
  5
7C
100
AcDbEntity
  8
0
  6
CENTER
 62
               2
100
AcDbLine
 10
102.00000000000125
 20
-52.99999995607272
 30
0.0
 11
78.000000000001251
 21
-52.999999956072564
 31
0.0
  0
LINE
  5
7D
100
AcDbEntity
  8
0
  6
CONTINUOUS
 62
               7
100
AcDbLine
 10
76.000000000001194
 20
-2.9999999780360866
 30
0.0
 11
80.000000003843354
 21
-2.9999999780360866
 31
0.0
  0
LINE
  5
7E
100
AcDbEntity
  8
0
  6
CONTINUOUS
 62
               7
100
AcDbLine
 10
76.000000000000625
 20
-79.9999999780362
 30
0.0
 11
108.50000000000063
 21
-79.999999978036314
 31
0.0
  0
LINE
  5
7F
100
AcDbEntity
  8
0
  6
CONTINUOUS
 62
               7
100
AcDbLine
 10
77.000000013314605
 20
8.0000000219637997
 30
0.0
 11
109.00000000000122
 21
8.0000000219637997
 31
0.0
  0
LINE
  5
80
100
AcDbEntity
  8
0
  6
CONTINUOUS
 62
               7
100
AcDbLine
 10
76.000000000001194
 20
-6.9999999780360866
 30
0.0
 11
81.500000003843354
 21
-6.9999999780360866
 31
0.0
  0
ARC
  5
81
100
AcDbEntity
  8
0
  6
CONTINUOUS
 62
               4
100
AcDbCircle
 10
67.599999984766725
 20
-138.09999997803621
 30
0.0
 40
0.5
100
AcDbArc
 50
89.999999999999815
 51
179.99999999999963
  0
ARC
  5
82
100
AcDbEntity
  8
0
  6
CONTINUOUS
 62
               4
100
AcDbCircle
 10
67.599999984766725
 20
-144.49999997803624
 30
0.0
 40
0.5
100
AcDbArc
 50
179.99999999999963
 51
269.99999999999937
  0
LINE
  5
83
100
AcDbEntity
  8
0
  6
CENTER
 62
             200
100
AcDbLine
 10
71.000000000000057
 20
-145.85551694494418
 30
0.0
 11
71.000000000000057
 21
-136.88164907677503
 31
0.0
  0
LINE
  5
84
100
AcDbEntity
  8
0
  6
CONTINUOUS
 62
               4
100
AcDbLine
 10
67.099999984766725
 20
-144.49999997803624
 30
0.0
 11
67.099999984766725
 21
-138.09999997803621
 31
0.0
  0
ARC
  5
85
100
AcDbEntity
  8
0
  6
CONTINUOUS
 62
               4
100
AcDbCircle
 10
74.40000001523336
 20
-138.09999997803621
 30
0.0
 40
0.5
100
AcDbArc
 50
0.0
 51
89.999999999999815
  0
ARC
  5
86
100
AcDbEntity
  8
0
  6
CONTINUOUS
 62
               4
100
AcDbCircle
 10
74.40000001523336
 20
-144.49999997803624
 30
0.0
 40
0.5
100
AcDbArc
 50
270.00000000000023
 51
0.0
  0
LINE
  5
87
100
AcDbEntity
  8
0
  6
CONTINUOUS
 62
               4
100
AcDbLine
 10
74.90000001523336
 20
-144.49999997803624
 30
0.0
 11
74.90000001523336
 21
-138.09999997803621
 31
0.0
  0
LINE
  5
88
100
AcDbEntity
  8
0
  6
CONTINUOUS
 62
               4
100
AcDbLine
 10
67.599999984766725
 20
-144.99999997803624
 30
0.0
 11
74.40000001523336
 21
-144.99999997803624
 31
0.0
  0
LINE
  5
89
100
AcDbEntity
  8
0
  6
CONTINUOUS
 62
               4
100
AcDbLine
 10
67.599999984766725
 20
-137.59999997803621
 30
0.0
 11
74.40000001523336
 21
-137.59999997803621
 31
0.0
  0
LINE
  5
8A
100
AcDbEntity
  8
0
  6
CENTER
 62
             200
100
AcDbLine
 10
75.748669931198265
 20
-141.29999997803623
 30
0.0
 11
66.269567987060711
 21
-141.29999997803623
 31
0.0
  0
LINE
  5
8B
100
AcDbEntity
  8
0
  6
CONTINUOUS
 62
               4
100
AcDbLine
 10
72.936491673103745
 20
-140.79999997803623
 30
0.0
 11
69.063508326896354
 21
-140.79999997803623
 31
0.0
  0
LINE
  5
8C
100
AcDbEntity
  8
0
  6
CONTINUOUS
 62
               4
100
AcDbLine
 10
72.936491673103745
 20
-141.79999997803623
 30
0.0
 11
69.063508326896354
 21
-141.79999997803625
 31
0.0
  0
CIRCLE
  5
8D
100
AcDbEntity
  8
0
  6
CONTINUOUS
 62
               4
100
AcDbCircle
 10
71.000000000000057
 20
-141.29999997803623
 30
0.0
 40
2.0
  0
ARC
  5
8E
100
AcDbEntity
  8
0
  6
CONTINUOUS
 62
               4
100
AcDbCircle
 10
71.000000000000057
 20
-141.29999997803623
 30
0.0
 40
1.7000000000000002
100
AcDbArc
 50
17.104635176643782
 51
162.89536482335623
  0
ARC
  5
8F
100
AcDbEntity
  8
0
  6
CONTINUOUS
 62
               4
100
AcDbCircle
 10
71.000000000000057
 20
-141.29999997803623
 30
0.0
 40
1.7000000000000002
100
AcDbArc
 50
197.10463517664368
 51
342.89536482335569
  0
CIRCLE
  5
90
100
AcDbEntity
  8
0
  6
CONTINUOUS
 62
               4
100
AcDbCircle
 10
71.000000000000057
 20
-141.29999997803623
 30
0.0
 40
2.1000000000000001
  0
LINE
  5
91
100
AcDbEntity
  8
0
  6
CONTINUOUS
 62
               4
100
AcDbLine
 10
69.099999992382749
 20
-120.99999997803623
 30
0.0
 11
69.099999992382749
 21
-118.99999997803623
 31
0.0
  0
LINE
  5
92
100
AcDbEntity
  8
0
  6
CONTINUOUS
 62
               4
100
AcDbLine
 10
72.400000007616882
 20
-120.99999997803623
 30
0.0
 11
72.400000007616882
 21
-118.99999997803623
 31
0.0
  0
LINE
  5
93
100
AcDbEntity
  8
0
  6
CONTINUOUS
 62
               4
100
AcDbLine
 10
73.399999999999807
 20
-128.99999997803621
 30
0.0
 11
73.899999999999807
 21
-128.99999997803621
 31
0.0
  0
LINE
  5
94
100
AcDbEntity
  8
0
  6
CONTINUOUS
 62
               4
100
AcDbLine
 10
67.599999999999824
 20
-128.99999997803621
 30
0.0
 11
67.599999999999824
 21
-123.99999997803623
 31
0.0
  0
LINE
  5
95
100
AcDbEntity
  8
0
  6
CONTINUOUS
 62
               4
100
AcDbLine
 10
73.899999999999807
 20
-128.99999997803621
 30
0.0
 11
73.899999999999807
 21
-123.99999997803623
 31
0.0
  0
LINE
  5
96
100
AcDbEntity
  8
0
  6
CONTINUOUS
 62
               4
100
AcDbLine
 10
67.599999999999824
 20
-128.99999997803621
 30
0.0
 11
68.099999999999824
 21
-128.99999997803621
 31
0.0
  0
LINE
  5
97
100
AcDbEntity
  8
0
  6
CONTINUOUS
 62
               4
100
AcDbLine
 10
73.399999999999807
 20
-128.99999997803621
 30
0.0
 11
73.399999999999807
 21
-123.99999997803623
 31
0.0
  0
LINE
  5
98
100
AcDbEntity
  8
0
  6
CONTINUOUS
 62
               4
100
AcDbLine
 10
68.099999999999824
 20
-128.99999997803621
 30
0.0
 11
68.099999999999824
 21
-123.99999997803623
 31
0.0
  0
LINE
  5
99
100
AcDbEntity
  8
0
  6
CONTINUOUS
 62
               4
100
AcDbLine
 10
69.099999992382749
 20
-120.29999997803624
 30
0.0
 11
72.400000007616882
 21
-120.29999997803624
 31
0.0
  0
LINE
  5
9A
100
AcDbEntity
  8
0
  6
CONTINUOUS
 62
               4
100
AcDbLine
 10
69.099999992382749
 20
-120.79999997803624
 30
0.0
 11
72.400000007616882
 21
-120.79999997803624
 31
0.0
  0
LINE
  5
9B
100
AcDbEntity
  8
0
  6
CONTINUOUS
 62
               4
100
AcDbLine
 10
70.399999992383357
 20
-145.99999997803624
 30
0.0
 11
75.90000001523336
 21
-145.99999997803624
 31
0.0
  0
LINE
  5
9C
100
AcDbEntity
  8
0
  6
CONTINUOUS
 62
               4
100
AcDbLine
 10
66.899999992383329
 20
-150.49999997803624
 30
0.0
 11
69.899999992383329
 21
-150.49999997803624
 31
0.0
  0
ARC
  5
9D
100
AcDbEntity
  8
0
  6
CONTINUOUS
 62
               4
100
AcDbCircle
 10
69.899999992383329
 20
-149.99999997803624
 30
0.0
 40
0.5
100
AcDbArc
 50
269.99999999999937
 51
0.0
  0
ARC
  5
9E
100
AcDbEntity
  8
0
  6
CONTINUOUS
 62
               4
100
AcDbCircle
 10
66.899999992383329
 20
-149.99999997803624
 30
0.0
 40
0.5
100
AcDbArc
 50
179.99999999999963
 51
269.99999999999937
  0
LINE
  5
9F
100
AcDbEntity
  8
0
  6
CONTINUOUS
 62
               4
100
AcDbLine
 10
66.399999992383329
 20
-149.99999997803621
 30
0.0
 11
66.399999992383357
 21
-145.99999997803621
 31
0.0
  0
LINE
  5
A0
100
AcDbEntity
  8
0
  6
CONTINUOUS
 62
               4
100
AcDbLine
 10
70.399999992383329
 20
-149.99999997803624
 30
0.0
 11
70.399999992383357
 21
-145.99999997803624
 31
0.0
  0
LINE
  5
A1
100
AcDbEntity
  8
0
  6
CONTINUOUS
 62
               4
100
AcDbLine
 10
52.099999984766725
 20
-145.99999997803621
 30
0.0
 11
66.399999992383357
 21
-145.99999997803621
 31
0.0
  0
LINE
  5
A2
100
AcDbEntity
  8
0
  6
CONTINUOUS
 62
               4
100
AcDbLine
 10
52.099999984766725
 20
-123.99999997803623
 30
0.0
 11
75.90000001523336
 21
-123.99999997803623
 31
0.0
  0
LINE
  5
A3
100
AcDbEntity
  8
0
  6
CONTINUOUS
 62
               4
100
AcDbLine
 10
75.90000001523336
 20
-145.99999997803624
 30
0.0
 11
75.90000001523336
 21
-123.99999997803623
 31
0.0
  0
LINE
  5
A4
100
AcDbEntity
  8
0
  6
CONTINUOUS
 62
               4
100
AcDbLine
 10
52.099999984766725
 20
-145.99999997803621
 30
0.0
 11
52.099999984766725
 21
-123.99999997803623
 31
0.0
  0
LINE
  5
A5
100
AcDbEntity
  8
0
  6
CONTINUOUS
 62
               4
100
AcDbLine
 10
72.90000001523336
 20
-120.99999997803623
 30
0.0
 11
68.600000015233377
 21
-120.99999997803623
 31
0.0
  0
LINE
  5
A6
100
AcDbEntity
  8
0
  6
CONTINUOUS
 62
               4
100
AcDbLine
 10
72.90000001523336
 20
-118.99999997803623
 30
0.0
 11
68.600000015233377
 21
-118.99999997803623
 31
0.0
  0
LINE
  5
A7
100
AcDbEntity
  8
0
  6
CONTINUOUS
 62
               4
100
AcDbLine
 10
68.600000015233377
 20
-118.99999997803623
 30
0.0
 11
68.600000015233377
 21
-120.99999997803623
 31
0.0
  0
LINE
  5
A8
100
AcDbEntity
  8
0
  6
CONTINUOUS
 62
               4
100
AcDbLine
 10
72.90000001523336
 20
-118.99999997803623
 30
0.0
 11
72.90000001523336
 21
-120.99999997803623
 31
0.0
  0
LINE
  5
A9
100
AcDbEntity
  8
0
  6
CONTINUOUS
 62
               7
100
AcDbLine
 10
70.649999984766794
 20
-103.99999997803623
 30
0.0
 11
66.149999984766794
 21
-103.99999997803623
 31
0.0
  0
LINE
  5
AA
100
AcDbEntity
  8
0
  6
CONTINUOUS
 62
               7
100
AcDbLine
 10
66.149999984766794
 20
-98.999999978036229
 30
0.0
 11
66.149999984766794
 21
-103.99999997803623
 31
0.0
  0
LINE
  5
AB
100
AcDbEntity
  8
0
  6
CONTINUOUS
 62
               7
100
AcDbLine
 10
70.649999984766794
 20
-98.999999978036229
 30
0.0
 11
70.649999984766794
 21
-103.99999997803623
 31
0.0
  0
LINE
  5
AC
100
AcDbEntity
  8
0
  6
CONTINUOUS
 62
               4
100
AcDbLine
 10
75.90000001523336
 20
-98.999999978036229
 30
0.0
 11
75.90000001523336
 21
-123.99999997803623
 31
0.0
  0
LINE
  5
AD
100
AcDbEntity
  8
0
  6
CONTINUOUS
 62
               4
100
AcDbLine
 10
52.099999984766725
 20
-98.999999978036229
 30
0.0
 11
52.099999984766725
 21
-123.99999997803623
 31
0.0
  0
ARC
  5
AE
100
AcDbEntity
  8
0
  6
CONTINUOUS
 62
               4
100
AcDbCircle
 10
43.599999984767294
 20
-114.09999997803618
 30
0.0
 40
0.5
100
AcDbArc
 50
89.999999999999815
 51
179.99999999999963
  0
ARC
  5
AF
100
AcDbEntity
  8
0
  6
CONTINUOUS
 62
               4
100
AcDbCircle
 10
43.599999984767294
 20
-120.49999997803621
 30
0.0
 40
0.5
100
AcDbArc
 50
179.99999999999963
 51
269.99999999999937
  0
LINE
  5
B0
100
AcDbEntity
  8
0
  6
CENTER
 62
             200
100
AcDbLine
 10
47.000000000000625
 20
-121.85551694494416
 30
0.0
 11
47.000000000000625
 21
-112.88164907677501
 31
0.0
  0
LINE
  5
B1
100
AcDbEntity
  8
0
  6
CONTINUOUS
 62
               4
100
AcDbLine
 10
43.099999984767294
 20
-120.49999997803621
 30
0.0
 11
43.099999984767294
 21
-114.09999997803618
 31
0.0
  0
ARC
  5
B2
100
AcDbEntity
  8
0
  6
CONTINUOUS
 62
               4
100
AcDbCircle
 10
50.400000015233928
 20
-114.09999997803618
 30
0.0
 40
0.5
100
AcDbArc
 50
0.0
 51
89.999999999999815
  0
ARC
  5
B3
100
AcDbEntity
  8
0
  6
CONTINUOUS
 62
               4
100
AcDbCircle
 10
50.400000015233928
 20
-120.49999997803621
 30
0.0
 40
0.5
100
AcDbArc
 50
270.00000000000023
 51
0.0
  0
LINE
  5
B4
100
AcDbEntity
  8
0
  6
CONTINUOUS
 62
               4
100
AcDbLine
 10
50.900000015233928
 20
-120.49999997803621
 30
0.0
 11
50.900000015233928
 21
-114.09999997803618
 31
0.0
  0
LINE
  5
B5
100
AcDbEntity
  8
0
  6
CONTINUOUS
 62
               4
100
AcDbLine
 10
43.599999984767294
 20
-120.99999997803621
 30
0.0
 11
50.400000015233928
 21
-120.99999997803621
 31
0.0
  0
LINE
  5
B6
100
AcDbEntity
  8
0
  6
CONTINUOUS
 62
               4
100
AcDbLine
 10
43.599999984767294
 20
-113.59999997803618
 30
0.0
 11
50.400000015233928
 21
-113.59999997803618
 31
0.0
  0
LINE
  5
B7
100
AcDbEntity
  8
0
  6
CENTER
 62
             200
100
AcDbLine
 10
51.748669931198833
 20
-117.2999999780362
 30
0.0
 11
42.269567987061279
 21
-117.29999997803618
 31
0.0
  0
LINE
  5
B8
100
AcDbEntity
  8
0
  6
CONTINUOUS
 62
               4
100
AcDbLine
 10
48.936491673104314
 20
-116.79999997803618
 30
0.0
 11
45.063508326896923
 21
-116.7999999780362
 31
0.0
  0
LINE
  5
B9
100
AcDbEntity
  8
0
  6
CONTINUOUS
 62
               4
100
AcDbLine
 10
48.936491673104314
 20
-117.7999999780362
 30
0.0
 11
45.063508326896923
 21
-117.79999997803623
 31
0.0
  0
CIRCLE
  5
BA
100
AcDbEntity
  8
0
  6
CONTINUOUS
 62
               4
100
AcDbCircle
 10
47.000000000000625
 20
-117.2999999780362
 30
0.0
 40
2.0
  0
ARC
  5
BB
100
AcDbEntity
  8
0
  6
CONTINUOUS
 62
               4
100
AcDbCircle
 10
47.000000000000625
 20
-117.2999999780362
 30
0.0
 40
1.7000000000000002
100
AcDbArc
 50
17.104635176643782
 51
162.89536482335623
  0
ARC
  5
BC
100
AcDbEntity
  8
0
  6
CONTINUOUS
 62
               4
100
AcDbCircle
 10
47.000000000000625
 20
-117.2999999780362
 30
0.0
 40
1.7000000000000002
100
AcDbArc
 50
197.10463517664368
 51
342.89536482335569
  0
CIRCLE
  5
BD
100
AcDbEntity
  8
0
  6
CONTINUOUS
 62
               4
100
AcDbCircle
 10
47.000000000000625
 20
-117.2999999780362
 30
0.0
 40
2.1000000000000001
  0
LINE
  5
BE
100
AcDbEntity
  8
0
  6
CONTINUOUS
 62
               4
100
AcDbLine
 10
45.099999992383317
 20
-96.9999999780362
 30
0.0
 11
45.099999992383317
 21
-94.9999999780362
 31
0.0
  0
LINE
  5
BF
100
AcDbEntity
  8
0
  6
CONTINUOUS
 62
               4
100
AcDbLine
 10
48.40000000761745
 20
-96.9999999780362
 30
0.0
 11
48.40000000761745
 21
-94.9999999780362
 31
0.0
  0
LINE
  5
C0
100
AcDbEntity
  8
0
  6
CONTINUOUS
 62
               4
100
AcDbLine
 10
49.400000000000375
 20
-104.9999999780362
 30
0.0
 11
49.900000000000375
 21
-104.9999999780362
 31
0.0
  0
LINE
  5
C1
100
AcDbEntity
  8
0
  6
CONTINUOUS
 62
               4
100
AcDbLine
 10
43.600000000000392
 20
-104.9999999780362
 30
0.0
 11
43.600000000000392
 21
-99.9999999780362
 31
0.0
  0
LINE
  5
C2
100
AcDbEntity
  8
0
  6
CONTINUOUS
 62
               4
100
AcDbLine
 10
49.900000000000375
 20
-104.9999999780362
 30
0.0
 11
49.900000000000375
 21
-99.9999999780362
 31
0.0
  0
LINE
  5
C3
100
AcDbEntity
  8
0
  6
CONTINUOUS
 62
               4
100
AcDbLine
 10
43.600000000000392
 20
-104.9999999780362
 30
0.0
 11
44.100000000000392
 21
-104.9999999780362
 31
0.0
  0
LINE
  5
C4
100
AcDbEntity
  8
0
  6
CONTINUOUS
 62
               4
100
AcDbLine
 10
49.400000000000375
 20
-104.9999999780362
 30
0.0
 11
49.400000000000375
 21
-99.9999999780362
 31
0.0
  0
LINE
  5
C5
100
AcDbEntity
  8
0
  6
CONTINUOUS
 62
               4
100
AcDbLine
 10
44.100000000000392
 20
-104.9999999780362
 30
0.0
 11
44.100000000000392
 21
-99.9999999780362
 31
0.0
  0
LINE
  5
C6
100
AcDbEntity
  8
0
  6
CONTINUOUS
 62
               4
100
AcDbLine
 10
45.099999992383317
 20
-96.299999978036212
 30
0.0
 11
48.40000000761745
 21
-96.299999978036212
 31
0.0
  0
LINE
  5
C7
100
AcDbEntity
  8
0
  6
CONTINUOUS
 62
               4
100
AcDbLine
 10
45.099999992383317
 20
-96.799999978036212
 30
0.0
 11
48.40000000761745
 21
-96.799999978036212
 31
0.0
  0
LINE
  5
C8
100
AcDbEntity
  8
0
  6
CONTINUOUS
 62
               4
100
AcDbLine
 10
46.399999992383925
 20
-121.99999997803621
 30
0.0
 11
51.900000015233928
 21
-121.99999997803621
 31
0.0
  0
LINE
  5
C9
100
AcDbEntity
  8
0
  6
CONTINUOUS
 62
               4
100
AcDbLine
 10
42.899999992383897
 20
-126.49999997803621
 30
0.0
 11
45.899999992383897
 21
-126.49999997803621
 31
0.0
  0
ARC
  5
CA
100
AcDbEntity
  8
0
  6
CONTINUOUS
 62
               4
100
AcDbCircle
 10
45.899999992383897
 20
-125.99999997803621
 30
0.0
 40
0.5
100
AcDbArc
 50
269.99999999999937
 51
0.0
  0
ARC
  5
CB
100
AcDbEntity
  8
0
  6
CONTINUOUS
 62
               4
100
AcDbCircle
 10
42.899999992383897
 20
-125.99999997803621
 30
0.0
 40
0.5
100
AcDbArc
 50
179.99999999999963
 51
269.99999999999937
  0
LINE
  5
CC
100
AcDbEntity
  8
0
  6
CONTINUOUS
 62
               4
100
AcDbLine
 10
42.399999992383897
 20
-125.9999999780362
 30
0.0
 11
42.399999992383925
 21
-121.9999999780362
 31
0.0
  0
LINE
  5
CD
100
AcDbEntity
  8
0
  6
CONTINUOUS
 62
               4
100
AcDbLine
 10
46.399999992383897
 20
-125.99999997803621
 30
0.0
 11
46.399999992383925
 21
-121.99999997803621
 31
0.0
  0
LINE
  5
CE
100
AcDbEntity
  8
0
  6
CONTINUOUS
 62
               4
100
AcDbLine
 10
28.099999984767294
 20
-121.9999999780362
 30
0.0
 11
42.399999992383925
 21
-121.9999999780362
 31
0.0
  0
LINE
  5
CF
100
AcDbEntity
  8
0
  6
CONTINUOUS
 62
               4
100
AcDbLine
 10
28.099999984767294
 20
-99.9999999780362
 30
0.0
 11
51.900000015233928
 21
-99.9999999780362
 31
0.0
  0
LINE
  5
D0
100
AcDbEntity
  8
0
  6
CONTINUOUS
 62
               4
100
AcDbLine
 10
51.900000015233928
 20
-121.99999997803621
 30
0.0
 11
51.900000015233928
 21
-99.9999999780362
 31
0.0
  0
LINE
  5
D1
100
AcDbEntity
  8
0
  6
CONTINUOUS
 62
               4
100
AcDbLine
 10
28.099999984767294
 20
-121.9999999780362
 30
0.0
 11
28.099999984767294
 21
-99.9999999780362
 31
0.0
  0
LINE
  5
D2
100
AcDbEntity
  8
0
  6
CONTINUOUS
 62
               4
100
AcDbLine
 10
48.900000015233928
 20
-96.9999999780362
 30
0.0
 11
44.600000015233945
 21
-96.9999999780362
 31
0.0
  0
LINE
  5
D3
100
AcDbEntity
  8
0
  6
CONTINUOUS
 62
               4
100
AcDbLine
 10
48.900000015233928
 20
-94.9999999780362
 30
0.0
 11
44.600000015233945
 21
-94.9999999780362
 31
0.0
  0
LINE
  5
D4
100
AcDbEntity
  8
0
  6
CONTINUOUS
 62
               4
100
AcDbLine
 10
44.600000015233945
 20
-94.9999999780362
 30
0.0
 11
44.600000015233945
 21
-96.9999999780362
 31
0.0
  0
LINE
  5
D5
100
AcDbEntity
  8
0
  6
CONTINUOUS
 62
               4
100
AcDbLine
 10
48.900000015233928
 20
-94.9999999780362
 30
0.0
 11
48.900000015233928
 21
-96.9999999780362
 31
0.0
  0
LINE
  5
D6
100
AcDbEntity
  8
0
  6
CONTINUOUS
 62
               7
100
AcDbLine
 10
46.649999984767362
 20
-79.9999999780362
 30
0.0
 11
42.287566607972408
 21
-79.9999999780362
 31
0.0
  0
LINE
  5
D7
100
AcDbEntity
  8
0
  6
CONTINUOUS
 62
               7
100
AcDbLine
 10
42.149999984767362
 20
-74.9999999780362
 30
0.0
 11
42.149999984767362
 21
-79.9999999780362
 31
0.0
  0
LINE
  5
D8
100
AcDbEntity
  8
0
  6
CONTINUOUS
 62
               7
100
AcDbLine
 10
46.649999984767362
 20
-74.9999999780362
 30
0.0
 11
46.649999984767362
 21
-79.9999999780362
 31
0.0
  0
LINE
  5
D9
100
AcDbEntity
  8
0
  6
CONTINUOUS
 62
               4
100
AcDbLine
 10
51.900000015233928
 20
-74.9999999780362
 30
0.0
 11
51.900000015233928
 21
-99.9999999780362
 31
0.0
  0
LINE
  5
DA
100
AcDbEntity
  8
0
  6
CONTINUOUS
 62
               4
100
AcDbLine
 10
28.099999984767294
 20
-74.9999999780362
 30
0.0
 11
28.099999984767294
 21
-99.9999999780362
 31
0.0
  0
LINE
  5
DC
100
AcDbEntity
  8
0
  6
PHANTOM
 62
               2
100
AcDbLine
 10
75.899999991909851
 20
52.000000021963629
 30
0.0
 11
75.899999991909851
 21
51.800000021963896
 31
0.0
  0
LINE
  5
DD
100
AcDbEntity
  8
0
  6
PHANTOM
 62
               2
100
AcDbLine
 10
110.00000000000122
 20
52.000000021963629
 30
0.0
 11
75.899999991909851
 21
52.000000021963629
 31
0.0
  0
LINE
  5
DE
100
AcDbEntity
  8
0
  6
PHANTOM
 62
               2
100
AcDbLine
 10
110.00000000000122
 20
7.0000000219637997
 30
0.0
 11
110.00000000000122
 21
52.000000021963629
 31
0.0
  0
LINE
  5
DF
100
AcDbEntity
  8
0
  6
PHANTOM
 62
               2
100
AcDbLine
 10
28.100000000000421
 20
52.00000002196434
 30
0.0
 11
28.100000000000421
 21
51.800000033884956
 31
0.0
  0
LINE
  5
E0
100
AcDbEntity
  8
0
  6
PHANTOM
 62
               2
100
AcDbLine
 10
-5.9999999999999716
 20
52.00000002196434
 30
0.0
 11
28.100000000000421
 21
52.00000002196434
 31
0.0
  0
LINE
  5
E1
100
AcDbEntity
  8
0
  6
PHANTOM
 62
               2
100
AcDbLine
 10
-5.9999999999999716
 20
7.0000000000001563
 30
0.0
 11
-5.9999999999999716
 21
52.00000002196434
 31
0.0
  0
LINE
  5
E2
100
AcDbEntity
  8
0
  6
CONTINUOUS
 62
               4
100
AcDbLine
 10
52.000000000000682
 20
-121.99999997803621
 30
0.0
 11
51.900000015233928
 21
-121.99999997803621
 31
0.0
  0
LINE
  5
E3
100
AcDbEntity
  8
0
  6
CONTINUOUS
 62
               4
100
AcDbLine
 10
28.000000000000625
 20
-121.9999999780362
 30
0.0
 11
28.099999984767294
 21
-121.9999999780362
 31
0.0
  0
LINE
  5
E4
100
AcDbEntity
  8
0
  6
CONTINUOUS
 62
               4
100
AcDbLine
 10
52.000000000000682
 20
-126.49999997803523
 30
0.0
 11
52.000000000000682
 21
-121.99999997803621
 31
0.0
  0
LINE
  5
E5
100
AcDbEntity
  8
0
  6
CONTINUOUS
 62
               4
100
AcDbLine
 10
28.000000000000625
 20
-126.49999997803523
 30
0.0
 11
28.000000000000625
 21
-121.9999999780362
 31
0.0
  0
LINE
  5
E6
100
AcDbEntity
  8
0
  6
CONTINUOUS
 62
               4
100
AcDbLine
 10
46.649999984768158
 20
-126.99999999641217
 30
0.0
 11
46.649999984768158
 21
-121.9999999780362
 31
0.0
  0
LINE
  5
E7
100
AcDbEntity
  8
0
  6
CONTINUOUS
 62
               4
100
AcDbLine
 10
42.149999984768158
 20
-126.99999999641217
 30
0.0
 11
42.149999984768158
 21
-121.9999999780362
 31
0.0
  0
LINE
  5
E8
100
AcDbEntity
  8
0
  6
CONTINUOUS
 62
               7
100
AcDbLine
 10
46.400000007618075
 20
-79.999999996412171
 30
0.0
 11
46.400000007618075
 21
-74.9999999780362
 31
0.0
  0
LINE
  5
E9
100
AcDbEntity
  8
0
  6
CONTINUOUS
 62
               7
100
AcDbLine
 10
42.400000007618075
 20
-79.999999996412171
 30
0.0
 11
42.400000007618075
 21
-74.9999999780362
 31
0.0
  0
ARC
  5
EA
100
AcDbEntity
  8
0
  6
CONTINUOUS
 62
               7
100
AcDbCircle
 10
51.700000000000728
 20
51.800000021963925
 30
0.0
 40
0.2
100
AcDbArc
 50
0.0
 51
89.999999999999815
  0
ARC
  5
EB
100
AcDbEntity
  8
0
  6
CONTINUOUS
 62
               7
100
AcDbCircle
 10
28.300000000000409
 20
51.800000021964095
 30
0.0
 40
0.2
100
AcDbArc
 50
89.999999999999815
 51
179.99999999999963
  0
LINE
  5
EC
100
AcDbEntity
  8
0
  6
CONTINUOUS
 62
               7
100
AcDbLine
 10
28.100000000000421
 20
-2.9999999780361435
 30
0.0
 11
28.100000000000421
 21
51.800000033884956
 31
0.0
  0
LINE
  5
ED
100
AcDbEntity
  8
0
  6
CONTINUOUS
 62
               7
100
AcDbLine
 10
51.900000000000716
 20
-2.9999999780361435
 30
0.0
 11
51.900000000000716
 21
51.800000033884956
 31
0.0
  0
LINE
  5
EE
100
AcDbEntity
  8
0
  6
CONTINUOUS
 62
               7
100
AcDbLine
 10
28.100000000000421
 20
6.0000000219631744
 30
0.0
 11
51.900000000000716
 21
6.0000000219627196
 31
0.0
  0
LINE
  5
EF
100
AcDbEntity
  8
0
  6
CONTINUOUS
 62
               7
100
AcDbLine
 10
29.399999988707179
 20
0.0000000219634586
 30
0.0
 11
28.600000006588573
 21
0.0000000219634586
 31
0.0
  0
ARC
  5
F0
100
AcDbEntity
  8
0
  6
CONTINUOUS
 62
               7
100
AcDbCircle
 10
28.600000000000421
 20
0.5000000219634586
 30
0.0
 40
0.5
100
AcDbArc
 50
179.99999999999963
 51
269.99999999999937
  0
ARC
  5
F1
100
AcDbEntity
  8
0
  6
CONTINUOUS
 62
               7
100
AcDbCircle
 10
51.400000000000716
 20
0.5000000219631744
 30
0.0
 40
0.5
100
AcDbArc
 50
269.9999999999979
 51
359.99999999999767
  0
LINE
  5
F2
100
AcDbEntity
  8
0
  6
CONTINUOUS
 62
               7
100
AcDbLine
 10
50.600000011293844
 20
0.0000000219631744
 30
0.0
 11
51.39999999341245
 21
0.0000000219631744
 31
0.0
  0
LINE
  5
F3
100
AcDbEntity
  8
0
  6
CONTINUOUS
 62
               7
100
AcDbLine
 10
50.599999977543746
 20
-1.4999999782376534
 30
0.0
 11
51.900000000000603
 21
-1.4999999782376534
 31
0.0
  0
LINE
  5
F4
100
AcDbEntity
  8
0
  6
CONTINUOUS
 62
               7
100
AcDbLine
 10
28.099999977543632
 20
-1.4999999782376534
 30
0.0
 11
29.399999989464561
 21
-1.4999999782376534
 31
0.0
  0
LINE
  5
F5
100
AcDbEntity
  8
0
  6
CONTINUOUS
 62
               7
100
AcDbLine
 10
50.600000000000762
 20
-1.4999999782376534
 30
0.0
 11
50.600000000000648
 21
6.0000000219628333
 31
0.0
  0
LINE
  5
F6
100
AcDbEntity
  8
0
  6
CONTINUOUS
 62
               7
100
AcDbLine
 10
29.400000000000148
 20
-1.4999999782376534
 30
0.0
 11
29.400000000000603
 21
6.0000000219631744
 31
0.0
  0
LINE
  5
F7
100
AcDbEntity
  8
0
  6
CONTINUOUS
 62
               7
100
AcDbLine
 10
52.000000000000682
 20
-2.9999999780361435
 30
0.0
 11
28.000000000000625
 21
-2.9999999780361435
 31
0.0
  0
LINE
  5
F8
100
AcDbEntity
  8
0
  6
CONTINUOUS
 62
               4
100
AcDbLine
 10
51.500000000000682
 20
-126.99999997803523
 30
0.0
 11
28.500000000000625
 21
-126.99999997803523
 31
0.0
  0
LINE
  5
F9
100
AcDbEntity
  8
0
  6
CONTINUOUS
 62
               7
100
AcDbLine
 10
49.30000000000058
 20
27.800000021963925
 30
0.0
 11
30.700000000000557
 21
27.800000021963925
 31
0.0
  0
LINE
  5
FA
100
AcDbEntity
  8
0
  6
CONTINUOUS
 62
               7
100
AcDbLine
 10
47.900000000000546
 20
29.900000021963493
 30
0.0
 11
49.30000000000058
 21
29.900000021963493
 31
0.0
  0
LINE
  5
FB
100
AcDbEntity
  8
0
  6
CONTINUOUS
 62
               7
100
AcDbLine
 10
47.900000000000546
 20
27.800000021963925
 30
0.0
 11
47.900000000000546
 21
29.900000021963493
 31
0.0
  0
ARC
  5
FC
100
AcDbEntity
  8
0
  6
CONTINUOUS
 62
               7
100
AcDbCircle
 10
48.80000000000058
 20
20.500000021963515
 30
0.0
 40
0.5000000000000002
100
AcDbArc
 50
269.9999999999979
 51
359.99999999999767
  0
LINE
  5
FD
100
AcDbEntity
  8
0
  6
CONTINUOUS
 62
               7
100
AcDbLine
 10
48.80000000000058
 20
20.0000000219638
 30
0.0
 11
31.200000000000557
 21
20.0000000219638
 31
0.0
  0
ARC
  5
FE
100
AcDbEntity
  8
0
  6
CONTINUOUS
 62
               7
100
AcDbCircle
 10
31.200000000000557
 20
20.500000021963743
 30
0.0
 40
0.5000000000000002
100
AcDbArc
 50
179.99999999999963
 51
269.99999999999937
  0
LINE
  5
FF
100
AcDbEntity
  8
0
  6
CONTINUOUS
 62
               7
100
AcDbLine
 10
32.100000000000705
 20
29.900000021963891
 30
0.0
 11
30.700000000000671
 21
29.900000021963891
 31
0.0
  0
LINE
  5
100
100
AcDbEntity
  8
0
  6
CONTINUOUS
 62
               7
100
AcDbLine
 10
32.100000000000534
 20
27.800000021963925
 30
0.0
 11
32.100000000000705
 21
29.900000021963891
 31
0.0
  0
LINE
  5
101
100
AcDbEntity
  8
0
  6
CONTINUOUS
 62
               7
100
AcDbLine
 10
43.517157302099776
 20
21.500000021963743
 30
0.0
 11
36.482842728370628
 21
21.500000021963743
 31
0.0
  0
LINE
  5
102
100
AcDbEntity
  8
0
  6
CONTINUOUS
 62
               7
100
AcDbLine
 10
39.85857865899797
 20
25.358578665065536
 30
0.0
 11
36.34142137213334
 21
21.841421378201076
 31
0.0
  0
LINE
  5
103
100
AcDbEntity
  8
0
  6
CONTINUOUS
 62
               7
100
AcDbLine
 10
40.14142137147266
 20
25.358578665065536
 30
0.0
 11
43.658578658337063
 21
21.841421378201076
 31
0.0
  0
ARC
  5
104
100
AcDbEntity
  8
0
  6
CONTINUOUS
 62
               7
100
AcDbCircle
 10
36.482842728370628
 20
21.700000021963788
 30
0.0
 40
0.2
100
AcDbArc
 50
134.99999999999793
 51
269.99999999999937
  0
ARC
  5
105
100
AcDbEntity
  8
0
  6
CONTINUOUS
 62
               7
100
AcDbCircle
 10
43.517157302099776
 20
21.700000021963788
 30
0.0
 40
0.2
100
AcDbArc
 50
269.99999999999937
 51
45.000000000000966
  0
LINE
  5
106
100
AcDbEntity
  8
0
  6
CONTINUOUS
 62
               7
100
AcDbLine
 10
48.000000008090922
 20
45.500000021963743
 30
0.0
 11
48.000000008090808
 21
38.500000021963743
 31
0.0
  0
LINE
  5
107
100
AcDbEntity
  8
0
  6
CONTINUOUS
 62
               7
100
AcDbLine
 10
42.000000008091035
 20
45.500000021963913
 30
0.0
 11
42.000000008090865
 21
38.500000021963857
 31
0.0
  0
LINE
  5
108
100
AcDbEntity
  8
0
  6
CONTINUOUS
 62
               7
100
AcDbLine
 10
46.600000000000591
 20
27.900000021965141
 30
0.0
 11
33.400000000000659
 21
27.900000021965141
 31
0.0
  0
LINE
  5
109
100
AcDbEntity
  8
0
  6
CONTINUOUS
 62
               7
100
AcDbLine
 10
48.80000000000058
 20
19.900000021965027
 30
0.0
 11
44.000000000000512
 21
19.900000021965027
 31
0.0
  0
ARC
  5
10A
100
AcDbEntity
  8
0
  6
CONTINUOUS
 62
               7
100
AcDbCircle
 10
48.80000000000058
 20
20.400000021965141
 30
0.0
 40
0.5000000000000002
100
AcDbArc
 50
270.00000000000023
 51
0.0
  0
LINE
  5
10B
100
AcDbEntity
  8
0
  6
CONTINUOUS
 62
               7
100
AcDbLine
 10
30.700000000000443
 20
20.400000021965312
 30
0.0
 11
30.700000000000671
 21
30.700207558044113
 31
0.0
  0
ARC
  5
10C
100
AcDbEntity
  8
0
  6
CONTINUOUS
 62
               7
100
AcDbCircle
 10
31.200000000000557
 20
20.400000021965141
 30
0.0
 40
0.5000000000000002
100
AcDbArc
 50
179.99999999999963
 51
269.99999999999937
  0
LINE
  5
10D
100
AcDbEntity
  8
0
  6
CONTINUOUS
 62
               7
100
AcDbLine
 10
32.900000000000546
 20
28.400000021965084
 30
0.0
 11
32.900000000000716
 21
30.000000016212951
 31
0.0
  0
ARC
  5
10E
100
AcDbEntity
  8
0
  6
CONTINUOUS
 62
               7
100
AcDbCircle
 10
33.400000000000659
 20
28.400000021965084
 30
0.0
 40
0.5000000000000002
100
AcDbArc
 50
179.99999999999963
 51
269.99999999999937
  0
ARC
  5
10F
100
AcDbEntity
  8
0
  6
CONTINUOUS
 62
               7
100
AcDbCircle
 10
46.600000000000591
 20
28.400000021965084
 30
0.0
 40
0.5000000000000002
100
AcDbArc
 50
270.00000000000023
 51
0.0
  0
LINE
  5
110
100
AcDbEntity
  8
0
  6
CONTINUOUS
 62
               7
100
AcDbLine
 10
43.500000000000568
 20
18.700000021965153
 30
0.0
 11
36.500000000000512
 21
18.700000021965153
 31
0.0
  0
LINE
  5
111
100
AcDbEntity
  8
0
  6
CONTINUOUS
 62
               7
100
AcDbLine
 10
44.000000000000512
 20
19.200000021965096
 30
0.0
 11
44.000000000000512
 21
19.900000021965027
 31
0.0
  0
ARC
  5
112
100
AcDbEntity
  8
0
  6
CONTINUOUS
 62
               7
100
AcDbCircle
 10
43.500000000000568
 20
19.200000021965096
 30
0.0
 40
0.5000000000000002
100
AcDbArc
 50
269.99999999999937
 51
0.0
  0
LINE
  5
113
100
AcDbEntity
  8
0
  6
CONTINUOUS
 62
               7
100
AcDbLine
 10
36.000000000000568
 20
19.200000021965266
 30
0.0
 11
36.000000000000568
 21
19.900000021965198
 31
0.0
  0
ARC
  5
114
100
AcDbEntity
  8
0
  6
CONTINUOUS
 62
               7
100
AcDbCircle
 10
36.500000000000512
 20
19.200000021965266
 30
0.0
 40
0.5000000000000002
100
AcDbArc
 50
179.99999999999807
 51
269.9999999999979
  0
LINE
  5
115
100
AcDbEntity
  8
0
  6
CONTINUOUS
 62
               7
100
AcDbLine
 10
49.30000000000058
 20
20.400000021965141
 30
0.0
 11
49.30000000000058
 21
30.700207558043886
 31
0.0
  0
LINE
  5
116
100
AcDbEntity
  8
0
  6
CONTINUOUS
 62
               7
100
AcDbLine
 10
32.900000000000716
 20
30.000000016212951
 30
0.0
 11
30.700000000000671
 21
30.000000016212951
 31
0.0
  0
LINE
  5
117
100
AcDbEntity
  8
0
  6
CONTINUOUS
 62
               7
100
AcDbLine
 10
32.100000000000705
 20
30.700207558044113
 30
0.0
 11
30.700000012548742
 21
30.700207558044113
 31
0.0
  0
LINE
  5
118
100
AcDbEntity
  8
0
  6
CONTINUOUS
 62
               7
100
AcDbLine
 10
47.100000000000534
 20
30.000000016212667
 30
0.0
 11
49.30000000000058
 21
30.000000016212667
 31
0.0
  0
LINE
  5
119
100
AcDbEntity
  8
0
  6
CONTINUOUS
 62
               7
100
AcDbLine
 10
32.100000000000705
 20
30.300000016212962
 30
0.0
 11
32.100000000000705
 21
30.700207558044113
 31
0.0
  0
LINE
  5
11A
100
AcDbEntity
  8
0
  6
CONTINUOUS
 62
               7
100
AcDbLine
 10
47.100000000000534
 20
28.400000021964857
 30
0.0
 11
47.100000000000534
 21
30.000000016212667
 31
0.0
  0
ARC
  5
11B
100
AcDbEntity
  8
0
  6
CONTINUOUS
 62
               7
100
AcDbCircle
 10
32.400000000000716
 20
30.300000016212962
 30
0.0
 40
0.3
100
AcDbArc
 50
179.99999999999963
 51
269.99999999999937
  0
LINE
  5
11C
100
AcDbEntity
  8
0
  6
CONTINUOUS
 62
               7
100
AcDbLine
 10
47.900000000000546
 20
30.700207558043999
 30
0.0
 11
49.299999987452509
 21
30.700207558043886
 31
0.0
  0
ARC
  5
11D
100
AcDbEntity
  8
0
  6
CONTINUOUS
 62
               7
100
AcDbCircle
 10
47.600000000000534
 20
30.300000016212678
 30
0.0
 40
0.3
100
AcDbArc
 50
269.9999999999979
 51
359.99999999999767
  0
LINE
  5
11E
100
AcDbEntity
  8
0
  6
CONTINUOUS
 62
               7
100
AcDbLine
 10
47.900000000000546
 20
30.300000016212678
 30
0.0
 11
47.900000000000546
 21
30.700207558043999
 31
0.0
  0
LINE
  5
11F
100
AcDbEntity
  8
0
  6
CONTINUOUS
 62
               7
100
AcDbLine
 10
42.000000008091035
 20
45.500000021963913
 30
0.0
 11
48.000000008090922
 21
45.500000021963743
 31
0.0
  0
LINE
  5
120
100
AcDbEntity
  8
0
  6
CONTINUOUS
 62
               7
100
AcDbLine
 10
42.000000008090865
 20
38.500000021963857
 30
0.0
 11
48.000000008090808
 21
38.500000021963743
 31
0.0
  0
LINE
  5
121
100
AcDbEntity
  8
0
  6
CONTINUOUS
 62
               7
100
AcDbLine
 10
38.000000008090808
 20
45.500000021963913
 30
0.0
 11
32.000000008090865
 21
45.500000021963913
 31
0.0
  0
LINE
  5
122
100
AcDbEntity
  8
0
  6
CONTINUOUS
 62
               7
100
AcDbLine
 10
38.000000008090808
 20
38.500000021963857
 30
0.0
 11
32.000000008090694
 21
38.500000021964027
 31
0.0
  0
LINE
  5
123
100
AcDbEntity
  8
0
  6
CONTINUOUS
 62
               7
100
AcDbLine
 10
38.000000008090808
 20
45.500000021963913
 30
0.0
 11
38.000000008090808
 21
38.500000021963857
 31
0.0
  0
LINE
  5
124
100
AcDbEntity
  8
0
  6
CONTINUOUS
 62
               7
100
AcDbLine
 10
32.000000008090865
 20
45.500000021963913
 30
0.0
 11
32.000000008090694
 21
38.500000021964027
 31
0.0
  0
LINE
  5
125
100
AcDbEntity
  8
0
  6
CONTINUOUS
 62
               7
100
AcDbLine
 10
42.100000008090944
 20
45.400000021963834
 30
0.0
 11
47.900000008090899
 21
45.40000002196372
 31
0.0
  0
LINE
  5
126
100
AcDbEntity
  8
0
  6
CONTINUOUS
 62
               7
100
AcDbLine
 10
47.900000008090899
 20
45.40000002196372
 30
0.0
 11
47.900000008090899
 21
38.600000021963766
 31
0.0
  0
LINE
  5
127
100
AcDbEntity
  8
0
  6
CONTINUOUS
 62
               7
100
AcDbLine
 10
42.100000008090944
 20
45.400000021963834
 30
0.0
 11
42.100000008090944
 21
38.600000021963936
 31
0.0
  0
LINE
  5
128
100
AcDbEntity
  8
0
  6
CONTINUOUS
 62
               7
100
AcDbLine
 10
42.100000008090944
 20
38.600000021963936
 30
0.0
 11
47.900000008090899
 21
38.600000021963766
 31
0.0
  0
LINE
  5
129
100
AcDbEntity
  8
0
  6
CONTINUOUS
 62
               7
100
AcDbLine
 10
37.900000008090899
 20
45.400000021963834
 30
0.0
 11
32.100000008090774
 21
45.400000021964004
 31
0.0
  0
LINE
  5
12A
100
AcDbEntity
  8
0
  6
CONTINUOUS
 62
               7
100
AcDbLine
 10
32.100000008090774
 20
45.400000021964004
 30
0.0
 11
32.100000008090774
 21
38.600000021963936
 31
0.0
  0
LINE
  5
12B
100
AcDbEntity
  8
0
  6
CONTINUOUS
 62
               7
100
AcDbLine
 10
37.900000008090899
 20
45.400000021963834
 30
0.0
 11
37.900000008090785
 21
38.600000021963936
 31
0.0
  0
LINE
  5
12C
100
AcDbEntity
  8
0
  6
CONTINUOUS
 62
               7
100
AcDbLine
 10
37.900000008090785
 20
38.600000021963936
 30
0.0
 11
32.100000008090774
 21
38.600000021963936
 31
0.0
  0
LINE
  5
12D
100
AcDbEntity
  8
0
  6
CONTINUOUS
 62
               7
100
AcDbLine
 10
36.000000000000568
 20
19.900000021965027
 30
0.0
 11
31.200000000000557
 21
19.900000021965027
 31
0.0
  0
LINE
  5
12E
100
AcDbEntity
  8
0
  6
PHANTOM
 62
               2
100
AcDbLine
 10
29.400000015235094
 20
6.4000000219636632
 30
0.0
 11
50.400000015235037
 21
6.400000021963379
 31
0.0
  0
LINE
  5
12F
100
AcDbEntity
  8
0
  6
PHANTOM
 62
               2
100
AcDbLine
 10
50.400000015235207
 20
18.400000021965084
 30
0.0
 11
29.400000015235264
 21
18.400000021965084
 31
0.0
  0
LINE
  5
130
100
AcDbEntity
  8
0
  6
PHANTOM
 62
               2
100
AcDbLine
 10
50.900000015235037
 20
6.900000021963379
 30
0.0
 11
50.90000001523515
 21
17.900000021965141
 31
0.0
  0
LINE
  5
131
100
AcDbEntity
  8
0
  6
PHANTOM
 62
               2
100
AcDbLine
 10
28.90000001523498
 20
6.9000000219637769
 30
0.0
 11
28.900000015235264
 21
17.900000021965141
 31
0.0
  0
ARC
  5
132
100
AcDbEntity
  8
0
  6
PHANTOM
 62
               2
100
AcDbCircle
 10
50.400000015235207
 20
17.900000021965141
 30
0.0
 40
0.5000000000000002
100
AcDbArc
 50
0.0
 51
89.999999999999815
  0
ARC
  5
133
100
AcDbEntity
  8
0
  6
PHANTOM
 62
               2
100
AcDbCircle
 10
50.400000015235037
 20
6.900000021963379
 30
0.0
 40
0.5000000000000002
100
AcDbArc
 50
270.00000000000023
 51
0.0
  0
ARC
  5
134
100
AcDbEntity
  8
0
  6
PHANTOM
 62
               2
100
AcDbCircle
 10
29.400000015235094
 20
6.9000000219637769
 30
0.0
 40
0.5000000000000002
100
AcDbArc
 50
179.99999999999963
 51
269.99999999999937
  0
ARC
  5
135
100
AcDbEntity
  8
0
  6
PHANTOM
 62
               2
100
AcDbCircle
 10
29.400000015235264
 20
17.900000021965141
 30
0.0
 40
0.5000000000000002
100
AcDbArc
 50
89.999999999999815
 51
179.99999999999963
  0
LINE
  5
136
100
AcDbEntity
  8
0
  6
PHANTOM
 62
               2
100
AcDbLine
 10
33.400000015235037
 20
5.5000000219636291
 30
0.0
 11
46.40000001523515
 21
5.5000000219633449
 31
0.0
  0
LINE
  5
137
100
AcDbEntity
  8
0
  6
PHANTOM
 62
               2
100
AcDbLine
 10
33.400000015235037
 20
-2.4999999780356319
 30
0.0
 11
46.400000015235037
 21
-2.4999999780356319
 31
0.0
  0
LINE
  5
138
100
AcDbEntity
  8
0
  6
PHANTOM
 62
               2
100
AcDbLine
 10
32.900000015234923
 20
-1.9999999780356887
 30
0.0
 11
32.900000015235037
 21
5.0000000219636291
 31
0.0
  0
LINE
  5
139
100
AcDbEntity
  8
0
  6
PHANTOM
 62
               2
100
AcDbLine
 10
46.90000001523498
 20
-1.9999999780356887
 30
0.0
 11
46.90000001523515
 21
5.0000000219634018
 31
0.0
  0
ARC
  5
13A
100
AcDbEntity
  8
0
  6
PHANTOM
 62
               2
100
AcDbCircle
 10
46.400000015235037
 20
5.0000000219634018
 30
0.0
 40
0.5000000000000002
100
AcDbArc
 50
0.0
 51
89.999999999999815
  0
ARC
  5
13B
100
AcDbEntity
  8
0
  6
PHANTOM
 62
               2
100
AcDbCircle
 10
33.400000015235037
 20
5.0000000219636291
 30
0.0
 40
0.5000000000000002
100
AcDbArc
 50
89.999999999999815
 51
179.99999999999963
  0
ARC
  5
13C
100
AcDbEntity
  8
0
  6
PHANTOM
 62
               2
100
AcDbCircle
 10
33.400000015235037
 20
-1.9999999780356887
 30
0.0
 40
0.5000000000000002
100
AcDbArc
 50
179.99999999999963
 51
269.99999999999937
  0
ARC
  5
13D
100
AcDbEntity
  8
0
  6
PHANTOM
 62
               2
100
AcDbCircle
 10
46.400000015235037
 20
-1.9999999780356887
 30
0.0
 40
0.5000000000000002
100
AcDbArc
 50
269.99999999999937
 51
0.0
  0
LINE
  5
13E
100
AcDbEntity
  8
0
  6
CONTINUOUS
 62
               4
100
AcDbLine
 10
29.900000015233729
 20
-133.99999997803616
 30
0.0
 11
49.900000015233729
 21
-133.99999997803616
 31
0.0
  0
ARC
  5
13F
100
AcDbEntity
  8
0
  6
CONTINUOUS
 62
               4
100
AcDbCircle
 10
29.900000015233729
 20
-132.99999997803616
 30
0.0
 40
1.0
100
AcDbArc
 50
179.99999999999963
 51
269.99999999999937
  0
ARC
  5
140
100
AcDbEntity
  8
0
  6
CONTINUOUS
 62
               4
100
AcDbCircle
 10
49.900000015233729
 20
-132.99999997803616
 30
0.0
 40
1.0
100
AcDbArc
 50
270.00000000000023
 51
0.0
  0
LINE
  5
141
100
AcDbEntity
  8
0
  6
CONTINUOUS
 62
               4
100
AcDbLine
 10
50.900000015233786
 20
-132.99999995668293
 30
0.0
 11
50.900000015233786
 21
-126.9999999780362
 31
0.0
  0
LINE
  5
142
100
AcDbEntity
  8
0
  6
CONTINUOUS
 62
               4
100
AcDbLine
 10
28.900000015233729
 20
-132.99999995668293
 30
0.0
 11
28.900000015233729
 21
-126.99999997803597
 31
0.0
  0
LINE
  5
143
100
AcDbEntity
  8
0
  6
CONTINUOUS
 62
               7
100
AcDbLine
 10
52.100000000000705
 20
-55.999999978036143
 30
0.0
 11
34.100000015234059
 21
-55.999999978036143
 31
0.0
  0
LINE
  5
145
100
AcDbEntity
  8
0
  6
DASHED
 62
               7
100
AcDbLine
 10
28.150000011459326
 20
-15.999999943530938
 30
0.0
 11
36.000000015234036
 21
-15.999999943530938
 31
0.0
  0
LINE
  5
146
100
AcDbEntity
  8
0
  6
CONTINUOUS
 62
               7
100
AcDbLine
 10
28.600000000000705
 20
-52.999999978036143
 30
0.0
 11
33.600000015234059
 21
-52.999999978036143
 31
0.0
  0
ARC
  5
147
100
AcDbEntity
  8
0
  6
CONTINUOUS
 62
               7
100
AcDbCircle
 10
33.600000015234059
 20
-53.499999978036143
 30
0.0
 40
0.5
100
AcDbArc
 50
0.0
 51
89.999999999999815
  0
LINE
  5
148
100
AcDbEntity
  8
0
  6
CONTINUOUS
 62
               7
100
AcDbLine
 10
34.100000015234059
 20
-55.999999970171856
 30
0.0
 11
34.100000015234059
 21
-53.499999970171856
 31
0.0
  0
ARC
  5
149
100
AcDbEntity
  8
0
  6
CONTINUOUS
 62
               7
100
AcDbCircle
 10
50.900000030467424
 20
-7.4999999435309377
 30
0.0
 40
1.0
100
AcDbArc
 50
0.0
 51
89.999999999999815
  0
LINE
  5
14A
100
AcDbEntity
  8
0
  6
CONTINUOUS
 62
               7
100
AcDbLine
 10
51.69999999238388
 20
-45.499999968833762
 30
0.0
 11
51.900000030467424
 21
-45.299999930750161
 31
0.0
  0
LINE
  5
14B
100
AcDbEntity
  8
0
  6
CONTINUOUS
 62
               7
100
AcDbLine
 10
51.900000030467424
 20
-51.100000035593538
 30
0.0
 11
51.69999999238388
 21
-50.899999997509994
 31
0.0
  0
LINE
  5
14C
100
AcDbEntity
  8
0
  6
CONTINUOUS
 62
               7
100
AcDbLine
 10
51.69999999238388
 20
-45.499999968833762
 30
0.0
 11
51.69999999238388
 21
-50.899999997509994
 31
0.0
  0
LINE
  5
14D
100
AcDbEntity
  8
0
  6
CONTINUOUS
 62
               7
100
AcDbLine
 10
51.900000030467424
 20
-20.299999885973463
 30
0.0
 11
51.69999999238388
 21
-20.499999924057065
 31
0.0
  0
LINE
  5
14E
100
AcDbEntity
  8
0
  6
CONTINUOUS
 62
               7
100
AcDbLine
 10
51.69999999238388
 20
-25.89999995273341
 30
0.0
 11
51.900000030467424
 21
-26.099999990816954
 31
0.0
  0
LINE
  5
14F
100
AcDbEntity
  8
0
  6
CONTINUOUS
 62
               7
100
AcDbLine
 10
51.69999999238388
 20
-25.89999995273341
 30
0.0
 11
51.69999999238388
 21
-20.499999924057065
 31
0.0
  0
ARC
  5
150
100
AcDbEntity
  8
0
  6
CONTINUOUS
 62
               7
100
AcDbCircle
 10
29.100000000000705
 20
-7.4999999435309377
 30
0.0
 40
1.0
100
AcDbArc
 50
89.999999999999815
 51
179.99999999999963
  0
LINE
  5
151
100
AcDbEntity
  8
0
  6
CONTINUOUS
 62
               7
100
AcDbLine
 10
28.300000038084249
 20
-45.499999968833762
 30
0.0
 11
28.300000038084249
 21
-50.899999997509994
 31
0.0
  0
LINE
  5
152
100
AcDbEntity
  8
0
  6
CONTINUOUS
 62
               7
100
AcDbLine
 10
28.100000000000762
 20
-51.100000035593538
 30
0.0
 11
28.300000038084249
 21
-50.899999997509994
 31
0.0
  0
LINE
  5
153
100
AcDbEntity
  8
0
  6
CONTINUOUS
 62
               7
100
AcDbLine
 10
28.300000038084249
 20
-45.499999968833762
 30
0.0
 11
28.100000000000762
 21
-45.299999930750161
 31
0.0
  0
LINE
  5
154
100
AcDbEntity
  8
0
  6
CONTINUOUS
 62
               7
100
AcDbLine
 10
28.300000038084249
 20
-25.89999995273341
 30
0.0
 11
28.300000038084249
 21
-20.499999924057065
 31
0.0
  0
LINE
  5
155
100
AcDbEntity
  8
0
  6
CONTINUOUS
 62
               7
100
AcDbLine
 10
28.300000038084249
 20
-25.89999995273341
 30
0.0
 11
28.100000000000762
 21
-26.099999990816954
 31
0.0
  0
LINE
  5
156
100
AcDbEntity
  8
0
  6
CONTINUOUS
 62
               7
100
AcDbLine
 10
28.100000000000762
 20
-20.299999885973463
 30
0.0
 11
28.300000038084249
 21
-20.499999924057065
 31
0.0
  0
ARC
  5
157
100
AcDbEntity
  8
0
  6
CONTINUOUS
 62
               7
100
AcDbCircle
 10
32.850000030467356
 20
-64.99999997803603
 30
0.0
 40
0.5
100
AcDbArc
 50
269.99999999999937
 51
0.0
  0
ARC
  5
158
100
AcDbEntity
  8
0
  6
CONTINUOUS
 62
               7
100
AcDbCircle
 10
38.350000030467299
 20
-64.99999997803603
 30
0.0
 40
0.5
100
AcDbArc
 50
179.99999999999963
 51
269.99999999999937
  0
ARC
  5
159
100
AcDbEntity
  8
0
  6
CONTINUOUS
 62
               7
100
AcDbCircle
 10
47.150000000000773
 20
-6.9999999435309377
 30
0.0
 40
0.5
100
AcDbArc
 50
89.999999999999815
 51
179.99999999999963
  0
ARC
  5
15A
100
AcDbEntity
  8
0
  6
CONTINUOUS
 62
               7
100
AcDbCircle
 10
41.650000000000773
 20
-6.9999999435309377
 30
0.0
 40
0.5
100
AcDbArc
 50
0.0
 51
89.999999999999815
  0
CIRCLE
  5
15B
100
AcDbEntity
  8
0
  6
CONTINUOUS
 62
               7
100
AcDbCircle
 10
47.700000007617405
 20
-61.29999984005245
 30
0.0
 40
4.0999999999999996
  0
ARC
  5
15C
100
AcDbEntity
  8
0
  6
CONTINUOUS
 62
               7
100
AcDbCircle
 10
44.400000000000773
 20
-7.4999999435309377
 30
0.0
 40
2.25
100
AcDbArc
 50
179.99999999999963
 51
0.0
  0
LINE
  5
15D
100
AcDbEntity
  8
0
  6
CONTINUOUS
 62
               7
100
AcDbLine
 10
46.650000000000773
 20
-6.9999999435309377
 30
0.0
 11
46.650000000000773
 21
-7.4999999435309377
 31
0.0
  0
LINE
  5
15E
100
AcDbEntity
  8
0
  6
CONTINUOUS
 62
               7
100
AcDbLine
 10
42.150000000000773
 20
-6.9999999435309377
 30
0.0
 11
42.150000000000773
 21
-7.4999999435309377
 31
0.0
  0
ARC
  5
15F
100
AcDbEntity
  8
0
  6
CONTINUOUS
 62
               7
100
AcDbCircle
 10
35.600000030467299
 20
-64.499999978036087
 30
0.0
 40
2.25
100
AcDbArc
 50
0.0
 51
179.99999999999963
  0
LINE
  5
160
100
AcDbEntity
  8
0
  6
CONTINUOUS
 62
               7
100
AcDbLine
 10
33.350000030467299
 20
-64.99999997803603
 30
0.0
 11
33.350000030467299
 21
-64.499999978036087
 31
0.0
  0
LINE
  5
161
100
AcDbEntity
  8
0
  6
CONTINUOUS
 62
               7
100
AcDbLine
 10
37.850000030467356
 20
-64.99999997803603
 30
0.0
 11
37.850000030467356
 21
-64.499999978036087
 31
0.0
  0
LINE
  5
162
100
AcDbEntity
  8
0
  6
CONTINUOUS
 62
               7
100
AcDbLine
 10
28.100000000000762
 20
-15.999999943530938
 30
0.0
 11
45.900000015234014
 21
-15.999999943530938
 31
0.0
  0
LINE
  5
163
100
AcDbEntity
  8
0
  6
CONTINUOUS
 62
               7
100
AcDbLine
 10
51.400000030467481
 20
-18.999999943530938
 30
0.0
 11
46.40000001523407
 21
-18.999999943530938
 31
0.0
  0
LINE
  5
164
100
AcDbEntity
  8
0
  6
CONTINUOUS
 62
               7
100
AcDbLine
 10
45.900000015234014
 20
-15.999999951395225
 30
0.0
 11
45.900000015234014
 21
-18.499999951395225
 31
0.0
  0
ARC
  5
165
100
AcDbEntity
  8
0
  6
CONTINUOUS
 62
               7
100
AcDbCircle
 10
46.40000001523407
 20
-18.499999943530938
 30
0.0
 40
0.5
100
AcDbArc
 50
179.99999999999963
 51
269.99999999999937
  0
ARC
  5
166
100
AcDbEntity
  8
0
  6
CONTINUOUS
 62
               7
100
AcDbCircle
 10
28.600000000000705
 20
-53.499999978036143
 30
0.0
 40
0.5
100
AcDbArc
 50
89.999999999999815
 51
179.99999999999963
  0
ARC
  5
167
100
AcDbEntity
  8
0
  6
CONTINUOUS
 62
               7
100
AcDbCircle
 10
51.400000030467481
 20
-18.499999943530938
 30
0.0
 40
0.5
100
AcDbArc
 50
269.99999999999937
 51
0.0
  0
LINE
  5
168
100
AcDbEntity
  8
0
  6
CONTINUOUS
 62
               7
100
AcDbLine
 10
52.000000000000682
 20
-6.4999999435309945
 30
0.0
 11
28.000000000000625
 21
-6.4999999435309945
 31
0.0
  0
LINE
  5
169
100
AcDbEntity
  8
0
  6
CONTINUOUS
 62
               7
100
AcDbLine
 10
28.000000000000625
 20
-69.9999999780362
 30
0.0
 11
52.000000000000682
 21
-69.9999999780362
 31
0.0
  0
LINE
  5
16A
100
AcDbEntity
  8
0
  6
CONTINUOUS
 62
               7
100
AcDbLine
 10
28.000000000000625
 20
-65.499999978036541
 30
0.0
 11
52.000000000000682
 21
-65.499999978036257
 31
0.0
  0
LINE
  5
16B
100
AcDbEntity
  8
0
  6
CONTINUOUS
 62
               7
100
AcDbLine
 10
28.300000000000409
 20
52.000000021964084
 30
0.0
 11
51.700000000000728
 21
52.000000021963913
 31
0.0
  0
LINE
  5
16C
100
AcDbEntity
  8
0
  6
CONTINUOUS
 62
               7
100
AcDbLine
 10
46.002943784194144
 20
-62.997055711808329
 30
0.0
 11
49.39705669677403
 21
-59.60294308533075
 31
0.0
  0
LINE
  5
16D
100
AcDbEntity
  8
0
  6
CONTINUOUS
 62
               7
100
AcDbLine
 10
46.002944031553398
 20
-59.602943720937319
 30
0.0
 11
49.397056658030976
 21
-62.997056633517204
 31
0.0
  0
CIRCLE
  5
16E
100
AcDbEntity
  8
0
  6
CONTINUOUS
 62
               7
100
AcDbCircle
 10
47.700000007617405
 20
-61.29999984005245
 30
0.0
 40
4.0
  0
LINE
  5
16F
100
AcDbEntity
  8
0
  6
CONTINUOUS
 62
               7
100
AcDbLine
 10
28.099999969533826
 20
-51.100000066060474
 30
0.0
 11
28.099999969533826
 21
-64.499999978036541
 31
0.0
  0
LINE
  5
170
100
AcDbEntity
  8
0
  6
CONTINUOUS
 62
               7
100
AcDbLine
 10
51.900000030467424
 20
-64.499999978036257
 30
0.0
 11
51.900000030467424
 21
-51.100000035593538
 31
0.0
  0
ARC
  5
171
100
AcDbEntity
  8
0
  6
CONTINUOUS
 62
               7
100
AcDbCircle
 10
29.100000000000762
 20
-64.499999978036541
 30
0.0
 40
1.0
100
AcDbArc
 50
179.99999999999963
 51
269.99999999999937
  0
ARC
  5
172
100
AcDbEntity
  8
0
  6
CONTINUOUS
 62
               7
100
AcDbCircle
 10
50.900000030467424
 20
-64.499999978036257
 30
0.0
 40
1.0
100
AcDbArc
 50
269.99999999999937
 51
0.0
  0
LINE
  5
173
100
AcDbEntity
  8
0
  6
CONTINUOUS
 62
               7
100
AcDbLine
 10
43.500000000000739
 20
-65.499999978036371
 30
0.0
 11
43.500000000000739
 21
-69.999999998029338
 31
0.0
  0
LINE
  5
174
100
AcDbEntity
  8
0
  6
CONTINUOUS
 62
               7
100
AcDbLine
 10
36.500000000000796
 20
-65.499999978036428
 30
0.0
 11
36.500000000000796
 21
-69.999999998029338
 31
0.0
  0
LINE
  5
175
100
AcDbEntity
  8
0
  6
CONTINUOUS
 62
               7
100
AcDbLine
 10
43.500000000000739
 20
-6.4999999435309945
 30
0.0
 11
43.500000000000739
 21
-2.9999999780361435
 31
0.0
  0
LINE
  5
176
100
AcDbEntity
  8
0
  6
CONTINUOUS
 62
               7
100
AcDbLine
 10
36.500000000000796
 20
-6.4999999435309945
 30
0.0
 11
36.500000000000739
 21
-2.9999999780361435
 31
0.0
  0
CIRCLE
  5
177
100
AcDbEntity
  8
0
  6
CONTINUOUS
 62
               7
100
AcDbCircle
 10
32.300000007617371
 20
-10.700000081514631
 30
0.0
 40
4.0999999999999996
  0
LINE
  5
178
100
AcDbEntity
  8
0
  6
CONTINUOUS
 62
               7
100
AcDbLine
 10
30.60294378419411
 20
-12.39705595327051
 30
0.0
 11
33.997056696773996
 21
-9.0029433267929306
 31
0.0
  0
LINE
  5
179
100
AcDbEntity
  8
0
  6
CONTINUOUS
 62
               7
100
AcDbLine
 10
30.602944031553363
 20
-9.0029439623994989
 30
0.0
 11
33.997056658030942
 21
-12.397056874979384
 31
0.0
  0
CIRCLE
  5
17A
100
AcDbEntity
  8
0
  6
CONTINUOUS
 62
               7
100
AcDbCircle
 10
32.300000007617371
 20
-10.700000081514631
 30
0.0
 40
4.0
  0
LINE
  5
17B
100
AcDbEntity
  8
0
  6
CONTINUOUS
 62
               4
100
AcDbLine
 10
35.977210000000639
 20
-133.99999997803616
 30
0.0
 11
35.977210000000639
 21
-126.99999997803523
 31
0.0
  0
LINE
  5
17C
100
AcDbEntity
  8
0
  6
CONTINUOUS
 62
               4
100
AcDbLine
 10
32.178915015233741
 20
-133.99999997803616
 30
0.0
 11
32.178915015233741
 21
-126.99999997803597
 31
0.0
  0
LINE
  5
17D
100
AcDbEntity
  8
0
  6
CONTINUOUS
 62
               7
100
AcDbLine
 10
28.100000000000762
 20
-20.299999885973463
 30
0.0
 11
28.100000000000762
 21
-7.4999999435309377
 31
0.0
  0
LINE
  5
17E
100
AcDbEntity
  8
0
  6
CONTINUOUS
 62
               7
100
AcDbLine
 10
51.900000030467424
 20
-20.299999885973463
 30
0.0
 11
51.900000030467424
 21
-7.4999999435309377
 31
0.0
  0
LINE
  5
17F
100
AcDbEntity
  8
0
  6
CONTINUOUS
 62
               7
100
AcDbLine
 10
28.099999969533826
 20
-45.299999930750161
 30
0.0
 11
28.099999969533826
 21
-26.099999990816954
 31
0.0
  0
LINE
  5
180
100
AcDbEntity
  8
0
  6
CONTINUOUS
 62
               7
100
AcDbLine
 10
51.900000030467424
 20
-45.299999930750161
 30
0.0
 11
51.900000030467424
 21
-26.099999990816954
 31
0.0
  0
ARC
  5
181
100
AcDbEntity
  8
0
  6
CONTINUOUS
 62
               4
100
AcDbCircle
 10
28.500000000000625
 20
-126.49999997803523
 30
0.0
 40
0.5
100
AcDbArc
 50
179.99999999999963
 51
269.99999999999937
  0
ARC
  5
182
100
AcDbEntity
  8
0
  6
CONTINUOUS
 62
               4
100
AcDbCircle
 10
51.500000000000682
 20
-126.49999997803523
 30
0.0
 40
0.5
100
AcDbArc
 50
270.00000000000023
 51
0.0
  0
LINE
  5
183
100
AcDbEntity
  8
0
  6
CONTINUOUS
 62
               4
100
AcDbLine
 10
51.99999999190976
 20
-145.99999997803621
 30
0.0
 11
52.099999984766725
 21
-145.99999997803621
 31
0.0
  0
LINE
  5
184
100
AcDbEntity
  8
0
  6
CONTINUOUS
 62
               4
100
AcDbLine
 10
75.90000001523336
 20
-145.99999997803624
 30
0.0
 11
75.999999991909817
 21
-145.99999997803624
 31
0.0
  0
LINE
  5
185
100
AcDbEntity
  8
0
  6
CONTINUOUS
 62
               4
100
AcDbLine
 10
51.99999999190976
 20
-150.49999997803525
 30
0.0
 11
51.99999999190976
 21
-145.99999997803621
 31
0.0
  0
LINE
  5
186
100
AcDbEntity
  8
0
  6
CONTINUOUS
 62
               4
100
AcDbLine
 10
75.999999991909817
 20
-150.49999997803525
 30
0.0
 11
75.999999991909817
 21
-145.99999997803624
 31
0.0
  0
CIRCLE
  5
187
100
AcDbEntity
  8
0
  6
CONTINUOUS
 62
               2
100
AcDbCircle
 10
14.0
 20
-2.4999999780361435
 30
0.0
 40
4.9000000000000004
  0
CIRCLE
  5
188
100
AcDbEntity
  8
0
  6
CONTINUOUS
 62
               7
100
AcDbCircle
 10
14.0
 20
-2.4999999780361435
 30
0.0
 40
4.25
  0
LINE
  5
189
100
AcDbEntity
  8
0
  6
CONTINUOUS
 62
               7
100
AcDbLine
 10
75.90000002237656
 20
-20.299999885973492
 30
0.0
 11
75.90000002237656
 21
-7.4999999435309661
 31
0.0
  0
LINE
  5
18A
100
AcDbEntity
  8
0
  6
CONTINUOUS
 62
               7
100
AcDbLine
 10
52.099999991909897
 20
-20.299999885973492
 30
0.0
 11
52.099999991909897
 21
-7.4999999435309661
 31
0.0
  0
LINE
  5
18B
100
AcDbEntity
  8
0
  6
CONTINUOUS
 62
               7
100
AcDbLine
 10
75.90000002237656
 20
-45.299999930750189
 30
0.0
 11
75.90000002237656
 21
-26.099999990816983
 31
0.0
  0
LINE
  5
18C
100
AcDbEntity
  8
0
  6
CONTINUOUS
 62
               7
100
AcDbLine
 10
52.099999991909897
 20
-45.299999930750189
 30
0.0
 11
52.099999991909897
 21
-26.099999990816983
 31
0.0
  0
LINE
  5
18D
100
AcDbEntity
  8
0
  6
CONTINUOUS
 62
               4
100
AcDbLine
 10
59.977210262911569
 20
-157.99999997803616
 30
0.0
 11
59.977210262911569
 21
-150.99999997803525
 31
0.0
  0
LINE
  5
18E
100
AcDbEntity
  8
0
  6
CONTINUOUS
 62
               4
100
AcDbLine
 10
56.178945267651329
 20
-157.99999997803616
 30
0.0
 11
56.178945267651329
 21
-150.99999997803525
 31
0.0
  0
LINE
  5
18F
100
AcDbEntity
  8
0
  6
CONTINUOUS
 62
               7
100
AcDbLine
 10
70.400000007617507
 20
-103.9999999964122
 30
0.0
 11
70.400000007617507
 21
-98.999999978036229
 31
0.0
  0
LINE
  5
190
100
AcDbEntity
  8
0
  6
CONTINUOUS
 62
               4
100
AcDbLine
 10
70.649999984767589
 20
-150.99999999641221
 30
0.0
 11
70.649999984767589
 21
-145.99999997803621
 31
0.0
  0
LINE
  5
191
100
AcDbEntity
  8
0
  6
CONTINUOUS
 62
               7
100
AcDbLine
 10
66.400000007617507
 20
-103.9999999964122
 30
0.0
 11
66.400000007617507
 21
-98.999999978036229
 31
0.0
  0
LINE
  5
192
100
AcDbEntity
  8
0
  6
CONTINUOUS
 62
               4
100
AcDbLine
 10
66.149999984767589
 20
-150.99999999641221
 30
0.0
 11
66.149999984767589
 21
-145.99999997803621
 31
0.0
  0
ARC
  5
193
100
AcDbEntity
  8
0
  6
CONTINUOUS
 62
               7
100
AcDbCircle
 10
59.59999999190893
 20
-64.499999978036385
 30
0.0
 40
2.25
100
AcDbArc
 50
359.99999999999784
 51
179.99999999999818
  0
LINE
  5
194
100
AcDbEntity
  8
0
  6
CONTINUOUS
 62
               7
100
AcDbLine
 10
57.34999999190893
 20
-64.999999978036328
 30
0.0
 11
57.34999999190893
 21
-64.499999978036328
 31
0.0
  0
LINE
  5
195
100
AcDbEntity
  8
0
  6
CONTINUOUS
 62
               7
100
AcDbLine
 10
61.84999999190893
 20
-64.999999978036428
 30
0.0
 11
61.84999999190893
 21
-64.499999978036428
 31
0.0
  0
ARC
  5
196
100
AcDbEntity
  8
0
  6
CONTINUOUS
 62
               7
100
AcDbCircle
 10
62.34999999190893
 20
-64.999999978036442
 30
0.0
 40
0.5
100
AcDbArc
 50
179.99999999999827
 51
269.99999999999807
  0
ARC
  5
197
100
AcDbEntity
  8
0
  6
CONTINUOUS
 62
               7
100
AcDbCircle
 10
56.84999999190893
 20
-64.999999978036314
 30
0.0
 40
0.5
100
AcDbArc
 50
269.99999999999807
 51
359.9999999999979
  0
ARC
  5
198
100
AcDbEntity
  8
0
  6
CONTINUOUS
 62
               7
100
AcDbCircle
 10
75.699999991909863
 20
51.800000021963896
 30
0.0
 40
0.2
100
AcDbArc
 50
0.0
 51
89.999999999999815
  0
ARC
  5
199
100
AcDbEntity
  8
0
  6
CONTINUOUS
 62
               7
100
AcDbCircle
 10
52.299999991909544
 20
51.800000021964067
 30
0.0
 40
0.2
100
AcDbArc
 50
89.999999999999815
 51
179.99999999999963
  0
LINE
  5
19A
100
AcDbEntity
  8
0
  6
CONTINUOUS
 62
               7
100
AcDbLine
 10
75.899999991909851
 20
-2.9999999964121997
 30
0.0
 11
75.899999991909851
 21
51.800000021963896
 31
0.0
  0
LINE
  5
19B
100
AcDbEntity
  8
0
  6
CONTINUOUS
 62
               7
100
AcDbLine
 10
52.099999991909556
 20
-2.9999999964121997
 30
0.0
 11
52.099999991909556
 21
51.800000021964067
 31
0.0
  0
LINE
  5
19C
100
AcDbEntity
  8
0
  6
CONTINUOUS
 62
               7
100
AcDbLine
 10
52.099999991909556
 20
6.000000021963146
 30
0.0
 11
75.899999991909851
 21
6.0000000219626912
 31
0.0
  0
LINE
  5
19D
100
AcDbEntity
  8
0
  6
CONTINUOUS
 62
               7
100
AcDbLine
 10
53.399999980616315
 20
0.0000000219634302
 30
0.0
 11
52.599999998497708
 21
0.0000000219634302
 31
0.0
  0
ARC
  5
19E
100
AcDbEntity
  8
0
  6
CONTINUOUS
 62
               7
100
AcDbCircle
 10
52.599999991909556
 20
0.5000000219634302
 30
0.0
 40
0.5
100
AcDbArc
 50
179.99999999999963
 51
269.99999999999937
  0
ARC
  5
19F
100
AcDbEntity
  8
0
  6
CONTINUOUS
 62
               7
100
AcDbCircle
 10
75.399999991909851
 20
0.500000021963146
 30
0.0
 40
0.5
100
AcDbArc
 50
269.9999999999979
 51
359.99999999999767
  0
LINE
  5
1A0
100
AcDbEntity
  8
0
  6
CONTINUOUS
 62
               7
100
AcDbLine
 10
74.600000003202979
 20
0.000000021963146
 30
0.0
 11
75.399999985321585
 21
0.000000021963146
 31
0.0
  0
LINE
  5
1A1
100
AcDbEntity
  8
0
  6
CONTINUOUS
 62
               7
100
AcDbLine
 10
74.599999969452881
 20
-1.4999999782376818
 30
0.0
 11
75.899999991909738
 21
-1.4999999782376818
 31
0.0
  0
LINE
  5
1A2
100
AcDbEntity
  8
0
  6
CONTINUOUS
 62
               7
100
AcDbLine
 10
52.099999969452767
 20
-1.4999999782376818
 30
0.0
 11
53.399999981373696
 21
-1.4999999782376818
 31
0.0
  0
LINE
  5
1A3
100
AcDbEntity
  8
0
  6
CONTINUOUS
 62
               7
100
AcDbLine
 10
74.599999991909897
 20
-1.4999999782376818
 30
0.0
 11
74.599999991909783
 21
6.0000000219628049
 31
0.0
  0
LINE
  5
1A4
100
AcDbEntity
  8
0
  6
CONTINUOUS
 62
               7
100
AcDbLine
 10
53.399999991909283
 20
-1.4999999782376818
 30
0.0
 11
53.399999991909738
 21
6.000000021963146
 31
0.0
  0
ARC
  5
1A5
100
AcDbEntity
  8
0
  6
CONTINUOUS
 62
               4
100
AcDbCircle
 10
75.499999991909817
 20
-150.49999997803525
 30
0.0
 40
0.5
100
AcDbArc
 50
269.99999999999937
 51
0.0
  0
ARC
  5
1A6
100
AcDbEntity
  8
0
  6
CONTINUOUS
 62
               4
100
AcDbCircle
 10
52.49999999190976
 20
-150.49999997803525
 30
0.0
 40
0.5
100
AcDbArc
 50
179.99999999999963
 51
269.99999999999937
  0
LINE
  5
1A7
100
AcDbEntity
  8
0
  6
CONTINUOUS
 62
               7
100
AcDbLine
 10
51.99999999190976
 20
-86.499999978036229
 30
0.0
 11
75.999999991909817
 21
-86.499999978036229
 31
0.0
  0
ARC
  5
1A8
100
AcDbEntity
  8
0
  6
CONTINUOUS
 62
               4
100
AcDbCircle
 10
53.900000007142864
 20
-156.99999997803616
 30
0.0
 40
1.0
100
AcDbArc
 50
179.99999999999963
 51
269.99999999999937
  0
LINE
  5
1A9
100
AcDbEntity
  8
0
  6
CONTINUOUS
 62
               4
100
AcDbLine
 10
52.900000007142864
 20
-156.99999995668293
 30
0.0
 11
52.900000007142864
 21
-150.99999997803599
 31
0.0
  0
ARC
  5
1AA
100
AcDbEntity
  8
0
  6
CONTINUOUS
 62
               4
100
AcDbCircle
 10
73.900000007142864
 20
-156.99999997803616
 30
0.0
 40
1.0
100
AcDbArc
 50
270.00000000000023
 51
0.0
  0
LINE
  5
1AB
100
AcDbEntity
  8
0
  6
CONTINUOUS
 62
               4
100
AcDbLine
 10
74.900000007142921
 20
-156.99999995668293
 30
0.0
 11
74.900000007142921
 21
-150.99999997803621
 31
0.0
  0
LINE
  5
1AC
100
AcDbEntity
  8
0
  6
CONTINUOUS
 62
               4
100
AcDbLine
 10
53.900000007142864
 20
-157.99999997803616
 30
0.0
 11
73.900000007142864
 21
-157.99999997803616
 31
0.0
  0
LINE
  5
1AD
100
AcDbEntity
  8
0
  6
CONTINUOUS
 62
               4
100
AcDbLine
 10
75.499999991909817
 20
-150.99999997803525
 30
0.0
 11
52.49999999190976
 21
-150.99999997803525
 31
0.0
  0
CIRCLE
  5
1AE
100
AcDbEntity
  8
0
  6
CONTINUOUS
 62
               7
100
AcDbCircle
 10
56.299999999526506
 20
-10.700000081514659
 30
0.0
 40
4.0
  0
LINE
  5
1AF
100
AcDbEntity
  8
0
  6
CONTINUOUS
 62
               7
100
AcDbLine
 10
54.602944023462499
 20
-9.0029439623995273
 30
0.0
 11
57.997056649940077
 21
-12.397056874979413
 31
0.0
  0
LINE
  5
1B0
100
AcDbEntity
  8
0
  6
CONTINUOUS
 62
               7
100
AcDbLine
 10
54.602943776103245
 20
-12.397055953270538
 30
0.0
 11
57.997056688683131
 21
-9.0029433267929591
 31
0.0
  0
CIRCLE
  5
1B1
100
AcDbEntity
  8
0
  6
CONTINUOUS
 62
               7
100
AcDbCircle
 10
56.299999999526506
 20
-10.700000081514659
 30
0.0
 40
4.0999999999999996
  0
LINE
  5
1B2
100
AcDbEntity
  8
0
  6
CONTINUOUS
 62
               7
100
AcDbLine
 10
60.499999991909931
 20
-6.499999943531023
 30
0.0
 11
60.499999991909874
 21
-2.9999999780361719
 31
0.0
  0
LINE
  5
1B3
100
AcDbEntity
  8
0
  6
CONTINUOUS
 62
               7
100
AcDbLine
 10
67.499999991909874
 20
-6.499999943531023
 30
0.0
 11
67.499999991909874
 21
-2.9999999780361719
 31
0.0
  0
LINE
  5
1B4
100
AcDbEntity
  8
0
  6
CONTINUOUS
 62
               7
100
AcDbLine
 10
60.499999991909931
 20
-65.499999978036456
 30
0.0
 11
60.499999991909931
 21
-69.999999998029367
 31
0.0
  0
LINE
  5
1B5
100
AcDbEntity
  8
0
  6
CONTINUOUS
 62
               7
100
AcDbLine
 10
67.499999991909874
 20
-65.499999978036399
 30
0.0
 11
67.499999991909874
 21
-69.999999998029367
 31
0.0
  0
ARC
  5
1B6
100
AcDbEntity
  8
0
  6
CONTINUOUS
 62
               7
100
AcDbCircle
 10
74.90000002237656
 20
-64.499999978036286
 30
0.0
 40
1.0
100
AcDbArc
 50
269.99999999999937
 51
0.0
  0
ARC
  5
1B7
100
AcDbEntity
  8
0
  6
CONTINUOUS
 62
               7
100
AcDbCircle
 10
53.099999991909897
 20
-64.49999997803657
 30
0.0
 40
1.0
100
AcDbArc
 50
179.99999999999963
 51
269.99999999999937
  0
LINE
  5
1B8
100
AcDbEntity
  8
0
  6
CONTINUOUS
 62
               7
100
AcDbLine
 10
52.099999991909897
 20
-64.49999997803657
 30
0.0
 11
52.099999991909897
 21
-51.100000035593567
 31
0.0
  0
LINE
  5
1B9
100
AcDbEntity
  8
0
  6
CONTINUOUS
 62
               7
100
AcDbLine
 10
75.90000002237656
 20
-64.499999978036286
 30
0.0
 11
75.90000002237656
 21
-51.100000035593567
 31
0.0
  0
CIRCLE
  5
1BA
100
AcDbEntity
  8
0
  6
CONTINUOUS
 62
               7
100
AcDbCircle
 10
71.69999999952654
 20
-61.299999840052479
 30
0.0
 40
4.0
  0
LINE
  5
1BB
100
AcDbEntity
  8
0
  6
CONTINUOUS
 62
               7
100
AcDbLine
 10
70.002944023462533
 20
-59.602943720937347
 30
0.0
 11
73.397056649940112
 21
-62.997056633517232
 31
0.0
  0
LINE
  5
1BC
100
AcDbEntity
  8
0
  6
CONTINUOUS
 62
               7
100
AcDbLine
 10
70.00294377610328
 20
-62.997055711808358
 30
0.0
 11
73.397056688683165
 21
-59.602943085330779
 31
0.0
  0
LINE
  5
1BD
100
AcDbEntity
  8
0
  6
CONTINUOUS
 62
               7
100
AcDbLine
 10
75.999999991909817
 20
-98.999999978036229
 30
0.0
 11
75.999999991909817
 21
7.0000000219637997
 31
0.0
  0
LINE
  5
1BE
100
AcDbEntity
  8
0
  6
CONTINUOUS
 62
               7
100
AcDbLine
 10
51.99999999190976
 20
-98.999999978036229
 30
0.0
 11
51.99999999190976
 21
-2.9999999780361719
 31
0.0
  0
LINE
  5
1BF
100
AcDbEntity
  8
0
  6
CONTINUOUS
 62
               7
100
AcDbLine
 10
52.299999991909544
 20
52.000000021964055
 30
0.0
 11
75.699999991909863
 21
52.000000021963885
 31
0.0
  0
LINE
  5
1C0
100
AcDbEntity
  8
0
  6
CONTINUOUS
 62
               7
100
AcDbLine
 10
51.99999999190976
 20
-65.49999997803657
 30
0.0
 11
75.999999991909817
 21
-65.499999978036286
 31
0.0
  0
LINE
  5
1C1
100
AcDbEntity
  8
0
  6
CONTINUOUS
 62
               7
100
AcDbLine
 10
51.99999999190976
 20
-69.999999978036229
 30
0.0
 11
75.999999991909817
 21
-69.999999978036229
 31
0.0
  0
LINE
  5
1C2
100
AcDbEntity
  8
0
  6
CONTINUOUS
 62
               7
100
AcDbLine
 10
75.999999991909817
 20
-6.499999943531023
 30
0.0
 11
51.99999999190976
 21
-6.499999943531023
 31
0.0
  0
ARC
  5
1C3
100
AcDbEntity
  8
0
  6
CONTINUOUS
 62
               7
100
AcDbCircle
 10
75.400000022376616
 20
-18.499999943530966
 30
0.0
 40
0.5
100
AcDbArc
 50
269.99999999999937
 51
0.0
  0
ARC
  5
1C4
100
AcDbEntity
  8
0
  6
CONTINUOUS
 62
               7
100
AcDbCircle
 10
52.59999999190984
 20
-53.499999978036172
 30
0.0
 40
0.5
100
AcDbArc
 50
89.999999999999815
 51
179.99999999999963
  0
ARC
  5
1C5
100
AcDbEntity
  8
0
  6
CONTINUOUS
 62
               7
100
AcDbCircle
 10
70.400000007143205
 20
-18.499999943530966
 30
0.0
 40
0.5
100
AcDbArc
 50
179.99999999999963
 51
269.99999999999937
  0
LINE
  5
1C6
100
AcDbEntity
  8
0
  6
CONTINUOUS
 62
               7
100
AcDbLine
 10
69.900000007143149
 20
-15.999999951395253
 30
0.0
 11
69.900000007143149
 21
-18.499999951395253
 31
0.0
  0
LINE
  5
1C7
100
AcDbEntity
  8
0
  6
CONTINUOUS
 62
               7
100
AcDbLine
 10
75.400000022376616
 20
-18.999999943530966
 30
0.0
 11
70.400000007143205
 21
-18.999999943530966
 31
0.0
  0
LINE
  5
1C8
100
AcDbEntity
  8
0
  6
CONTINUOUS
 62
               7
100
AcDbLine
 10
52.099999991909897
 20
-15.999999943530966
 30
0.0
 11
69.900000007143149
 21
-15.999999943530966
 31
0.0
  0
LINE
  5
1C9
100
AcDbEntity
  8
0
  6
CONTINUOUS
 62
               7
100
AcDbLine
 10
66.149999991909908
 20
-6.9999999435309661
 30
0.0
 11
66.149999991909908
 21
-7.4999999435309661
 31
0.0
  0
LINE
  5
1CA
100
AcDbEntity
  8
0
  6
CONTINUOUS
 62
               7
100
AcDbLine
 10
70.649999991909908
 20
-6.9999999435309661
 30
0.0
 11
70.649999991909908
 21
-7.4999999435309661
 31
0.0
  0
ARC
  5
1CB
100
AcDbEntity
  8
0
  6
CONTINUOUS
 62
               7
100
AcDbCircle
 10
68.399999991909908
 20
-7.4999999435309661
 30
0.0
 40
2.25
100
AcDbArc
 50
179.99999999999963
 51
0.0
  0
CIRCLE
  5
1CC
100
AcDbEntity
  8
0
  6
CONTINUOUS
 62
               7
100
AcDbCircle
 10
71.69999999952654
 20
-61.299999840052479
 30
0.0
 40
4.0999999999999996
  0
ARC
  5
1CD
100
AcDbEntity
  8
0
  6
CONTINUOUS
 62
               7
100
AcDbCircle
 10
65.649999991909908
 20
-6.9999999435309661
 30
0.0
 40
0.5
100
AcDbArc
 50
0.0
 51
89.999999999999815
  0
ARC
  5
1CE
100
AcDbEntity
  8
0
  6
CONTINUOUS
 62
               7
100
AcDbCircle
 10
71.149999991909908
 20
-6.9999999435309661
 30
0.0
 40
0.5
100
AcDbArc
 50
89.999999999999815
 51
179.99999999999963
  0
LINE
  5
1CF
100
AcDbEntity
  8
0
  6
CONTINUOUS
 62
               7
100
AcDbLine
 10
52.099999991909897
 20
-20.299999885973492
 30
0.0
 11
52.300000029993384
 21
-20.499999924057093
 31
0.0
  0
LINE
  5
1D0
100
AcDbEntity
  8
0
  6
CONTINUOUS
 62
               7
100
AcDbLine
 10
52.300000029993384
 20
-25.899999952733438
 30
0.0
 11
52.099999991909897
 21
-26.099999990816983
 31
0.0
  0
LINE
  5
1D1
100
AcDbEntity
  8
0
  6
CONTINUOUS
 62
               7
100
AcDbLine
 10
52.300000029993384
 20
-25.899999952733438
 30
0.0
 11
52.300000029993384
 21
-20.499999924057093
 31
0.0
  0
LINE
  5
1D2
100
AcDbEntity
  8
0
  6
CONTINUOUS
 62
               7
100
AcDbLine
 10
52.300000029993384
 20
-45.499999968833791
 30
0.0
 11
52.099999991909897
 21
-45.299999930750189
 31
0.0
  0
LINE
  5
1D3
100
AcDbEntity
  8
0
  6
CONTINUOUS
 62
               7
100
AcDbLine
 10
52.099999991909897
 20
-51.100000035593567
 30
0.0
 11
52.300000029993384
 21
-50.899999997510022
 31
0.0
  0
LINE
  5
1D4
100
AcDbEntity
  8
0
  6
CONTINUOUS
 62
               7
100
AcDbLine
 10
52.300000029993384
 20
-45.499999968833791
 30
0.0
 11
52.300000029993384
 21
-50.899999997510022
 31
0.0
  0
ARC
  5
1D5
100
AcDbEntity
  8
0
  6
CONTINUOUS
 62
               7
100
AcDbCircle
 10
53.09999999190984
 20
-7.4999999435309661
 30
0.0
 40
1.0
100
AcDbArc
 50
89.999999999999815
 51
179.99999999999963
  0
LINE
  5
1D6
100
AcDbEntity
  8
0
  6
CONTINUOUS
 62
               7
100
AcDbLine
 10
75.699999984293015
 20
-25.899999952733438
 30
0.0
 11
75.699999984293015
 21
-20.499999924057093
 31
0.0
  0
LINE
  5
1D7
100
AcDbEntity
  8
0
  6
CONTINUOUS
 62
               7
100
AcDbLine
 10
75.699999984293015
 20
-25.899999952733438
 30
0.0
 11
75.90000002237656
 21
-26.099999990816983
 31
0.0
  0
LINE
  5
1D8
100
AcDbEntity
  8
0
  6
CONTINUOUS
 62
               7
100
AcDbLine
 10
75.90000002237656
 20
-20.299999885973492
 30
0.0
 11
75.699999984293015
 21
-20.499999924057093
 31
0.0
  0
LINE
  5
1D9
100
AcDbEntity
  8
0
  6
CONTINUOUS
 62
               7
100
AcDbLine
 10
75.699999984293015
 20
-45.499999968833791
 30
0.0
 11
75.699999984293015
 21
-50.899999997510022
 31
0.0
  0
LINE
  5
1DA
100
AcDbEntity
  8
0
  6
CONTINUOUS
 62
               7
100
AcDbLine
 10
75.90000002237656
 20
-51.100000035593567
 30
0.0
 11
75.699999984293015
 21
-50.899999997510022
 31
0.0
  0
LINE
  5
1DB
100
AcDbEntity
  8
0
  6
CONTINUOUS
 62
               7
100
AcDbLine
 10
75.699999984293015
 20
-45.499999968833791
 30
0.0
 11
75.90000002237656
 21
-45.299999930750189
 31
0.0
  0
ARC
  5
1DC
100
AcDbEntity
  8
0
  6
CONTINUOUS
 62
               7
100
AcDbCircle
 10
74.90000002237656
 20
-7.4999999435309661
 30
0.0
 40
1.0
100
AcDbArc
 50
0.0
 51
89.999999999999815
  0
LINE
  5
1DD
100
AcDbEntity
  8
0
  6
CONTINUOUS
 62
               7
100
AcDbLine
 10
58.100000007143194
 20
-55.999999970171885
 30
0.0
 11
58.100000007143194
 21
-53.499999970171885
 31
0.0
  0
ARC
  5
1DE
100
AcDbEntity
  8
0
  6
CONTINUOUS
 62
               7
100
AcDbCircle
 10
57.600000007143194
 20
-53.499999978036172
 30
0.0
 40
0.5
100
AcDbArc
 50
0.0
 51
89.999999999999815
  0
LINE
  5
1DF
100
AcDbEntity
  8
0
  6
CONTINUOUS
 62
               7
100
AcDbLine
 10
52.59999999190984
 20
-52.999999978036172
 30
0.0
 11
57.600000007143194
 21
-52.999999978036172
 31
0.0
  0
LINE
  5
1E0
100
AcDbEntity
  8
0
  6
DASHED
 62
               7
100
AcDbLine
 10
52.150000003368461
 20
-15.999999943530966
 30
0.0
 11
60.000000007143171
 21
-15.999999943530966
 31
0.0
  0
LINE
  5
1E1
100
AcDbEntity
  8
0
  6
CONTINUOUS
 62
               7
100
AcDbLine
 10
75.90000002237656
 20
-55.999999978036172
 30
0.0
 11
58.100000007143194
 21
-55.999999978036172
 31
0.0
  0
ARC
  5
1E2
100
AcDbEntity
  8
0
  6
PHANTOM
 62
               2
100
AcDbCircle
 10
70.400000007144172
 20
-1.9999999780357172
 30
0.0
 40
0.5000000000000002
100
AcDbArc
 50
269.99999999999937
 51
0.0
  0
ARC
  5
1E3
100
AcDbEntity
  8
0
  6
PHANTOM
 62
               2
100
AcDbCircle
 10
57.400000007144172
 20
-1.9999999780357172
 30
0.0
 40
0.5000000000000002
100
AcDbArc
 50
179.99999999999963
 51
269.99999999999937
  0
ARC
  5
1E4
100
AcDbEntity
  8
0
  6
PHANTOM
 62
               2
100
AcDbCircle
 10
57.400000007144172
 20
5.0000000219636007
 30
0.0
 40
0.5000000000000002
100
AcDbArc
 50
89.999999999999815
 51
179.99999999999963
  0
ARC
  5
1E5
100
AcDbEntity
  8
0
  6
PHANTOM
 62
               2
100
AcDbCircle
 10
70.400000007144172
 20
5.0000000219633733
 30
0.0
 40
0.5000000000000002
100
AcDbArc
 50
0.0
 51
89.999999999999815
  0
LINE
  5
1E6
100
AcDbEntity
  8
0
  6
PHANTOM
 62
               2
100
AcDbLine
 10
70.900000007144115
 20
-1.9999999780357172
 30
0.0
 11
70.900000007144286
 21
5.0000000219633733
 31
0.0
  0
LINE
  5
1E7
100
AcDbEntity
  8
0
  6
PHANTOM
 62
               2
100
AcDbLine
 10
56.900000007144058
 20
-1.9999999780357172
 30
0.0
 11
56.900000007144172
 21
5.0000000219636007
 31
0.0
  0
LINE
  5
1E8
100
AcDbEntity
  8
0
  6
PHANTOM
 62
               2
100
AcDbLine
 10
57.400000007144172
 20
-2.4999999780356603
 30
0.0
 11
70.400000007144172
 21
-2.4999999780356603
 31
0.0
  0
LINE
  5
1E9
100
AcDbEntity
  8
0
  6
PHANTOM
 62
               2
100
AcDbLine
 10
57.400000007144172
 20
5.5000000219636007
 30
0.0
 11
70.400000007144286
 21
5.5000000219633165
 31
0.0
  0
ARC
  5
1EA
100
AcDbEntity
  8
0
  6
PHANTOM
 62
               2
100
AcDbCircle
 10
53.400000007144399
 20
17.900000021965113
 30
0.0
 40
0.5000000000000002
100
AcDbArc
 50
89.999999999999815
 51
179.99999999999963
  0
ARC
  5
1EB
100
AcDbEntity
  8
0
  6
PHANTOM
 62
               2
100
AcDbCircle
 10
53.400000007144229
 20
6.9000000219637485
 30
0.0
 40
0.5000000000000002
100
AcDbArc
 50
179.99999999999963
 51
269.99999999999937
  0
ARC
  5
1EC
100
AcDbEntity
  8
0
  6
PHANTOM
 62
               2
100
AcDbCircle
 10
74.400000007144172
 20
6.9000000219633506
 30
0.0
 40
0.5000000000000002
100
AcDbArc
 50
269.99999999999937
 51
0.0
  0
ARC
  5
1ED
100
AcDbEntity
  8
0
  6
PHANTOM
 62
               2
100
AcDbCircle
 10
74.400000007144342
 20
17.900000021965113
 30
0.0
 40
0.5000000000000002
100
AcDbArc
 50
0.0
 51
89.999999999999815
  0
LINE
  5
1EE
100
AcDbEntity
  8
0
  6
PHANTOM
 62
               2
100
AcDbLine
 10
52.900000007144115
 20
6.9000000219637485
 30
0.0
 11
52.900000007144399
 21
17.900000021965113
 31
0.0
  0
LINE
  5
1EF
100
AcDbEntity
  8
0
  6
PHANTOM
 62
               2
100
AcDbLine
 10
74.900000007144172
 20
6.9000000219633506
 30
0.0
 11
74.900000007144286
 21
17.900000021965113
 31
0.0
  0
LINE
  5
1F0
100
AcDbEntity
  8
0
  6
PHANTOM
 62
               2
100
AcDbLine
 10
74.400000007144342
 20
18.400000021965056
 30
0.0
 11
53.400000007144399
 21
18.400000021965056
 31
0.0
  0
LINE
  5
1F1
100
AcDbEntity
  8
0
  6
PHANTOM
 62
               2
100
AcDbLine
 10
53.400000007144229
 20
6.4000000219636348
 30
0.0
 11
74.400000007144172
 21
6.4000000219633506
 31
0.0
  0
LINE
  5
1F2
100
AcDbEntity
  8
0
  6
CONTINUOUS
 62
               7
100
AcDbLine
 10
59.999999991909704
 20
19.900000021964999
 30
0.0
 11
55.199999991909692
 21
19.900000021964999
 31
0.0
  0
LINE
  5
1F3
100
AcDbEntity
  8
0
  6
CONTINUOUS
 62
               7
100
AcDbLine
 10
61.89999999999992
 20
38.600000021963908
 30
0.0
 11
56.099999999999909
 21
38.600000021963908
 31
0.0
  0
LINE
  5
1F4
100
AcDbEntity
  8
0
  6
CONTINUOUS
 62
               7
100
AcDbLine
 10
61.900000000000034
 20
45.400000021963805
 30
0.0
 11
61.89999999999992
 21
38.600000021963908
 31
0.0
  0
LINE
  5
1F5
100
AcDbEntity
  8
0
  6
CONTINUOUS
 62
               7
100
AcDbLine
 10
56.099999999999909
 20
45.400000021963976
 30
0.0
 11
56.099999999999909
 21
38.600000021963908
 31
0.0
  0
LINE
  5
1F6
100
AcDbEntity
  8
0
  6
CONTINUOUS
 62
               7
100
AcDbLine
 10
61.900000000000034
 20
45.400000021963805
 30
0.0
 11
56.099999999999909
 21
45.400000021963976
 31
0.0
  0
LINE
  5
1F7
100
AcDbEntity
  8
0
  6
CONTINUOUS
 62
               7
100
AcDbLine
 10
66.10000000000008
 20
38.600000021963908
 30
0.0
 11
71.900000000000034
 21
38.600000021963737
 31
0.0
  0
LINE
  5
1F8
100
AcDbEntity
  8
0
  6
CONTINUOUS
 62
               7
100
AcDbLine
 10
66.10000000000008
 20
45.400000021963805
 30
0.0
 11
66.10000000000008
 21
38.600000021963908
 31
0.0
  0
LINE
  5
1F9
100
AcDbEntity
  8
0
  6
CONTINUOUS
 62
               7
100
AcDbLine
 10
71.900000000000034
 20
45.400000021963692
 30
0.0
 11
71.900000000000034
 21
38.600000021963737
 31
0.0
  0
LINE
  5
1FA
100
AcDbEntity
  8
0
  6
CONTINUOUS
 62
               7
100
AcDbLine
 10
66.10000000000008
 20
45.400000021963805
 30
0.0
 11
71.900000000000034
 21
45.400000021963692
 31
0.0
  0
LINE
  5
1FB
100
AcDbEntity
  8
0
  6
CONTINUOUS
 62
               7
100
AcDbLine
 10
56.0
 20
45.500000021963885
 30
0.0
 11
55.999999999999829
 21
38.500000021963999
 31
0.0
  0
LINE
  5
1FC
100
AcDbEntity
  8
0
  6
CONTINUOUS
 62
               7
100
AcDbLine
 10
61.999999999999943
 20
45.500000021963885
 30
0.0
 11
61.999999999999943
 21
38.500000021963828
 31
0.0
  0
LINE
  5
1FD
100
AcDbEntity
  8
0
  6
CONTINUOUS
 62
               7
100
AcDbLine
 10
61.999999999999943
 20
38.500000021963828
 30
0.0
 11
55.999999999999829
 21
38.500000021963999
 31
0.0
  0
LINE
  5
1FE
100
AcDbEntity
  8
0
  6
CONTINUOUS
 62
               7
100
AcDbLine
 10
61.999999999999943
 20
45.500000021963885
 30
0.0
 11
56.0
 21
45.500000021963885
 31
0.0
  0
LINE
  5
1FF
100
AcDbEntity
  8
0
  6
CONTINUOUS
 62
               7
100
AcDbLine
 10
66.0
 20
38.500000021963828
 30
0.0
 11
71.999999999999943
 21
38.500000021963714
 31
0.0
  0
LINE
  5
200
100
AcDbEntity
  8
0
  6
CONTINUOUS
 62
               7
100
AcDbLine
 10
66.000000000000171
 20
45.500000021963885
 30
0.0
 11
72.000000000000057
 21
45.500000021963714
 31
0.0
  0
LINE
  5
201
100
AcDbEntity
  8
0
  6
CONTINUOUS
 62
               7
100
AcDbLine
 10
71.899999991909681
 20
30.30000001621265
 30
0.0
 11
71.899999991909681
 21
30.700207558043971
 31
0.0
  0
ARC
  5
202
100
AcDbEntity
  8
0
  6
CONTINUOUS
 62
               7
100
AcDbCircle
 10
71.599999991909669
 20
30.30000001621265
 30
0.0
 40
0.3
100
AcDbArc
 50
269.9999999999979
 51
359.99999999999767
  0
LINE
  5
203
100
AcDbEntity
  8
0
  6
CONTINUOUS
 62
               7
100
AcDbLine
 10
71.899999991909681
 20
30.700207558043971
 30
0.0
 11
73.299999979361644
 21
30.700207558043857
 31
0.0
  0
ARC
  5
204
100
AcDbEntity
  8
0
  6
CONTINUOUS
 62
               7
100
AcDbCircle
 10
56.399999991909851
 20
30.300000016212934
 30
0.0
 40
0.3
100
AcDbArc
 50
179.99999999999963
 51
269.99999999999937
  0
LINE
  5
205
100
AcDbEntity
  8
0
  6
CONTINUOUS
 62
               7
100
AcDbLine
 10
71.099999991909669
 20
28.400000021964829
 30
0.0
 11
71.099999991909669
 21
30.000000016212638
 31
0.0
  0
LINE
  5
206
100
AcDbEntity
  8
0
  6
CONTINUOUS
 62
               7
100
AcDbLine
 10
56.09999999190984
 20
30.300000016212934
 30
0.0
 11
56.09999999190984
 21
30.700207558044085
 31
0.0
  0
LINE
  5
207
100
AcDbEntity
  8
0
  6
CONTINUOUS
 62
               7
100
AcDbLine
 10
71.099999991909669
 20
30.000000016212638
 30
0.0
 11
73.299999991909715
 21
30.000000016212638
 31
0.0
  0
LINE
  5
208
100
AcDbEntity
  8
0
  6
CONTINUOUS
 62
               7
100
AcDbLine
 10
56.09999999190984
 20
30.700207558044085
 30
0.0
 11
54.700000004457877
 21
30.700207558044085
 31
0.0
  0
LINE
  5
209
100
AcDbEntity
  8
0
  6
CONTINUOUS
 62
               7
100
AcDbLine
 10
56.899999991909851
 20
30.000000016212923
 30
0.0
 11
54.699999991909806
 21
30.000000016212923
 31
0.0
  0
LINE
  5
20A
100
AcDbEntity
  8
0
  6
CONTINUOUS
 62
               7
100
AcDbLine
 10
73.299999991909715
 20
20.400000021965113
 30
0.0
 11
73.299999991909715
 21
30.700207558043857
 31
0.0
  0
ARC
  5
20B
100
AcDbEntity
  8
0
  6
CONTINUOUS
 62
               7
100
AcDbCircle
 10
60.499999991909647
 20
19.200000021965238
 30
0.0
 40
0.5000000000000002
100
AcDbArc
 50
179.99999999999807
 51
269.9999999999979
  0
LINE
  5
20C
100
AcDbEntity
  8
0
  6
CONTINUOUS
 62
               7
100
AcDbLine
 10
59.999999991909704
 20
19.200000021965238
 30
0.0
 11
59.999999991909704
 21
19.90000002196517
 31
0.0
  0
ARC
  5
20D
100
AcDbEntity
  8
0
  6
CONTINUOUS
 62
               7
100
AcDbCircle
 10
67.499999991909704
 20
19.200000021965067
 30
0.0
 40
0.5000000000000002
100
AcDbArc
 50
269.99999999999937
 51
0.0
  0
LINE
  5
20E
100
AcDbEntity
  8
0
  6
CONTINUOUS
 62
               7
100
AcDbLine
 10
67.999999991909647
 20
19.200000021965067
 30
0.0
 11
67.999999991909647
 21
19.900000021964999
 31
0.0
  0
LINE
  5
20F
100
AcDbEntity
  8
0
  6
CONTINUOUS
 62
               7
100
AcDbLine
 10
67.499999991909704
 20
18.700000021965124
 30
0.0
 11
60.499999991909647
 21
18.700000021965124
 31
0.0
  0
ARC
  5
210
100
AcDbEntity
  8
0
  6
CONTINUOUS
 62
               7
100
AcDbCircle
 10
70.599999991909726
 20
28.400000021965056
 30
0.0
 40
0.5000000000000002
100
AcDbArc
 50
269.99999999999937
 51
0.0
  0
ARC
  5
211
100
AcDbEntity
  8
0
  6
CONTINUOUS
 62
               7
100
AcDbCircle
 10
57.399999991909795
 20
28.400000021965056
 30
0.0
 40
0.5000000000000002
100
AcDbArc
 50
179.99999999999963
 51
269.99999999999937
  0
LINE
  5
212
100
AcDbEntity
  8
0
  6
CONTINUOUS
 62
               7
100
AcDbLine
 10
56.899999991909681
 20
28.400000021965056
 30
0.0
 11
56.899999991909851
 21
30.000000016212923
 31
0.0
  0
ARC
  5
213
100
AcDbEntity
  8
0
  6
CONTINUOUS
 62
               7
100
AcDbCircle
 10
55.199999991909692
 20
20.400000021965113
 30
0.0
 40
0.5000000000000002
100
AcDbArc
 50
179.99999999999963
 51
269.99999999999937
  0
LINE
  5
214
100
AcDbEntity
  8
0
  6
CONTINUOUS
 62
               7
100
AcDbLine
 10
54.699999991909579
 20
20.400000021965283
 30
0.0
 11
54.699999991909806
 21
30.700207558044085
 31
0.0
  0
ARC
  5
215
100
AcDbEntity
  8
0
  6
CONTINUOUS
 62
               7
100
AcDbCircle
 10
72.799999991909715
 20
20.400000021965113
 30
0.0
 40
0.5000000000000002
100
AcDbArc
 50
269.99999999999937
 51
0.0
  0
LINE
  5
216
100
AcDbEntity
  8
0
  6
CONTINUOUS
 62
               7
100
AcDbLine
 10
72.799999991909715
 20
19.900000021964999
 30
0.0
 11
67.999999991909647
 21
19.900000021964999
 31
0.0
  0
LINE
  5
217
100
AcDbEntity
  8
0
  6
CONTINUOUS
 62
               7
100
AcDbLine
 10
70.599999991909726
 20
27.900000021965113
 30
0.0
 11
57.399999991909795
 21
27.900000021965113
 31
0.0
  0
LINE
  5
218
100
AcDbEntity
  8
0
  6
CONTINUOUS
 62
               7
100
AcDbLine
 10
66.000000000000171
 20
45.500000021963885
 30
0.0
 11
66.0
 21
38.500000021963828
 31
0.0
  0
LINE
  5
219
100
AcDbEntity
  8
0
  6
CONTINUOUS
 62
               7
100
AcDbLine
 10
72.000000000000057
 20
45.500000021963714
 30
0.0
 11
71.999999999999943
 21
38.500000021963714
 31
0.0
  0
ARC
  5
21A
100
AcDbEntity
  8
0
  6
CONTINUOUS
 62
               7
100
AcDbCircle
 10
67.51715728686446
 20
21.70000002196376
 30
0.0
 40
0.2
100
AcDbArc
 50
269.99999999999937
 51
45.000000000000966
  0
ARC
  5
21B
100
AcDbEntity
  8
0
  6
CONTINUOUS
 62
               7
100
AcDbCircle
 10
60.482842713135312
 20
21.70000002196376
 30
0.0
 40
0.2
100
AcDbArc
 50
134.99999999999793
 51
269.99999999999937
  0
ARC
  5
21C
100
AcDbEntity
  8
0
  6
CONTINUOUS
 62
               7
100
AcDbCircle
 10
64.000000000000057
 20
25.21715730882822
 30
0.0
 40
0.2
100
AcDbArc
 50
44.99999999999919
 51
134.99999999999898
  0
LINE
  5
21D
100
AcDbEntity
  8
0
  6
CONTINUOUS
 62
               7
100
AcDbLine
 10
64.141421356237345
 20
25.358578665065508
 30
0.0
 11
67.658578643101748
 21
21.841421378201048
 31
0.0
  0
LINE
  5
21E
100
AcDbEntity
  8
0
  6
CONTINUOUS
 62
               7
100
AcDbLine
 10
63.858578643762655
 20
25.358578665065508
 30
0.0
 11
60.341421356898024
 21
21.841421378201048
 31
0.0
  0
LINE
  5
21F
100
AcDbEntity
  8
0
  6
CONTINUOUS
 62
               7
100
AcDbLine
 10
67.51715728686446
 20
21.500000021963714
 30
0.0
 11
60.482842713135312
 21
21.500000021963714
 31
0.0
  0
LINE
  5
220
100
AcDbEntity
  8
0
  6
CONTINUOUS
 62
               7
100
AcDbLine
 10
56.099999991909669
 20
27.800000021963896
 30
0.0
 11
56.09999999190984
 21
29.900000021963862
 31
0.0
  0
LINE
  5
221
100
AcDbEntity
  8
0
  6
CONTINUOUS
 62
               7
100
AcDbLine
 10
56.09999999190984
 20
29.900000021963862
 30
0.0
 11
54.699999991909806
 21
29.900000021963862
 31
0.0
  0
ARC
  5
222
100
AcDbEntity
  8
0
  6
CONTINUOUS
 62
               7
100
AcDbCircle
 10
55.199999991909692
 20
20.500000021963714
 30
0.0
 40
0.5000000000000002
100
AcDbArc
 50
179.99999999999963
 51
269.99999999999937
  0
LINE
  5
223
100
AcDbEntity
  8
0
  6
CONTINUOUS
 62
               7
100
AcDbLine
 10
72.799999991909715
 20
20.000000021963771
 30
0.0
 11
55.199999991909692
 21
20.000000021963771
 31
0.0
  0
ARC
  5
224
100
AcDbEntity
  8
0
  6
CONTINUOUS
 62
               7
100
AcDbCircle
 10
72.799999991909715
 20
20.500000021963487
 30
0.0
 40
0.5000000000000002
100
AcDbArc
 50
269.9999999999979
 51
359.99999999999767
  0
LINE
  5
225
100
AcDbEntity
  8
0
  6
CONTINUOUS
 62
               7
100
AcDbLine
 10
71.899999991909681
 20
27.800000021963896
 30
0.0
 11
71.899999991909681
 21
29.900000021963464
 31
0.0
  0
LINE
  5
226
100
AcDbEntity
  8
0
  6
CONTINUOUS
 62
               7
100
AcDbLine
 10
71.899999991909681
 20
29.900000021963464
 30
0.0
 11
73.299999991909715
 21
29.900000021963464
 31
0.0
  0
LINE
  5
227
100
AcDbEntity
  8
0
  6
CONTINUOUS
 62
               7
100
AcDbLine
 10
73.299999991909715
 20
27.800000021963896
 30
0.0
 11
54.699999991909692
 21
27.800000021963896
 31
0.0
  0
LINE
  5
228
100
AcDbEntity
  8
0
  6
CONTINUOUS
 62
               7
100
AcDbLine
 10
75.999999991909817
 20
-2.9999999780361719
 30
0.0
 11
51.99999999190976
 21
-2.9999999780361719
 31
0.0
  0
ARC
  5
229
100
AcDbEntity
  8
0
  6
CONTINUOUS
 62
               7
100
AcDbCircle
 10
40.000000000000171
 20
25.217157308828362
 30
0.0
 40
0.2
100
AcDbArc
 50
44.99999999999919
 51
134.99999999999898
  0
LINE
  5
22A
100
AcDbEntity
  8
0
  6
CENTER
 62
               2
100
AcDbLine
 10
14.000000000000455
 20
-67.108297250519357
 30
0.0
 11
13.999999999999943
 21
4.2909194808733702
 31
0.0
  0
LINE
  5
22B
100
AcDbEntity
  8
0
  6
CENTER
 62
               2
100
AcDbLine
 10
19.73556834102618
 20
-2.4999999780361151
 30
0.0
 11
8.0217931080006224
 21
-2.4999999780362003
 31
0.0
  0
LINE
  5
22C
100
AcDbEntity
  8
0
  6
CONTINUOUS
 62
               2
100
AcDbLine
 10
103.53609250348728
 20
-24.999999978036342
 30
0.0
 11
77.980913408696836
 21
-24.999999978036229
 31
0.0
  0
LINE
  5
22D
100
AcDbEntity
  8
0
  6
CONTINUOUS
 62
               2
100
AcDbLine
 10
110.74096701368433
 20
-0.0000000000000711
 30
0.0
 11
99.097832592840348
 21
0.0000000000000426
 31
0.0
  0
LINE
  5
22E
100
AcDbEntity
  8
0
  6
CONTINUOUS
 62
               2
100
AcDbLine
 10
103.53609250348705
 20
-52.999999978036371
 30
0.0
 11
77.152415037715912
 21
-52.9999999780362
 31
0.0
  0
ENDBLK
  5
22F
100
AcDbEntity
  8
0
100
AcDbBlockEnd
  0
BLOCK
  5
230
100
AcDbEntity
  8
0
100
AcDbBlockBegin
  2
PB-H-2
 70
               0
 10
0.0
 20
0.0
 30
0.0
  3
PB-H-2
  1

  0
LINE
  5
231
100
AcDbEntity
  8
0
  6
CENTER
 62
               2
100
AcDbLine
 10
103.99999999999625
 20
-5.7923311016433559
 30
0.0
 11
103.99999999999613
 21
5.7923311016433559
 31
0.0
  0
LINE
  5
232
100
AcDbEntity
  8
0
  6
CENTER
 62
               2
100
AcDbLine
 10
0.0000000000000568
 20
-5.7923311016433843
 30
0.0
 11
-0.0000000000000568
 21
5.7923311016433274
 31
0.0
  0
LINE
  5
233
100
AcDbEntity
  8
0
  6
CENTER
 62
               2
100
AcDbLine
 10
77.396782074615487
 20
43.00000003448659
 30
0.0
 11
27.335965724179061
 21
43.00000003448659
 31
0.0
  0
LINE
  5
234
100
AcDbEntity
  8
0
  6
CENTER
 62
               2
100
AcDbLine
 10
77.296782074615351
 20
18.00000003448659
 30
0.0
 11
27.335965724179061
 21
18.00000003448659
 31
0.0
  0
LINE
  5
235
100
AcDbEntity
  8
0
  6
CENTER
 62
               2
100
AcDbLine
 10
102.20148362414841
 20
45.000000017252205
 30
0.0
 11
78.077979102680388
 21
45.00000001725229
 31
0.0
  0
ARC
  5
236
100
AcDbEntity
  8
0
  6
CONTINUOUS
 62
               7
100
AcDbCircle
 10
104.49999999999795
 20
37.500000017252574
 30
0.0
 40
0.5
100
AcDbArc
 50
179.99999999999963
 51
269.99999999999937
  0
ARC
  5
237
100
AcDbEntity
  8
0
  6
CONTINUOUS
 62
               7
100
AcDbCircle
 10
108.99999999999801
 20
1.0
 30
0.0
 40
1.0
100
AcDbArc
 50
270.00000000000023
 51
0.0
  0
CIRCLE
  5
238
100
AcDbEntity
  8
0
  6
CONTINUOUS
 62
               2
100
AcDbCircle
 10
89.999999999998124
 20
17.000000017252347
 30
0.0
 40
10.477499999999999
  0
CIRCLE
  5
239
100
AcDbEntity
  8
0
  6
CONTINUOUS
 62
               7
100
AcDbCircle
 10
89.999999999998124
 20
17.000000017252347
 30
0.0
 40
9.3155000000000001
  0
LINE
  5
23A
100
AcDbEntity
  8
0
  6
CENTER
 62
               2
100
AcDbLine
 10
102.20148362414841
 20
17.000000017252205
 30
0.0
 11
78.077979102680388
 21
17.00000001725229
 31
0.0
  0
LINE
  5
23B
100
AcDbEntity
  8
0
  6
CENTER
 62
               2
100
AcDbLine
 10
89.999999999998124
 20
56.921033573129989
 30
0.0
 11
89.999999999998124
 21
3.4529488789277991
 31
0.0
  0
LINE
  5
23C
100
AcDbEntity
  8
0
  6
CONTINUOUS
 62
               7
100
AcDbLine
 10
75.999999999998124
 20
0.0
 30
0.0
 11
108.99999999999801
 21
0.0
 31
0.0
  0
ARC
  5
23D
100
AcDbEntity
  8
0
  6
CONTINUOUS
 62
               7
100
AcDbCircle
 10
108.99999999999795
 20
36.000000017252574
 30
0.0
 40
1.0
100
AcDbArc
 50
0.0
 51
89.999999999999815
  0
LINE
  5
23E
100
AcDbEntity
  8
0
  6
CONTINUOUS
 62
               7
100
AcDbLine
 10
109.99999999999801
 20
1.0
 30
0.0
 11
109.99999999999795
 21
36.000000017252574
 31
0.0
  0
LINE
  5
23F
100
AcDbEntity
  8
0
  6
CONTINUOUS
 62
               7
100
AcDbLine
 10
104.49999999999795
 20
37.000000017252574
 30
0.0
 11
108.99999999999795
 21
37.000000017252574
 31
0.0
  0
LINE
  5
240
100
AcDbEntity
  8
0
  6
CONTINUOUS
 62
               7
100
AcDbLine
 10
103.99999999999795
 20
37.500000017252574
 30
0.0
 11
103.9999999999979
 21
59.000000017252574
 31
0.0
  0
ARC
  5
241
100
AcDbEntity
  8
0
  6
CONTINUOUS
 62
               7
100
AcDbCircle
 10
102.9999999999979
 20
59.000000017252574
 30
0.0
 40
1.0
100
AcDbArc
 50
0.0
 51
89.999999999999815
  0
CIRCLE
  5
242
100
AcDbEntity
  8
0
  6
CONTINUOUS
 62
               7
100
AcDbCircle
 10
89.999999999998124
 20
45.000000017252376
 30
0.0
 40
9.3155000000000001
  0
CIRCLE
  5
243
100
AcDbEntity
  8
0
  6
CONTINUOUS
 62
               2
100
AcDbCircle
 10
89.999999999998124
 20
45.000000017252376
 30
0.0
 40
10.477499999999999
  0
LINE
  5
244
100
AcDbEntity
  8
0
  6
CONTINUOUS
 62
               7
100
AcDbLine
 10
75.999999999998124
 20
60.000000017252574
 30
0.0
 11
102.9999999999979
 21
60.000000017252574
 31
0.0
  0
LINE
  5
245
100
AcDbEntity
  8
0
  6
CENTER
 62
               2
100
AcDbLine
 10
1.7985163758477256
 20
45.000000017252205
 30
0.0
 11
25.922020897315747
 21
45.00000001725229
 31
0.0
  0
ARC
  5
246
100
AcDbEntity
  8
0
  6
CONTINUOUS
 62
               7
100
AcDbCircle
 10
-0.500000000001819
 20
37.500000017252574
 30
0.0
 40
0.5
100
AcDbArc
 50
270.00000000000023
 51
0.0
  0
ARC
  5
247
100
AcDbEntity
  8
0
  6
CONTINUOUS
 62
               7
100
AcDbCircle
 10
-5.0000000000018758
 20
1.0
 30
0.0
 40
1.0
100
AcDbArc
 50
179.99999999999963
 51
269.99999999999937
  0
CIRCLE
  5
248
100
AcDbEntity
  8
0
  6
CONTINUOUS
 62
               2
100
AcDbCircle
 10
13.99999999999801
 20
17.000000017252347
 30
0.0
 40
10.477499999999999
  0
CIRCLE
  5
249
100
AcDbEntity
  8
0
  6
CONTINUOUS
 62
               7
100
AcDbCircle
 10
13.99999999999801
 20
17.000000017252347
 30
0.0
 40
9.3155000000000001
  0
LINE
  5
24A
100
AcDbEntity
  8
0
  6
CENTER
 62
               2
100
AcDbLine
 10
1.7985163758477256
 20
17.000000017252205
 30
0.0
 11
25.922020897315747
 21
17.00000001725229
 31
0.0
  0
LINE
  5
24B
100
AcDbEntity
  8
0
  6
CENTER
 62
               2
100
AcDbLine
 10
13.99999999999801
 20
56.921033573129989
 30
0.0
 11
13.99999999999801
 21
3.4529488789277991
 31
0.0
  0
LINE
  5
24C
100
AcDbEntity
  8
0
  6
CONTINUOUS
 62
               7
100
AcDbLine
 10
27.99999999999801
 20
0.0
 30
0.0
 11
-5.0000000000018758
 21
0.0
 31
0.0
  0
ARC
  5
24D
100
AcDbEntity
  8
0
  6
CONTINUOUS
 62
               7
100
AcDbCircle
 10
-5.000000000001819
 20
36.000000017252574
 30
0.0
 40
1.0
100
AcDbArc
 50
89.999999999999815
 51
179.99999999999963
  0
LINE
  5
24E
100
AcDbEntity
  8
0
  6
CONTINUOUS
 62
               7
100
AcDbLine
 10
-6.0000000000018758
 20
1.0
 30
0.0
 11
-6.000000000001819
 21
36.000000017252574
 31
0.0
  0
LINE
  5
24F
100
AcDbEntity
  8
0
  6
CONTINUOUS
 62
               7
100
AcDbLine
 10
-0.500000000001819
 20
37.000000017252574
 30
0.0
 11
-5.000000000001819
 21
37.000000017252574
 31
0.0
  0
LINE
  5
250
100
AcDbEntity
  8
0
  6
CONTINUOUS
 62
               7
100
AcDbLine
 10
-0.000000000001819
 20
37.500000017252574
 30
0.0
 11
-0.0000000000017621
 21
59.000000017252574
 31
0.0
  0
ARC
  5
251
100
AcDbEntity
  8
0
  6
CONTINUOUS
 62
               7
100
AcDbCircle
 10
0.9999999999982379
 20
59.000000017252574
 30
0.0
 40
1.0
100
AcDbArc
 50
89.999999999999815
 51
179.99999999999963
  0
CIRCLE
  5
252
100
AcDbEntity
  8
0
  6
CONTINUOUS
 62
               7
100
AcDbCircle
 10
13.99999999999801
 20
45.000000017252376
 30
0.0
 40
9.3155000000000001
  0
CIRCLE
  5
253
100
AcDbEntity
  8
0
  6
CONTINUOUS
 62
               2
100
AcDbCircle
 10
13.99999999999801
 20
45.000000017252376
 30
0.0
 40
10.477499999999999
  0
LINE
  5
254
100
AcDbEntity
  8
0
  6
CONTINUOUS
 62
               7
100
AcDbLine
 10
27.999999999998025
 20
60.000000017252574
 30
0.0
 11
0.9999999999982379
 21
60.000000017252574
 31
0.0
  0
LINE
  5
255
100
AcDbEntity
  8
0
  6
CONTINUOUS
 62
               7
100
AcDbLine
 10
51.999999999998039
 20
0.0
 30
0.0
 11
51.999999999998039
 21
60.000000000000085
 31
0.0
  0
LINE
  5
256
100
AcDbEntity
  8
0
  6
CENTER
 62
               2
100
AcDbLine
 10
63.999999999998238
 20
-1.7805332533495744
 30
0.0
 11
63.999999999998238
 21
61.984601423605142
 31
0.0
  0
ARC
  5
257
100
AcDbEntity
  8
0
  6
CONTINUOUS
 62
               7
100
AcDbCircle
 10
68.399999984764975
 20
59.000000017252574
 30
0.0
 40
2.25
100
AcDbArc
 50
179.99999999999963
 51
0.0
  0
LINE
  5
258
100
AcDbEntity
  8
0
  6
CONTINUOUS
 62
               7
100
AcDbLine
 10
70.649999984764975
 20
59.500000017252574
 30
0.0
 11
70.649999984764975
 21
59.000000017252574
 31
0.0
  0
LINE
  5
259
100
AcDbEntity
  8
0
  6
CONTINUOUS
 62
               7
100
AcDbLine
 10
66.149999984764975
 20
59.500000017252574
 30
0.0
 11
66.149999984764975
 21
59.000000017252574
 31
0.0
  0
ARC
  5
25A
100
AcDbEntity
  8
0
  6
CONTINUOUS
 62
               7
100
AcDbCircle
 10
59.600000015231501
 20
1.9999999827474824
 30
0.0
 40
2.25
100
AcDbArc
 50
0.0
 51
179.99999999999963
  0
LINE
  5
25B
100
AcDbEntity
  8
0
  6
CONTINUOUS
 62
               7
100
AcDbLine
 10
61.850000015231501
 20
1.4999999827474824
 30
0.0
 11
61.850000015231501
 21
1.9999999827474824
 31
0.0
  0
LINE
  5
25C
100
AcDbEntity
  8
0
  6
CONTINUOUS
 62
               7
100
AcDbLine
 10
57.350000015231501
 20
1.4999999827474824
 30
0.0
 11
57.350000015231501
 21
1.9999999827474824
 31
0.0
  0
LINE
  5
25D
100
AcDbEntity
  8
0
  6
CONTINUOUS
 62
               7
100
AcDbLine
 10
51.999999999998039
 20
0.9999999827474824
 30
0.0
 11
74.900000015231626
 21
0.9999999827474824
 31
0.0
  0
ARC
  5
25E
100
AcDbEntity
  8
0
  6
CONTINUOUS
 62
               7
100
AcDbCircle
 10
56.850000015231501
 20
1.4999999827474824
 30
0.0
 40
0.5
100
AcDbArc
 50
269.99999999999937
 51
0.0
  0
ARC
  5
25F
100
AcDbEntity
  8
0
  6
CONTINUOUS
 62
               7
100
AcDbCircle
 10
62.350000015231501
 20
1.4999999827474824
 30
0.0
 40
0.5
100
AcDbArc
 50
179.99999999999963
 51
269.99999999999937
  0
ARC
  5
260
100
AcDbEntity
  8
0
  6
CONTINUOUS
 62
               7
100
AcDbCircle
 10
65.649999984764975
 20
59.500000017252574
 30
0.0
 40
0.5
100
AcDbArc
 50
0.0
 51
89.999999999999815
  0
ARC
  5
261
100
AcDbEntity
  8
0
  6
CONTINUOUS
 62
               7
100
AcDbCircle
 10
71.149999984764975
 20
59.500000017252574
 30
0.0
 40
0.5
100
AcDbArc
 50
89.999999999999815
 51
179.99999999999963
  0
ARC
  5
262
100
AcDbEntity
  8
0
  6
CONTINUOUS
 62
               7
100
AcDbCircle
 10
63.999999999998238
 20
43.000000034486533
 30
0.0
 40
11.699999999999999
100
AcDbArc
 50
131.94879674482874
 51
110.11028008888883
  0
ARC
  5
263
100
AcDbEntity
  8
0
  6
CONTINUOUS
 62
               7
100
AcDbCircle
 10
63.999999999998238
 20
18.00000003448659
 30
0.0
 40
11.699999999999999
100
AcDbArc
 50
311.94879625562083
 51
290.11028030534595
  0
ARC
  5
264
100
AcDbEntity
  8
0
  6
CONTINUOUS
 62
               7
100
AcDbCircle
 10
53.09999998476485
 20
59.000000017252574
 30
0.0
 40
1.0
100
AcDbArc
 50
89.999999999999815
 51
179.99999999999963
  0
ARC
  5
265
100
AcDbEntity
  8
0
  6
CONTINUOUS
 62
               7
100
AcDbCircle
 10
74.900000015231626
 20
59.000000017252574
 30
0.0
 40
1.0
100
AcDbArc
 50
0.0
 51
89.999999999999815
  0
ARC
  5
266
100
AcDbEntity
  8
0
  6
CONTINUOUS
 62
               7
100
AcDbCircle
 10
53.09999998476485
 20
1.9999999827474824
 30
0.0
 40
1.0
100
AcDbArc
 50
179.99999999999963
 51
269.99999999999937
  0
ARC
  5
267
100
AcDbEntity
  8
0
  6
CONTINUOUS
 62
               7
100
AcDbCircle
 10
74.900000015231626
 20
1.9999999827474824
 30
0.0
 40
1.0
100
AcDbArc
 50
270.00000000000023
 51
0.0
  0
CIRCLE
  5
268
100
AcDbEntity
  8
0
  6
CONTINUOUS
 62
               7
100
AcDbCircle
 10
56.299999999998192
 20
55.799999879268881
 30
0.0
 40
4.0999999999999996
  0
CIRCLE
  5
269
100
AcDbEntity
  8
0
  6
CONTINUOUS
 62
               7
100
AcDbCircle
 10
71.699999999998283
 20
5.2000001207311755
 30
0.0
 40
4.0999999999999996
  0
LINE
  5
26A
100
AcDbEntity
  8
0
  6
CONTINUOUS
 62
               7
100
AcDbLine
 10
52.099999984764906
 20
21.200000030033351
 30
0.0
 11
52.099999984764906
 21
40.399999969966615
 31
0.0
  0
LINE
  5
26B
100
AcDbEntity
  8
0
  6
CONTINUOUS
 62
               7
100
AcDbLine
 10
52.099999984764906
 20
46.200000074810049
 30
0.0
 11
52.099999984764906
 21
59.000000017252574
 31
0.0
  0
LINE
  5
26C
100
AcDbEntity
  8
0
  6
CONTINUOUS
 62
               7
100
AcDbLine
 10
52.099999984764906
 20
46.200000074810049
 30
0.0
 11
52.300000022848451
 21
46.000000036726505
 31
0.0
  0
LINE
  5
26D
100
AcDbEntity
  8
0
  6
CONTINUOUS
 62
               7
100
AcDbLine
 10
52.300000022848451
 20
40.600000008050159
 30
0.0
 11
52.099999984764906
 21
40.399999969966615
 31
0.0
  0
LINE
  5
26E
100
AcDbEntity
  8
0
  6
CONTINUOUS
 62
               7
100
AcDbLine
 10
52.300000022848451
 20
40.600000008050159
 30
0.0
 11
52.300000022848451
 21
46.000000036726505
 31
0.0
  0
LINE
  5
26F
100
AcDbEntity
  8
0
  6
CONTINUOUS
 62
               7
100
AcDbLine
 10
75.900000015231626
 20
21.200000030033351
 30
0.0
 11
75.900000015231626
 21
40.399999969966615
 31
0.0
  0
LINE
  5
270
100
AcDbEntity
  8
0
  6
CONTINUOUS
 62
               7
100
AcDbLine
 10
75.900000015231626
 20
46.200000074810049
 30
0.0
 11
75.900000015231626
 21
59.000000017252574
 31
0.0
  0
LINE
  5
271
100
AcDbEntity
  8
0
  6
CONTINUOUS
 62
               7
100
AcDbLine
 10
75.699999977148082
 20
40.600000008050159
 30
0.0
 11
75.699999977148082
 21
46.000000036726505
 31
0.0
  0
LINE
  5
272
100
AcDbEntity
  8
0
  6
CONTINUOUS
 62
               7
100
AcDbLine
 10
75.699999977148082
 20
40.600000008050159
 30
0.0
 11
75.900000015231626
 21
40.399999969966615
 31
0.0
  0
LINE
  5
273
100
AcDbEntity
  8
0
  6
CONTINUOUS
 62
               7
100
AcDbLine
 10
75.900000015231626
 20
46.200000074810049
 30
0.0
 11
75.699999977148082
 21
46.000000036726505
 31
0.0
  0
LINE
  5
274
100
AcDbEntity
  8
0
  6
CONTINUOUS
 62
               7
100
AcDbLine
 10
52.099999984764906
 20
1.9999999906116557
 30
0.0
 11
52.099999984764906
 21
15.399999919086071
 31
0.0
  0
LINE
  5
275
100
AcDbEntity
  8
0
  6
CONTINUOUS
 62
               7
100
AcDbLine
 10
52.300000022848451
 20
20.999999991949807
 30
0.0
 11
52.099999984764906
 21
21.200000030033351
 31
0.0
  0
LINE
  5
276
100
AcDbEntity
  8
0
  6
CONTINUOUS
 62
               7
100
AcDbLine
 10
52.099999984764906
 20
15.399999925189974
 30
0.0
 11
52.300000022848451
 21
15.599999963273518
 31
0.0
  0
LINE
  5
277
100
AcDbEntity
  8
0
  6
CONTINUOUS
 62
               7
100
AcDbLine
 10
52.300000022848451
 20
20.999999991949807
 30
0.0
 11
52.300000022848451
 21
15.599999963273518
 31
0.0
  0
LINE
  5
278
100
AcDbEntity
  8
0
  6
CONTINUOUS
 62
               7
100
AcDbLine
 10
75.900000015231626
 20
1.9999999906116557
 30
0.0
 11
75.900000015231626
 21
15.399999919086071
 31
0.0
  0
LINE
  5
279
100
AcDbEntity
  8
0
  6
CONTINUOUS
 62
               7
100
AcDbLine
 10
75.699999977148082
 20
20.999999991949807
 30
0.0
 11
75.699999977148082
 21
15.599999963273518
 31
0.0
  0
LINE
  5
27A
100
AcDbEntity
  8
0
  6
CONTINUOUS
 62
               7
100
AcDbLine
 10
75.900000015231626
 20
15.399999925189974
 30
0.0
 11
75.699999977148082
 21
15.599999963273518
 31
0.0
  0
LINE
  5
27B
100
AcDbEntity
  8
0
  6
CONTINUOUS
 62
               7
100
AcDbLine
 10
75.699999977148082
 20
20.999999991949807
 30
0.0
 11
75.900000015231626
 21
21.200000030033351
 31
0.0
  0
LINE
  5
27C
100
AcDbEntity
  8
0
  6
CONTINUOUS
 62
               7
100
AcDbLine
 10
70.002943985191223
 20
3.502944248975183
 30
0.0
 11
73.397056897771108
 21
6.8970568754527619
 31
0.0
  0
LINE
  5
27D
100
AcDbEntity
  8
0
  6
CONTINUOUS
 62
               7
100
AcDbLine
 10
70.002944232550476
 20
6.8970562398461936
 30
0.0
 11
73.397056859028055
 21
3.5029433272663084
 31
0.0
  0
CIRCLE
  5
27E
100
AcDbEntity
  8
0
  6
CONTINUOUS
 62
               7
100
AcDbCircle
 10
71.700000208614483
 20
5.2000001207310618
 30
0.0
 40
4.0
  0
LINE
  5
27F
100
AcDbEntity
  8
0
  6
CONTINUOUS
 62
               7
100
AcDbLine
 10
54.602943985191075
 20
54.102944007512889
 30
0.0
 11
57.99705689777096
 21
57.497056633990468
 31
0.0
  0
LINE
  5
280
100
AcDbEntity
  8
0
  6
CONTINUOUS
 62
               7
100
AcDbLine
 10
54.602944232550328
 20
57.4970559983839
 30
0.0
 11
57.997056859027907
 21
54.102943085804014
 31
0.0
  0
CIRCLE
  5
281
100
AcDbEntity
  8
0
  6
CONTINUOUS
 62
               7
100
AcDbCircle
 10
56.300000208614335
 20
55.799999879268768
 30
0.0
 40
4.0
  0
ARC
  5
282
100
AcDbEntity
  8
0
  6
CONTINUOUS
 62
               7
100
AcDbCircle
 10
59.600000007614938
 20
1.9999999827474824
 30
0.0
 40
2.0
100
AcDbArc
 50
0.0
 51
179.99999999999963
  0
LINE
  5
283
100
AcDbEntity
  8
0
  6
CONTINUOUS
 62
               7
100
AcDbLine
 10
61.600000007614938
 20
1.9999999827474824
 30
0.0
 11
61.600000007614938
 21
0.9999999827474824
 31
0.0
  0
LINE
  5
284
100
AcDbEntity
  8
0
  6
CONTINUOUS
 62
               7
100
AcDbLine
 10
57.600000007614938
 20
1.9999999827474824
 30
0.0
 11
57.600000007614938
 21
0.9999999827474824
 31
0.0
  0
ARC
  5
285
100
AcDbEntity
  8
0
  6
CONTINUOUS
 62
               7
100
AcDbCircle
 10
68.400000007614892
 20
59.000000017252574
 30
0.0
 40
2.0
100
AcDbArc
 50
179.99999999999963
 51
0.0
  0
LINE
  5
286
100
AcDbEntity
  8
0
  6
CONTINUOUS
 62
               7
100
AcDbLine
 10
66.400000007614892
 20
59.000000017252574
 30
0.0
 11
66.400000007614892
 21
60.000000017252574
 31
0.0
  0
LINE
  5
287
100
AcDbEntity
  8
0
  6
CONTINUOUS
 62
               7
100
AcDbLine
 10
70.400000007614892
 20
59.000000017252574
 30
0.0
 11
70.400000007614892
 21
60.000000017252574
 31
0.0
  0
LINE
  5
288
100
AcDbEntity
  8
0
  6
CONTINUOUS
 62
               7
100
AcDbLine
 10
75.999999999998039
 20
0.0
 30
0.0
 11
75.999999999998039
 21
60.000000000000085
 31
0.0
  0
CIRCLE
  5
289
100
AcDbEntity
  8
0
  6
CONTINUOUS
 62
               2
100
AcDbCircle
 10
39.999999999998238
 20
18.00000003448659
 30
0.0
 40
8.3000001907348633
  0
CIRCLE
  5
28A
100
AcDbEntity
  8
0
  6
CONTINUOUS
 62
               7
100
AcDbCircle
 10
39.999999999998238
 20
18.00000003448659
 30
0.0
 40
7.4749999999999996
  0
CIRCLE
  5
28B
100
AcDbEntity
  8
0
  6
CONTINUOUS
 62
               2
100
AcDbCircle
 10
63.999999999998238
 20
43.00000003448659
 30
0.0
 40
8.3000001907348633
  0
CIRCLE
  5
28C
100
AcDbEntity
  8
0
  6
CONTINUOUS
 62
               7
100
AcDbCircle
 10
63.999999999998238
 20
43.00000003448659
 30
0.0
 40
7.4749999999999996
  0
CIRCLE
  5
28D
100
AcDbEntity
  8
0
  6
CONTINUOUS
 62
               2
100
AcDbCircle
 10
63.999999999998238
 20
18.00000003448659
 30
0.0
 40
8.3000001907348633
  0
CIRCLE
  5
28E
100
AcDbEntity
  8
0
  6
CONTINUOUS
 62
               7
100
AcDbCircle
 10
63.999999999998238
 20
18.00000003448659
 30
0.0
 40
7.4749999999999996
  0
LINE
  5
28F
100
AcDbEntity
  8
0
  6
CONTINUOUS
 62
               7
100
AcDbLine
 10
27.999999999998039
 20
0.0
 30
0.0
 11
27.999999999998039
 21
60.000000000000085
 31
0.0
  0
LINE
  5
290
100
AcDbEntity
  8
0
  6
CENTER
 62
               2
100
AcDbLine
 10
39.999999999998238
 20
-1.7805332533495744
 30
0.0
 11
39.999999999998238
 21
61.984601423605142
 31
0.0
  0
ARC
  5
291
100
AcDbEntity
  8
0
  6
CONTINUOUS
 62
               7
100
AcDbCircle
 10
44.399999984764975
 20
59.000000017252574
 30
0.0
 40
2.25
100
AcDbArc
 50
179.99999999999963
 51
0.0
  0
LINE
  5
292
100
AcDbEntity
  8
0
  6
CONTINUOUS
 62
               7
100
AcDbLine
 10
46.649999984764975
 20
59.500000017252574
 30
0.0
 11
46.649999984764975
 21
59.000000017252574
 31
0.0
  0
LINE
  5
293
100
AcDbEntity
  8
0
  6
CONTINUOUS
 62
               7
100
AcDbLine
 10
42.149999984764975
 20
59.500000017252574
 30
0.0
 11
42.149999984764975
 21
59.000000017252574
 31
0.0
  0
ARC
  5
294
100
AcDbEntity
  8
0
  6
CONTINUOUS
 62
               7
100
AcDbCircle
 10
35.600000015231501
 20
1.9999999827474824
 30
0.0
 40
2.25
100
AcDbArc
 50
0.0
 51
179.99999999999963
  0
LINE
  5
295
100
AcDbEntity
  8
0
  6
CONTINUOUS
 62
               7
100
AcDbLine
 10
37.850000015231501
 20
1.4999999827474824
 30
0.0
 11
37.850000015231501
 21
1.9999999827474824
 31
0.0
  0
LINE
  5
296
100
AcDbEntity
  8
0
  6
CONTINUOUS
 62
               7
100
AcDbLine
 10
33.350000015231501
 20
1.4999999827474824
 30
0.0
 11
33.350000015231501
 21
1.9999999827474824
 31
0.0
  0
LINE
  5
297
100
AcDbEntity
  8
0
  6
CONTINUOUS
 62
               7
100
AcDbLine
 10
27.999999999998039
 20
0.9999999827474824
 30
0.0
 11
50.900000015231626
 21
0.9999999827474824
 31
0.0
  0
ARC
  5
298
100
AcDbEntity
  8
0
  6
CONTINUOUS
 62
               7
100
AcDbCircle
 10
32.850000015231501
 20
1.4999999827474824
 30
0.0
 40
0.5
100
AcDbArc
 50
269.99999999999937
 51
0.0
  0
ARC
  5
299
100
AcDbEntity
  8
0
  6
CONTINUOUS
 62
               7
100
AcDbCircle
 10
38.350000015231501
 20
1.4999999827474824
 30
0.0
 40
0.5
100
AcDbArc
 50
179.99999999999963
 51
269.99999999999937
  0
ARC
  5
29A
100
AcDbEntity
  8
0
  6
CONTINUOUS
 62
               7
100
AcDbCircle
 10
41.649999984764975
 20
59.500000017252574
 30
0.0
 40
0.5
100
AcDbArc
 50
0.0
 51
89.999999999999815
  0
ARC
  5
29B
100
AcDbEntity
  8
0
  6
CONTINUOUS
 62
               7
100
AcDbCircle
 10
47.149999984764975
 20
59.500000017252574
 30
0.0
 40
0.5
100
AcDbArc
 50
89.999999999999815
 51
179.99999999999963
  0
ARC
  5
29C
100
AcDbEntity
  8
0
  6
CONTINUOUS
 62
               7
100
AcDbCircle
 10
39.999999999998238
 20
43.000000034486533
 30
0.0
 40
11.699999999999999
100
AcDbArc
 50
131.94879674482874
 51
110.11028008888883
  0
ARC
  5
29D
100
AcDbEntity
  8
0
  6
CONTINUOUS
 62
               7
100
AcDbCircle
 10
39.999999999998238
 20
18.00000003448659
 30
0.0
 40
11.699999999999999
100
AcDbArc
 50
311.94879625562083
 51
290.11028030534595
  0
ARC
  5
29E
100
AcDbEntity
  8
0
  6
CONTINUOUS
 62
               7
100
AcDbCircle
 10
29.09999998476485
 20
59.000000017252574
 30
0.0
 40
1.0
100
AcDbArc
 50
89.999999999999815
 51
179.99999999999963
  0
ARC
  5
29F
100
AcDbEntity
  8
0
  6
CONTINUOUS
 62
               7
100
AcDbCircle
 10
50.900000015231626
 20
59.000000017252574
 30
0.0
 40
1.0
100
AcDbArc
 50
0.0
 51
89.999999999999815
  0
ARC
  5
2A0
100
AcDbEntity
  8
0
  6
CONTINUOUS
 62
               7
100
AcDbCircle
 10
29.09999998476485
 20
1.9999999827474824
 30
0.0
 40
1.0
100
AcDbArc
 50
179.99999999999963
 51
269.99999999999937
  0
ARC
  5
2A1
100
AcDbEntity
  8
0
  6
CONTINUOUS
 62
               7
100
AcDbCircle
 10
50.900000015231626
 20
1.9999999827474824
 30
0.0
 40
1.0
100
AcDbArc
 50
270.00000000000023
 51
0.0
  0
CIRCLE
  5
2A2
100
AcDbEntity
  8
0
  6
CONTINUOUS
 62
               7
100
AcDbCircle
 10
32.299999999998192
 20
55.799999879268881
 30
0.0
 40
4.0999999999999996
  0
CIRCLE
  5
2A3
100
AcDbEntity
  8
0
  6
CONTINUOUS
 62
               7
100
AcDbCircle
 10
47.699999999998283
 20
5.2000001207311755
 30
0.0
 40
4.0999999999999996
  0
LINE
  5
2A4
100
AcDbEntity
  8
0
  6
CONTINUOUS
 62
               7
100
AcDbLine
 10
28.099999984764906
 20
21.200000030033351
 30
0.0
 11
28.099999984764906
 21
40.399999969966615
 31
0.0
  0
LINE
  5
2A5
100
AcDbEntity
  8
0
  6
CONTINUOUS
 62
               7
100
AcDbLine
 10
28.099999984764906
 20
46.200000074810049
 30
0.0
 11
28.099999984764906
 21
59.000000017252574
 31
0.0
  0
LINE
  5
2A6
100
AcDbEntity
  8
0
  6
CONTINUOUS
 62
               7
100
AcDbLine
 10
28.099999984764906
 20
46.200000074810049
 30
0.0
 11
28.300000022848451
 21
46.000000036726505
 31
0.0
  0
LINE
  5
2A7
100
AcDbEntity
  8
0
  6
CONTINUOUS
 62
               7
100
AcDbLine
 10
28.300000022848451
 20
40.600000008050159
 30
0.0
 11
28.099999984764906
 21
40.399999969966615
 31
0.0
  0
LINE
  5
2A8
100
AcDbEntity
  8
0
  6
CONTINUOUS
 62
               7
100
AcDbLine
 10
28.300000022848451
 20
40.600000008050159
 30
0.0
 11
28.300000022848451
 21
46.000000036726505
 31
0.0
  0
LINE
  5
2A9
100
AcDbEntity
  8
0
  6
CONTINUOUS
 62
               7
100
AcDbLine
 10
51.900000015231626
 20
21.200000030033351
 30
0.0
 11
51.900000015231626
 21
40.399999969966615
 31
0.0
  0
LINE
  5
2AA
100
AcDbEntity
  8
0
  6
CONTINUOUS
 62
               7
100
AcDbLine
 10
51.900000015231626
 20
46.200000074810049
 30
0.0
 11
51.900000015231626
 21
59.000000017252574
 31
0.0
  0
LINE
  5
2AB
100
AcDbEntity
  8
0
  6
CONTINUOUS
 62
               7
100
AcDbLine
 10
51.699999977148082
 20
40.600000008050159
 30
0.0
 11
51.699999977148082
 21
46.000000036726505
 31
0.0
  0
LINE
  5
2AC
100
AcDbEntity
  8
0
  6
CONTINUOUS
 62
               7
100
AcDbLine
 10
51.699999977148082
 20
40.600000008050159
 30
0.0
 11
51.900000015231626
 21
40.399999969966615
 31
0.0
  0
LINE
  5
2AD
100
AcDbEntity
  8
0
  6
CONTINUOUS
 62
               7
100
AcDbLine
 10
51.900000015231626
 20
46.200000074810049
 30
0.0
 11
51.699999977148082
 21
46.000000036726505
 31
0.0
  0
LINE
  5
2AE
100
AcDbEntity
  8
0
  6
CONTINUOUS
 62
               7
100
AcDbLine
 10
28.099999984764906
 20
1.9999999906116557
 30
0.0
 11
28.099999984764906
 21
15.399999919086071
 31
0.0
  0
LINE
  5
2AF
100
AcDbEntity
  8
0
  6
CONTINUOUS
 62
               7
100
AcDbLine
 10
28.300000022848451
 20
20.999999991949807
 30
0.0
 11
28.099999984764906
 21
21.200000030033351
 31
0.0
  0
LINE
  5
2B0
100
AcDbEntity
  8
0
  6
CONTINUOUS
 62
               7
100
AcDbLine
 10
28.099999984764906
 20
15.399999925189974
 30
0.0
 11
28.300000022848451
 21
15.599999963273518
 31
0.0
  0
LINE
  5
2B1
100
AcDbEntity
  8
0
  6
CONTINUOUS
 62
               7
100
AcDbLine
 10
28.300000022848451
 20
20.999999991949807
 30
0.0
 11
28.300000022848451
 21
15.599999963273518
 31
0.0
  0
LINE
  5
2B2
100
AcDbEntity
  8
0
  6
CONTINUOUS
 62
               7
100
AcDbLine
 10
51.900000015231626
 20
1.9999999906116557
 30
0.0
 11
51.900000015231626
 21
15.399999919086071
 31
0.0
  0
LINE
  5
2B3
100
AcDbEntity
  8
0
  6
CONTINUOUS
 62
               7
100
AcDbLine
 10
51.699999977148082
 20
20.999999991949807
 30
0.0
 11
51.699999977148082
 21
15.599999963273518
 31
0.0
  0
LINE
  5
2B4
100
AcDbEntity
  8
0
  6
CONTINUOUS
 62
               7
100
AcDbLine
 10
51.900000015231626
 20
15.399999925189974
 30
0.0
 11
51.699999977148082
 21
15.599999963273518
 31
0.0
  0
LINE
  5
2B5
100
AcDbEntity
  8
0
  6
CONTINUOUS
 62
               7
100
AcDbLine
 10
51.699999977148082
 20
20.999999991949807
 30
0.0
 11
51.900000015231626
 21
21.200000030033351
 31
0.0
  0
LINE
  5
2B6
100
AcDbEntity
  8
0
  6
CONTINUOUS
 62
               7
100
AcDbLine
 10
46.002943985191223
 20
3.502944248975183
 30
0.0
 11
49.397056897771108
 21
6.8970568754527619
 31
0.0
  0
LINE
  5
2B7
100
AcDbEntity
  8
0
  6
CONTINUOUS
 62
               7
100
AcDbLine
 10
46.002944232550476
 20
6.8970562398461936
 30
0.0
 11
49.397056859028055
 21
3.5029433272663084
 31
0.0
  0
CIRCLE
  5
2B8
100
AcDbEntity
  8
0
  6
CONTINUOUS
 62
               7
100
AcDbCircle
 10
47.700000208614483
 20
5.2000001207310618
 30
0.0
 40
4.0
  0
LINE
  5
2B9
100
AcDbEntity
  8
0
  6
CONTINUOUS
 62
               7
100
AcDbLine
 10
30.602943985191075
 20
54.102944007512889
 30
0.0
 11
33.99705689777096
 21
57.497056633990468
 31
0.0
  0
LINE
  5
2BA
100
AcDbEntity
  8
0
  6
CONTINUOUS
 62
               7
100
AcDbLine
 10
30.602944232550328
 20
57.4970559983839
 30
0.0
 11
33.997056859027907
 21
54.102943085804014
 31
0.0
  0
CIRCLE
  5
2BB
100
AcDbEntity
  8
0
  6
CONTINUOUS
 62
               7
100
AcDbCircle
 10
32.300000208614335
 20
55.799999879268768
 30
0.0
 40
4.0
  0
ARC
  5
2BC
100
AcDbEntity
  8
0
  6
CONTINUOUS
 62
               7
100
AcDbCircle
 10
35.600000007614938
 20
1.9999999827474824
 30
0.0
 40
2.0
100
AcDbArc
 50
0.0
 51
179.99999999999963
  0
LINE
  5
2BD
100
AcDbEntity
  8
0
  6
CONTINUOUS
 62
               7
100
AcDbLine
 10
37.600000007614938
 20
1.9999999827474824
 30
0.0
 11
37.600000007614938
 21
0.9999999827474824
 31
0.0
  0
LINE
  5
2BE
100
AcDbEntity
  8
0
  6
CONTINUOUS
 62
               7
100
AcDbLine
 10
33.600000007614938
 20
1.9999999827474824
 30
0.0
 11
33.600000007614938
 21
0.9999999827474824
 31
0.0
  0
ARC
  5
2BF
100
AcDbEntity
  8
0
  6
CONTINUOUS
 62
               7
100
AcDbCircle
 10
44.400000007614892
 20
59.000000017252574
 30
0.0
 40
2.0
100
AcDbArc
 50
179.99999999999963
 51
0.0
  0
LINE
  5
2C0
100
AcDbEntity
  8
0
  6
CONTINUOUS
 62
               7
100
AcDbLine
 10
42.400000007614892
 20
59.000000017252574
 30
0.0
 11
42.400000007614892
 21
60.000000017252574
 31
0.0
  0
LINE
  5
2C1
100
AcDbEntity
  8
0
  6
CONTINUOUS
 62
               7
100
AcDbLine
 10
46.400000007614892
 20
59.000000017252574
 30
0.0
 11
46.400000007614892
 21
60.000000017252574
 31
0.0
  0
CIRCLE
  5
2C2
100
AcDbEntity
  8
0
  6
CONTINUOUS
 62
               7
100
AcDbCircle
 10
63.999999999998238
 20
18.00000003448659
 30
0.0
 40
8.3000001907348633
  0
LINE
  5
2C3
100
AcDbEntity
  8
0
  6
CONTINUOUS
 62
               7
100
AcDbLine
 10
27.999999999998039
 20
0.0
 30
0.0
 11
75.999999999998124
 21
0.0
 31
0.0
  0
LINE
  5
2C4
100
AcDbEntity
  8
0
  6
CONTINUOUS
 62
               7
100
AcDbLine
 10
27.999999999998039
 20
60.000000017252574
 30
0.0
 11
75.999999999998039
 21
60.000000017252574
 31
0.0
  0
CIRCLE
  5
2C5
100
AcDbEntity
  8
0
  6
CONTINUOUS
 62
               2
100
AcDbCircle
 10
39.999999999998238
 20
43.00000003448659
 30
0.0
 40
8.3000001907348633
  0
CIRCLE
  5
2C6
100
AcDbEntity
  8
0
  6
CONTINUOUS
 62
               7
100
AcDbCircle
 10
39.999999999998238
 20
43.00000003448659
 30
0.0
 40
7.4749999999999996
  0
ENDBLK
  5
2C7
100
AcDbEntity
  8
0
100
AcDbBlockEnd
  0
BLOCK
  5
2C8
100
AcDbEntity
  8
0
100
AcDbBlockBegin
  2
PB-H-3
 70
               0
 10
0.0
 20
0.0
 30
0.0
  3
PB-H-3
  1

  0
CIRCLE
  5
2C9
100
AcDbEntity
  8
0
  6
CONTINUOUS
 62
               2
100
AcDbCircle
 10
64.000000000000625
 20
-48.499999926296979
 30
0.0
 40
8.3000001907348633
  0
CIRCLE
  5
2CA
100
AcDbEntity
  8
0
  6
CONTINUOUS
 62
               7
100
AcDbCircle
 10
64.000000000000625
 20
-48.499999926296979
 30
0.0
 40
7.4749999999999996
  0
CIRCLE
  5
2CB
100
AcDbEntity
  8
0
  6
CONTINUOUS
 62
               2
100
AcDbCircle
 10
64.000000000000625
 20
-23.499999926296979
 30
0.0
 40
8.3000001907348633
  0
CIRCLE
  5
2CC
100
AcDbEntity
  8
0
  6
CONTINUOUS
 62
               7
100
AcDbCircle
 10
64.000000000000625
 20
-23.499999926296979
 30
0.0
 40
7.4749999999999996
  0
CIRCLE
  5
2CD
100
AcDbEntity
  8
0
  6
CONTINUOUS
 62
               2
100
AcDbCircle
 10
40.000000000000625
 20
-48.499999926296979
 30
0.0
 40
8.3000001907348633
  0
CIRCLE
  5
2CE
100
AcDbEntity
  8
0
  6
CONTINUOUS
 62
               7
100
AcDbCircle
 10
40.000000000000625
 20
-48.499999926296979
 30
0.0
 40
7.4749999999999996
  0
LINE
  5
2CF
100
AcDbEntity
  8
0
  6
CENTER
 62
               2
100
AcDbLine
 10
104.00000000000122
 20
-6.2503225586813755
 30
0.0
 11
104.00000000000131
 21
5.334339644605322
 31
0.0
  0
LINE
  5
2D0
100
AcDbEntity
  8
0
  6
CENTER
 62
               2
100
AcDbLine
 10
110.7409670136835
 20
-38.999999978036513
 30
0.0
 11
99.097832592839552
 21
-38.999999978036143
 31
0.0
  0
LINE
  5
2D1
100
AcDbEntity
  8
0
  6
CENTER
 62
               2
100
AcDbLine
 10
90.000000000001307
 20
-65.130828232587618
 30
0.0
 11
90.000000000001677
 21
-12.699999956072801
 31
0.0
  0
LINE
  5
2D2
100
AcDbEntity
  8
0
  6
CONTINUOUS
 62
               7
100
AcDbLine
 10
76.000000000000625
 20
-79.999999956072557
 30
0.0
 11
76.000000000001222
 21
7.0000000219637997
 31
0.0
  0
ARC
  5
2D3
100
AcDbEntity
  8
0
  6
CONTINUOUS
 62
               7
100
AcDbCircle
 10
77.000000000001251
 20
7.0000000219637997
 30
0.0
 40
1.0
100
AcDbArc
 50
89.999999999999815
 51
179.99999999999963
  0
ARC
  5
2D4
100
AcDbEntity
  8
0
  6
CONTINUOUS
 62
               7
100
AcDbCircle
 10
109.50000000000085
 20
-42.749999978036456
 30
0.0
 40
0.5
100
AcDbArc
 50
0.0
 51
89.999999999999815
  0
ARC
  5
2D5
100
AcDbEntity
  8
0
  6
CONTINUOUS
 62
               7
100
AcDbCircle
 10
109.5000000000008
 20
-35.249999978036456
 30
0.0
 40
0.5
100
AcDbArc
 50
270.00000000000023
 51
0.0
  0
ARC
  5
2D6
100
AcDbEntity
  8
0
  6
CONTINUOUS
 62
               7
100
AcDbCircle
 10
109.50000000000122
 20
3.7500000219635723
 30
0.0
 40
0.5
100
AcDbArc
 50
269.99999999999937
 51
0.0
  0
ARC
  5
2D7
100
AcDbEntity
  8
0
  6
CONTINUOUS
 62
               7
100
AcDbCircle
 10
109.50000000000117
 20
-3.7499999780364277
 30
0.0
 40
0.5
100
AcDbArc
 50
0.0
 51
89.999999999999815
  0
LINE
  5
2D8
100
AcDbEntity
  8
0
  6
CONTINUOUS
 62
               7
100
AcDbLine
 10
79.800000000001205
 20
-6.9999999780360866
 30
0.0
 11
79.800000000001205
 21
-2.9999999780360866
 31
0.0
  0
LINE
  5
2D9
100
AcDbEntity
  8
0
  6
CENTER
 62
               2
100
AcDbLine
 10
104.00000000000085
 20
-44.173511956416363
 30
0.0
 11
104.00000000000097
 21
-33.199139762982483
 31
0.0
  0
ARC
  5
2DA
100
AcDbEntity
  8
0
  6
CONTINUOUS
 62
               7
100
AcDbCircle
 10
109.00000000000122
 20
7.0000000219637997
 30
0.0
 40
1.0
100
AcDbArc
 50
0.0
 51
89.999999999999815
  0
LINE
  5
2DB
100
AcDbEntity
  8
0
  6
CONTINUOUS
 62
               7
100
AcDbLine
 10
110.00000000000122
 20
7.0000000130388145
 30
0.0
 11
110.00000000000122
 21
3.7500000219635723
 31
0.0
  0
LINE
  5
2DC
100
AcDbEntity
  8
0
  6
CONTINUOUS
 62
               7
100
AcDbLine
 10
110.00000000000063
 20
-78.499999978036314
 30
0.0
 11
110.00000000000085
 21
-42.749999978036456
 31
0.0
  0
ARC
  5
2DD
100
AcDbEntity
  8
0
  6
CONTINUOUS
 62
               7
100
AcDbCircle
 10
104.00000000000097
 20
-38.999999978036342
 30
0.0
 40
3.25
100
AcDbArc
 50
89.999999999999389
 51
269.99999999999898
  0
LINE
  5
2DE
100
AcDbEntity
  8
0
  6
CONTINUOUS
 62
               7
100
AcDbLine
 10
104.00000000384335
 20
-42.249999978036342
 30
0.0
 11
109.50000000000085
 21
-42.249999978036456
 31
0.0
  0
LINE
  5
2DF
100
AcDbEntity
  8
0
  6
CONTINUOUS
 62
               7
100
AcDbLine
 10
104.00000000384335
 20
-35.749999978036342
 30
0.0
 11
109.5000000000008
 21
-35.749999978036456
 31
0.0
  0
ARC
  5
2E0
100
AcDbEntity
  8
0
  6
CONTINUOUS
 62
               7
100
AcDbCircle
 10
104.00000000000119
 20
0.000000021963686
 30
0.0
 40
3.25
100
AcDbArc
 50
89.999999999999389
 51
269.99999999999898
  0
LINE
  5
2E1
100
AcDbEntity
  8
0
  6
CONTINUOUS
 62
               7
100
AcDbLine
 10
104.00000000000119
 20
-3.249999978036314
 30
0.0
 11
109.50000000000117
 21
-3.2499999780364277
 31
0.0
  0
LINE
  5
2E2
100
AcDbEntity
  8
0
  6
CONTINUOUS
 62
               7
100
AcDbLine
 10
104.0000000038437
 20
3.250000021963686
 30
0.0
 11
109.50000000000122
 21
3.2500000219635723
 31
0.0
  0
LINE
  5
2E3
100
AcDbEntity
  8
0
  6
CENTER
 62
               2
100
AcDbLine
 10
110.7409670136843
 20
0.0000000219635723
 30
0.0
 11
99.097832592840348
 21
0.000000021963686
 31
0.0
  0
LINE
  5
2E4
100
AcDbEntity
  8
0
  6
CONTINUOUS
 62
               7
100
AcDbLine
 10
110.00000000000085
 20
-35.249999978036456
 30
0.0
 11
110.00000000000111
 21
-3.7499999780364277
 31
0.0
  0
CIRCLE
  5
2E5
100
AcDbEntity
  8
0
  6
CONTINUOUS
 62
               7
100
AcDbCircle
 10
90.000000000001648
 20
-24.999999956072699
 30
0.0
 40
9.3155000000000001
  0
CIRCLE
  5
2E6
100
AcDbEntity
  8
0
  6
CONTINUOUS
 62
               2
100
AcDbCircle
 10
90.000000000001648
 20
-24.999999956072699
 30
0.0
 40
10.477499999999999
  0
CIRCLE
  5
2E7
100
AcDbEntity
  8
0
  6
CONTINUOUS
 62
               7
100
AcDbCircle
 10
90.000000000001307
 20
-52.999999956072671
 30
0.0
 40
9.3155000000000001
  0
CIRCLE
  5
2E8
100
AcDbEntity
  8
0
  6
CONTINUOUS
 62
               2
100
AcDbCircle
 10
90.000000000001307
 20
-52.999999956072671
 30
0.0
 40
10.477499999999999
  0
LINE
  5
2E9
100
AcDbEntity
  8
0
  6
CONTINUOUS
 62
               7
100
AcDbLine
 10
81.500000003843297
 20
-9.9999999560725854
 30
0.0
 11
81.500000003843354
 21
-4.4999999780362003
 31
0.0
  0
LINE
  5
2EA
100
AcDbEntity
  8
0
  6
CONTINUOUS
 62
               7
100
AcDbLine
 10
96.000000000000966
 20
-39.733500794650823
 30
0.0
 11
96.000000000000966
 21
-38.266499117494519
 31
0.0
  0
LINE
  5
2EB
100
AcDbEntity
  8
0
  6
CONTINUOUS
 62
               7
100
AcDbLine
 10
104.00000000000108
 20
-78.499999978036257
 30
0.0
 11
104.00000000000131
 21
-52.999999956072728
 31
0.0
  0
ARC
  5
2EC
100
AcDbEntity
  8
0
  6
CONTINUOUS
 62
               7
100
AcDbCircle
 10
90.000000000001307
 20
-52.999999956072671
 30
0.0
 40
14.0
100
AcDbArc
 50
359.99999999999966
 51
62.181860715347533
  0
ARC
  5
2ED
100
AcDbEntity
  8
0
  6
CONTINUOUS
 62
               7
100
AcDbCircle
 10
97.000000000000966
 20
-39.73350079465088
 30
0.0
 40
1.0
100
AcDbArc
 50
179.9999999999992
 51
242.18186071534677
  0
ARC
  5
2EE
100
AcDbEntity
  8
0
  6
CONTINUOUS
 62
               7
100
AcDbCircle
 10
97.000000000000966
 20
-38.266499117494575
 30
0.0
 40
1.0
100
AcDbArc
 50
117.81813928465094
 51
179.9999999999992
  0
ARC
  5
2EF
100
AcDbEntity
  8
0
  6
CONTINUOUS
 62
               7
100
AcDbCircle
 10
82.500000003843297
 20
-9.9999999560725854
 30
0.0
 40
1.0
100
AcDbArc
 50
179.9999999999992
 51
269.99999999999898
  0
LINE
  5
2F0
100
AcDbEntity
  8
0
  6
CONTINUOUS
 62
               7
100
AcDbLine
 10
82.500000013315059
 20
-10.999999956072585
 30
0.0
 11
90.000000013315059
 21
-10.999999956072699
 31
0.0
  0
LINE
  5
2F1
100
AcDbEntity
  8
0
  6
CENTER
 62
               2
100
AcDbLine
 10
78.000000000001421
 20
-24.999999956072557
 30
0.0
 11
102.00000000000142
 21
-24.999999956072728
 31
0.0
  0
ARC
  5
2F2
100
AcDbEntity
  8
0
  6
CONTINUOUS
 62
               7
100
AcDbCircle
 10
108.50000000000063
 20
-78.499999978036314
 30
0.0
 40
1.5
100
AcDbArc
 50
269.99999999999898
 51
359.99999999999881
  0
ARC
  5
2F3
100
AcDbEntity
  8
0
  6
CONTINUOUS
 62
               7
100
AcDbCircle
 10
102.50000000000108
 20
-78.499999978036257
 30
0.0
 40
1.5
100
AcDbArc
 50
269.99999999999898
 51
359.99999999999881
  0
ARC
  5
2F4
100
AcDbEntity
  8
0
  6
CONTINUOUS
 62
               7
100
AcDbCircle
 10
80.000000003843354
 20
-4.4999999780360866
 30
0.0
 40
1.5
100
AcDbArc
 50
359.99999999999881
 51
89.999999999999389
  0
ARC
  5
2F5
100
AcDbEntity
  8
0
  6
CONTINUOUS
 62
               7
100
AcDbCircle
 10
90.000000000001535
 20
-24.999999956072699
 30
0.0
 40
14.0
100
AcDbArc
 50
297.81813928465175
 51
89.999999999999389
  0
LINE
  5
2F6
100
AcDbEntity
  8
0
  6
CENTER
 62
               2
100
AcDbLine
 10
102.00000000000125
 20
-52.99999995607272
 30
0.0
 11
78.000000000001251
 21
-52.999999956072564
 31
0.0
  0
LINE
  5
2F7
100
AcDbEntity
  8
0
  6
CONTINUOUS
 62
               7
100
AcDbLine
 10
76.000000000001194
 20
-2.9999999780360866
 30
0.0
 11
80.000000003843354
 21
-2.9999999780360866
 31
0.0
  0
LINE
  5
2F8
100
AcDbEntity
  8
0
  6
CONTINUOUS
 62
               7
100
AcDbLine
 10
76.000000000000625
 20
-79.9999999780362
 30
0.0
 11
108.50000000000063
 21
-79.999999978036314
 31
0.0
  0
LINE
  5
2F9
100
AcDbEntity
  8
0
  6
CONTINUOUS
 62
               7
100
AcDbLine
 10
77.000000013314605
 20
8.0000000219637997
 30
0.0
 11
109.00000000000122
 21
8.0000000219637997
 31
0.0
  0
LINE
  5
2FA
100
AcDbEntity
  8
0
  6
CONTINUOUS
 62
               7
100
AcDbLine
 10
76.000000000001194
 20
-6.9999999780360866
 30
0.0
 11
81.500000003843354
 21
-6.9999999780360866
 31
0.0
  0
LINE
  5
2FB
100
AcDbEntity
  8
0
  6
CENTER
 62
               2
100
AcDbLine
 10
0.0000000000000568
 20
-6.2503225806450189
 30
0.0
 11
-0.0000000000000568
 21
5.3343396226416786
 31
0.0
  0
LINE
  5
2FC
100
AcDbEntity
  8
0
  6
CENTER
 62
               2
100
AcDbLine
 10
-6.7409670136822513
 20
-39.000000000000156
 30
0.0
 11
4.9021674071616985
 21
-38.999999999999787
 31
0.0
  0
LINE
  5
2FD
100
AcDbEntity
  8
0
  6
CONTINUOUS
 62
               7
100
AcDbLine
 10
28.000000000000625
 20
-79.9999999780362
 30
0.0
 11
28.000000000000028
 21
7.0000000000001563
 31
0.0
  0
ARC
  5
2FE
100
AcDbEntity
  8
0
  6
CONTINUOUS
 62
               7
100
AcDbCircle
 10
27.0
 20
7.0000000000001563
 30
0.0
 40
1.0
100
AcDbArc
 50
0.0
 51
89.999999999999815
  0
ARC
  5
2FF
100
AcDbEntity
  8
0
  6
CONTINUOUS
 62
               7
100
AcDbCircle
 10
-5.4999999999996021
 20
-42.750000000000099
 30
0.0
 40
0.5
100
AcDbArc
 50
89.999999999999815
 51
179.99999999999963
  0
ARC
  5
300
100
AcDbEntity
  8
0
  6
CONTINUOUS
 62
               7
100
AcDbCircle
 10
-5.4999999999995453
 20
-35.250000000000099
 30
0.0
 40
0.5
100
AcDbArc
 50
179.99999999999963
 51
269.99999999999937
  0
ARC
  5
301
100
AcDbEntity
  8
0
  6
CONTINUOUS
 62
               7
100
AcDbCircle
 10
-5.4999999999999716
 20
3.7499999999999289
 30
0.0
 40
0.5
100
AcDbArc
 50
179.99999999999963
 51
269.99999999999937
  0
ARC
  5
302
100
AcDbEntity
  8
0
  6
CONTINUOUS
 62
               7
100
AcDbCircle
 10
-5.4999999999999147
 20
-3.7500000000000711
 30
0.0
 40
0.5
100
AcDbArc
 50
89.999999999999815
 51
179.99999999999963
  0
LINE
  5
303
100
AcDbEntity
  8
0
  6
CONTINUOUS
 62
               7
100
AcDbLine
 10
24.200000000000045
 20
-6.99999999999973
 30
0.0
 11
24.200000000000045
 21
-2.99999999999973
 31
0.0
  0
LINE
  5
304
100
AcDbEntity
  8
0
  6
CENTER
 62
               2
100
AcDbLine
 10
0.0000000000003979
 20
-44.173511978380006
 30
0.0
 11
0.0000000000003126
 21
-33.199139784946126
 31
0.0
  0
ARC
  5
305
100
AcDbEntity
  8
0
  6
CONTINUOUS
 62
               7
100
AcDbCircle
 10
-4.9999999999999716
 20
7.0000000000001563
 30
0.0
 40
1.0
100
AcDbArc
 50
89.999999999999815
 51
179.99999999999963
  0
LINE
  5
306
100
AcDbEntity
  8
0
  6
CONTINUOUS
 62
               7
100
AcDbLine
 10
-5.9999999999999716
 20
6.9999999910751711
 30
0.0
 11
-5.9999999999999716
 21
3.7499999999999289
 31
0.0
  0
LINE
  5
307
100
AcDbEntity
  8
0
  6
CONTINUOUS
 62
               7
100
AcDbLine
 10
-5.9999999999993747
 20
-78.499999999999957
 30
0.0
 11
-5.9999999999996021
 21
-42.750000000000099
 31
0.0
  0
ARC
  5
308
100
AcDbEntity
  8
0
  6
CONTINUOUS
 62
               7
100
AcDbCircle
 10
0.0000000000002842
 20
-38.999999999999986
 30
0.0
 40
3.25
100
AcDbArc
 50
270.00000000000063
 51
90.000000000000199
  0
LINE
  5
309
100
AcDbEntity
  8
0
  6
CONTINUOUS
 62
               7
100
AcDbLine
 10
-0.0000000038421035
 20
-42.249999999999986
 30
0.0
 11
-5.4999999999996021
 21
-42.250000000000099
 31
0.0
  0
LINE
  5
30A
100
AcDbEntity
  8
0
  6
CONTINUOUS
 62
               7
100
AcDbLine
 10
-0.0000000038421035
 20
-35.749999999999986
 30
0.0
 11
-5.4999999999995453
 21
-35.750000000000099
 31
0.0
  0
ARC
  5
30B
100
AcDbEntity
  8
0
  6
CONTINUOUS
 62
               7
100
AcDbCircle
 10
0.0000000000000568
 20
0.0000000000000426
 30
0.0
 40
3.25
100
AcDbArc
 50
270.00000000000063
 51
90.000000000000199
  0
LINE
  5
30C
100
AcDbEntity
  8
0
  6
CONTINUOUS
 62
               7
100
AcDbLine
 10
0.0000000000000568
 20
-3.2499999999999574
 30
0.0
 11
-5.4999999999999147
 21
-3.2500000000000711
 31
0.0
  0
LINE
  5
30D
100
AcDbEntity
  8
0
  6
CONTINUOUS
 62
               7
100
AcDbLine
 10
-0.0000000038424446
 20
3.2500000000000426
 30
0.0
 11
-5.4999999999999716
 21
3.2499999999999289
 31
0.0
  0
LINE
  5
30E
100
AcDbEntity
  8
0
  6
CENTER
 62
               2
100
AcDbLine
 10
-6.7409670136830471
 20
-0.0000000000000711
 30
0.0
 11
4.9021674071609027
 21
0.0000000000000426
 31
0.0
  0
LINE
  5
30F
100
AcDbEntity
  8
0
  6
CONTINUOUS
 62
               7
100
AcDbLine
 10
-5.9999999999996021
 20
-35.250000000000099
 30
0.0
 11
-5.9999999999998579
 21
-3.7500000000000711
 31
0.0
  0
CIRCLE
  5
310
100
AcDbEntity
  8
0
  6
CONTINUOUS
 62
               7
100
AcDbCircle
 10
13.999999999999602
 20
-24.999999978036342
 30
0.0
 40
9.3155000000000001
  0
CIRCLE
  5
311
100
AcDbEntity
  8
0
  6
CONTINUOUS
 62
               2
100
AcDbCircle
 10
13.999999999999602
 20
-24.999999978036342
 30
0.0
 40
10.477499999999999
  0
CIRCLE
  5
312
100
AcDbEntity
  8
0
  6
CONTINUOUS
 62
               7
100
AcDbCircle
 10
13.999999999999943
 20
-52.999999978036314
 30
0.0
 40
9.3155000000000001
  0
CIRCLE
  5
313
100
AcDbEntity
  8
0
  6
CONTINUOUS
 62
               2
100
AcDbCircle
 10
13.999999999999943
 20
-52.999999978036314
 30
0.0
 40
10.477499999999999
  0
LINE
  5
314
100
AcDbEntity
  8
0
  6
CONTINUOUS
 62
               7
100
AcDbLine
 10
22.499999996157953
 20
-9.9999999780362288
 30
0.0
 11
22.499999996157896
 21
-4.4999999999998437
 31
0.0
  0
LINE
  5
315
100
AcDbEntity
  8
0
  6
CONTINUOUS
 62
               7
100
AcDbLine
 10
8.0000000000002842
 20
-39.733500816614466
 30
0.0
 11
8.0000000000002842
 21
-38.266499139458162
 31
0.0
  0
LINE
  5
316
100
AcDbEntity
  8
0
  6
CONTINUOUS
 62
               7
100
AcDbLine
 10
0.0000000000001705
 20
-78.499999999999901
 30
0.0
 11
-0.0000000000000568
 21
-52.999999978036371
 31
0.0
  0
ARC
  5
317
100
AcDbEntity
  8
0
  6
CONTINUOUS
 62
               7
100
AcDbCircle
 10
13.999999999999943
 20
-52.999999978036314
 30
0.0
 40
14.0
100
AcDbArc
 50
117.81813928465206
 51
179.99999999999994
  0
ARC
  5
318
100
AcDbEntity
  8
0
  6
CONTINUOUS
 62
               7
100
AcDbCircle
 10
7.0000000000002842
 20
-39.733500816614523
 30
0.0
 40
1.0
100
AcDbArc
 50
297.81813928465203
 51
0.0000000000004071
  0
ARC
  5
319
100
AcDbEntity
  8
0
  6
CONTINUOUS
 62
               7
100
AcDbCircle
 10
7.0000000000002842
 20
-38.266499139458219
 30
0.0
 40
1.0
100
AcDbArc
 50
0.0000000000004071
 51
62.18186071534867
  0
ARC
  5
31A
100
AcDbEntity
  8
0
  6
CONTINUOUS
 62
               7
100
AcDbCircle
 10
21.499999996157953
 20
-9.9999999780362288
 30
0.0
 40
1.0
100
AcDbArc
 50
269.99999999999983
 51
0.0000000000004071
  0
LINE
  5
31B
100
AcDbEntity
  8
0
  6
CONTINUOUS
 62
               7
100
AcDbLine
 10
21.499999986686191
 20
-10.999999978036229
 30
0.0
 11
13.999999986686191
 21
-10.999999978036342
 31
0.0
  0
LINE
  5
31C
100
AcDbEntity
  8
0
  6
CENTER
 62
               2
100
AcDbLine
 10
25.999999999999829
 20
-24.9999999780362
 30
0.0
 11
1.9999999999998295
 21
-24.999999978036371
 31
0.0
  0
ARC
  5
31D
100
AcDbEntity
  8
0
  6
CONTINUOUS
 62
               7
100
AcDbCircle
 10
-4.4999999999993747
 20
-78.499999999999957
 30
0.0
 40
1.5
100
AcDbArc
 50
180.0
 51
269.99999999999983
  0
ARC
  5
31E
100
AcDbEntity
  8
0
  6
CONTINUOUS
 62
               7
100
AcDbCircle
 10
1.5000000000001705
 20
-78.499999999999901
 30
0.0
 40
1.5
100
AcDbArc
 50
180.0
 51
269.99999999999983
  0
ARC
  5
31F
100
AcDbEntity
  8
0
  6
CONTINUOUS
 62
               7
100
AcDbCircle
 10
23.999999996157896
 20
-4.49999999999973
 30
0.0
 40
1.5
100
AcDbArc
 50
90.000000000000199
 51
180.0
  0
ARC
  5
320
100
AcDbEntity
  8
0
  6
CONTINUOUS
 62
               7
100
AcDbCircle
 10
13.999999999999716
 20
-24.999999978036342
 30
0.0
 40
14.0
100
AcDbArc
 50
90.000000000000199
 51
242.18186071534785
  0
LINE
  5
321
100
AcDbEntity
  8
0
  6
CENTER
 62
               2
100
AcDbLine
 10
2.0
 20
-52.999999978036357
 30
0.0
 11
26.0
 21
-52.999999978036207
 31
0.0
  0
LINE
  5
322
100
AcDbEntity
  8
0
  6
CONTINUOUS
 62
               7
100
AcDbLine
 10
28.000000000000057
 20
-2.99999999999973
 30
0.0
 11
23.999999996157896
 21
-2.99999999999973
 31
0.0
  0
LINE
  5
323
100
AcDbEntity
  8
0
  6
CONTINUOUS
 62
               7
100
AcDbLine
 10
28.000000000000625
 20
-79.999999999999844
 30
0.0
 11
-4.4999999999993747
 21
-79.999999999999957
 31
0.0
  0
LINE
  5
324
100
AcDbEntity
  8
0
  6
CONTINUOUS
 62
               7
100
AcDbLine
 10
26.999999986686646
 20
8.0000000000001563
 30
0.0
 11
-4.9999999999999574
 21
8.0000000000001563
 31
0.0
  0
LINE
  5
325
100
AcDbEntity
  8
0
  6
CONTINUOUS
 62
               7
100
AcDbLine
 10
28.000000000000057
 20
-6.99999999999973
 30
0.0
 11
22.499999996157896
 21
-6.99999999999973
 31
0.0
  0
LINE
  5
326
100
AcDbEntity
  8
0
  6
CONTINUOUS
 62
               2
100
AcDbLine
 10
103.53609250348705
 20
-52.999999978036371
 30
0.0
 11
77.152415037715912
 21
-52.9999999780362
 31
0.0
  0
LINE
  5
327
100
AcDbEntity
  8
0
  6
CONTINUOUS
 62
               2
100
AcDbLine
 10
110.74096701368433
 20
-0.0000000000000711
 30
0.0
 11
99.097832592840348
 21
0.0000000000000426
 31
0.0
  0
LINE
  5
328
100
AcDbEntity
  8
0
  6
CONTINUOUS
 62
               2
100
AcDbLine
 10
103.53609250348728
 20
-24.999999978036342
 30
0.0
 11
77.980913408696836
 21
-24.999999978036229
 31
0.0
  0
LINE
  5
329
100
AcDbEntity
  8
0
  6
CENTER
 62
               2
100
AcDbLine
 10
19.73556834102618
 20
-2.4999999780361151
 30
0.0
 11
8.0217931080006224
 21
-2.4999999780362003
 31
0.0
  0
LINE
  5
32A
100
AcDbEntity
  8
0
  6
CENTER
 62
               2
100
AcDbLine
 10
14.000000000000455
 20
-67.108297250519357
 30
0.0
 11
13.999999999999943
 21
4.2909194808733702
 31
0.0
  0
LINE
  5
32B
100
AcDbEntity
  8
0
  6
CONTINUOUS
 62
               7
100
AcDbLine
 10
75.999999991909817
 20
-2.9999999780361719
 30
0.0
 11
51.99999999190976
 21
-2.9999999780361719
 31
0.0
  0
LINE
  5
32C
100
AcDbEntity
  8
0
  6
CONTINUOUS
 62
               7
100
AcDbLine
 10
73.299999999999784
 20
27.800000021963896
 30
0.0
 11
54.699999999999761
 21
27.800000021963896
 31
0.0
  0
LINE
  5
32D
100
AcDbEntity
  8
0
  6
CONTINUOUS
 62
               7
100
AcDbLine
 10
71.89999999999975
 20
29.900000021963464
 30
0.0
 11
73.299999999999784
 21
29.900000021963464
 31
0.0
  0
LINE
  5
32E
100
AcDbEntity
  8
0
  6
CONTINUOUS
 62
               7
100
AcDbLine
 10
71.89999999999975
 20
27.800000021963896
 30
0.0
 11
71.89999999999975
 21
29.900000021963464
 31
0.0
  0
ARC
  5
32F
100
AcDbEntity
  8
0
  6
CONTINUOUS
 62
               7
100
AcDbCircle
 10
72.799999999999784
 20
20.500000021963487
 30
0.0
 40
0.5000000000000002
100
AcDbArc
 50
269.9999999999979
 51
359.99999999999767
  0
LINE
  5
330
100
AcDbEntity
  8
0
  6
CONTINUOUS
 62
               7
100
AcDbLine
 10
72.799999999999784
 20
20.000000021963771
 30
0.0
 11
55.199999999999761
 21
20.000000021963771
 31
0.0
  0
ARC
  5
331
100
AcDbEntity
  8
0
  6
CONTINUOUS
 62
               7
100
AcDbCircle
 10
55.199999999999761
 20
20.500000021963714
 30
0.0
 40
0.5000000000000002
100
AcDbArc
 50
179.99999999999963
 51
269.99999999999937
  0
LINE
  5
332
100
AcDbEntity
  8
0
  6
CONTINUOUS
 62
               7
100
AcDbLine
 10
56.099999999999909
 20
29.900000021963862
 30
0.0
 11
54.699999999999875
 21
29.900000021963862
 31
0.0
  0
LINE
  5
333
100
AcDbEntity
  8
0
  6
CONTINUOUS
 62
               7
100
AcDbLine
 10
56.099999999999739
 20
27.800000021963896
 30
0.0
 11
56.099999999999909
 21
29.900000021963862
 31
0.0
  0
LINE
  5
334
100
AcDbEntity
  8
0
  6
CONTINUOUS
 62
               7
100
AcDbLine
 10
67.517157286864631
 20
21.500000021963729
 30
0.0
 11
60.482842713135483
 21
21.500000021963729
 31
0.0
  0
LINE
  5
335
100
AcDbEntity
  8
0
  6
CONTINUOUS
 62
               7
100
AcDbLine
 10
63.858578643762826
 20
25.358578665065522
 30
0.0
 11
60.341421356898195
 21
21.841421378201062
 31
0.0
  0
LINE
  5
336
100
AcDbEntity
  8
0
  6
CONTINUOUS
 62
               7
100
AcDbLine
 10
64.141421356237515
 20
25.358578665065522
 30
0.0
 11
67.658578643101919
 21
21.841421378201062
 31
0.0
  0
ARC
  5
337
100
AcDbEntity
  8
0
  6
CONTINUOUS
 62
               7
100
AcDbCircle
 10
64.000000000000227
 20
25.217157308828234
 30
0.0
 40
0.2
100
AcDbArc
 50
44.99999999999919
 51
134.99999999999898
  0
ARC
  5
338
100
AcDbEntity
  8
0
  6
CONTINUOUS
 62
               7
100
AcDbCircle
 10
60.482842713135483
 20
21.700000021963774
 30
0.0
 40
0.2
100
AcDbArc
 50
134.99999999999793
 51
269.99999999999937
  0
ARC
  5
339
100
AcDbEntity
  8
0
  6
CONTINUOUS
 62
               7
100
AcDbCircle
 10
67.517157286864631
 20
21.700000021963774
 30
0.0
 40
0.2
100
AcDbArc
 50
269.99999999999937
 51
45.000000000000966
  0
LINE
  5
33A
100
AcDbEntity
  8
0
  6
CONTINUOUS
 62
               7
100
AcDbLine
 10
72.000000000000057
 20
45.500000021963714
 30
0.0
 11
71.999999999999943
 21
38.500000021963714
 31
0.0
  0
LINE
  5
33B
100
AcDbEntity
  8
0
  6
CONTINUOUS
 62
               7
100
AcDbLine
 10
66.000000000000171
 20
45.500000021963885
 30
0.0
 11
66.0
 21
38.500000021963828
 31
0.0
  0
LINE
  5
33C
100
AcDbEntity
  8
0
  6
CONTINUOUS
 62
               7
100
AcDbLine
 10
70.599999999999795
 20
27.900000021965113
 30
0.0
 11
57.399999999999864
 21
27.900000021965113
 31
0.0
  0
LINE
  5
33D
100
AcDbEntity
  8
0
  6
CONTINUOUS
 62
               7
100
AcDbLine
 10
72.799999999999784
 20
19.900000021964999
 30
0.0
 11
67.999999999999716
 21
19.900000021964999
 31
0.0
  0
ARC
  5
33E
100
AcDbEntity
  8
0
  6
CONTINUOUS
 62
               7
100
AcDbCircle
 10
72.799999999999784
 20
20.400000021965113
 30
0.0
 40
0.5000000000000002
100
AcDbArc
 50
269.99999999999937
 51
0.0
  0
LINE
  5
33F
100
AcDbEntity
  8
0
  6
CONTINUOUS
 62
               7
100
AcDbLine
 10
54.699999999999648
 20
20.400000021965283
 30
0.0
 11
54.699999999999875
 21
30.700207558044085
 31
0.0
  0
ARC
  5
340
100
AcDbEntity
  8
0
  6
CONTINUOUS
 62
               7
100
AcDbCircle
 10
55.199999999999761
 20
20.400000021965113
 30
0.0
 40
0.5000000000000002
100
AcDbArc
 50
179.99999999999963
 51
269.99999999999937
  0
LINE
  5
341
100
AcDbEntity
  8
0
  6
CONTINUOUS
 62
               7
100
AcDbLine
 10
56.89999999999975
 20
28.400000021965056
 30
0.0
 11
56.89999999999992
 21
30.000000016212923
 31
0.0
  0
ARC
  5
342
100
AcDbEntity
  8
0
  6
CONTINUOUS
 62
               7
100
AcDbCircle
 10
57.399999999999864
 20
28.400000021965056
 30
0.0
 40
0.5000000000000002
100
AcDbArc
 50
179.99999999999963
 51
269.99999999999937
  0
ARC
  5
343
100
AcDbEntity
  8
0
  6
CONTINUOUS
 62
               7
100
AcDbCircle
 10
70.599999999999795
 20
28.400000021965056
 30
0.0
 40
0.5000000000000002
100
AcDbArc
 50
269.99999999999937
 51
0.0
  0
LINE
  5
344
100
AcDbEntity
  8
0
  6
CONTINUOUS
 62
               7
100
AcDbLine
 10
67.499999999999773
 20
18.700000021965124
 30
0.0
 11
60.499999999999716
 21
18.700000021965124
 31
0.0
  0
LINE
  5
345
100
AcDbEntity
  8
0
  6
CONTINUOUS
 62
               7
100
AcDbLine
 10
67.999999999999716
 20
19.200000021965067
 30
0.0
 11
67.999999999999716
 21
19.900000021964999
 31
0.0
  0
ARC
  5
346
100
AcDbEntity
  8
0
  6
CONTINUOUS
 62
               7
100
AcDbCircle
 10
67.499999999999773
 20
19.200000021965067
 30
0.0
 40
0.5000000000000002
100
AcDbArc
 50
269.99999999999937
 51
0.0
  0
LINE
  5
347
100
AcDbEntity
  8
0
  6
CONTINUOUS
 62
               7
100
AcDbLine
 10
59.999999999999773
 20
19.200000021965238
 30
0.0
 11
59.999999999999773
 21
19.90000002196517
 31
0.0
  0
ARC
  5
348
100
AcDbEntity
  8
0
  6
CONTINUOUS
 62
               7
100
AcDbCircle
 10
60.499999999999716
 20
19.200000021965238
 30
0.0
 40
0.5000000000000002
100
AcDbArc
 50
179.99999999999807
 51
269.9999999999979
  0
LINE
  5
349
100
AcDbEntity
  8
0
  6
CONTINUOUS
 62
               7
100
AcDbLine
 10
73.299999999999784
 20
20.400000021965113
 30
0.0
 11
73.299999999999784
 21
30.700207558043857
 31
0.0
  0
LINE
  5
34A
100
AcDbEntity
  8
0
  6
CONTINUOUS
 62
               7
100
AcDbLine
 10
56.89999999999992
 20
30.000000016212923
 30
0.0
 11
54.699999999999875
 21
30.000000016212923
 31
0.0
  0
LINE
  5
34B
100
AcDbEntity
  8
0
  6
CONTINUOUS
 62
               7
100
AcDbLine
 10
56.099999999999909
 20
30.700207558044085
 30
0.0
 11
54.700000012547946
 21
30.700207558044085
 31
0.0
  0
LINE
  5
34C
100
AcDbEntity
  8
0
  6
CONTINUOUS
 62
               7
100
AcDbLine
 10
71.099999999999739
 20
30.000000016212638
 30
0.0
 11
73.299999999999784
 21
30.000000016212638
 31
0.0
  0
LINE
  5
34D
100
AcDbEntity
  8
0
  6
CONTINUOUS
 62
               7
100
AcDbLine
 10
56.099999999999909
 20
30.300000016212934
 30
0.0
 11
56.099999999999909
 21
30.700207558044085
 31
0.0
  0
LINE
  5
34E
100
AcDbEntity
  8
0
  6
CONTINUOUS
 62
               7
100
AcDbLine
 10
71.099999999999739
 20
28.400000021964829
 30
0.0
 11
71.099999999999739
 21
30.000000016212638
 31
0.0
  0
ARC
  5
34F
100
AcDbEntity
  8
0
  6
CONTINUOUS
 62
               7
100
AcDbCircle
 10
56.39999999999992
 20
30.300000016212934
 30
0.0
 40
0.3
100
AcDbArc
 50
179.99999999999963
 51
269.99999999999937
  0
LINE
  5
350
100
AcDbEntity
  8
0
  6
CONTINUOUS
 62
               7
100
AcDbLine
 10
71.89999999999975
 20
30.700207558043971
 30
0.0
 11
73.299999987451713
 21
30.700207558043857
 31
0.0
  0
ARC
  5
351
100
AcDbEntity
  8
0
  6
CONTINUOUS
 62
               7
100
AcDbCircle
 10
71.599999999999739
 20
30.30000001621265
 30
0.0
 40
0.3
100
AcDbArc
 50
269.9999999999979
 51
359.99999999999767
  0
LINE
  5
352
100
AcDbEntity
  8
0
  6
CONTINUOUS
 62
               7
100
AcDbLine
 10
71.89999999999975
 20
30.30000001621265
 30
0.0
 11
71.89999999999975
 21
30.700207558043971
 31
0.0
  0
LINE
  5
353
100
AcDbEntity
  8
0
  6
CONTINUOUS
 62
               7
100
AcDbLine
 10
66.000000000000171
 20
45.500000021963885
 30
0.0
 11
72.000000000000057
 21
45.500000021963714
 31
0.0
  0
LINE
  5
354
100
AcDbEntity
  8
0
  6
CONTINUOUS
 62
               7
100
AcDbLine
 10
66.0
 20
38.500000021963828
 30
0.0
 11
71.999999999999943
 21
38.500000021963714
 31
0.0
  0
LINE
  5
355
100
AcDbEntity
  8
0
  6
CONTINUOUS
 62
               7
100
AcDbLine
 10
61.999999999999943
 20
45.500000021963885
 30
0.0
 11
56.0
 21
45.500000021963885
 31
0.0
  0
LINE
  5
356
100
AcDbEntity
  8
0
  6
CONTINUOUS
 62
               7
100
AcDbLine
 10
61.999999999999943
 20
38.500000021963828
 30
0.0
 11
55.999999999999829
 21
38.500000021963999
 31
0.0
  0
LINE
  5
357
100
AcDbEntity
  8
0
  6
CONTINUOUS
 62
               7
100
AcDbLine
 10
61.999999999999943
 20
45.500000021963885
 30
0.0
 11
61.999999999999943
 21
38.500000021963828
 31
0.0
  0
LINE
  5
358
100
AcDbEntity
  8
0
  6
CONTINUOUS
 62
               7
100
AcDbLine
 10
56.0
 20
45.500000021963885
 30
0.0
 11
55.999999999999829
 21
38.500000021963999
 31
0.0
  0
LINE
  5
359
100
AcDbEntity
  8
0
  6
CONTINUOUS
 62
               7
100
AcDbLine
 10
66.10000000000008
 20
45.400000021963805
 30
0.0
 11
71.900000000000034
 21
45.400000021963692
 31
0.0
  0
LINE
  5
35A
100
AcDbEntity
  8
0
  6
CONTINUOUS
 62
               7
100
AcDbLine
 10
71.900000000000034
 20
45.400000021963692
 30
0.0
 11
71.900000000000034
 21
38.600000021963737
 31
0.0
  0
LINE
  5
35B
100
AcDbEntity
  8
0
  6
CONTINUOUS
 62
               7
100
AcDbLine
 10
66.10000000000008
 20
45.400000021963805
 30
0.0
 11
66.10000000000008
 21
38.600000021963908
 31
0.0
  0
LINE
  5
35C
100
AcDbEntity
  8
0
  6
CONTINUOUS
 62
               7
100
AcDbLine
 10
66.10000000000008
 20
38.600000021963908
 30
0.0
 11
71.900000000000034
 21
38.600000021963737
 31
0.0
  0
LINE
  5
35D
100
AcDbEntity
  8
0
  6
CONTINUOUS
 62
               7
100
AcDbLine
 10
61.900000000000034
 20
45.400000021963805
 30
0.0
 11
56.099999999999909
 21
45.400000021963976
 31
0.0
  0
LINE
  5
35E
100
AcDbEntity
  8
0
  6
CONTINUOUS
 62
               7
100
AcDbLine
 10
56.099999999999909
 20
45.400000021963976
 30
0.0
 11
56.099999999999909
 21
38.600000021963908
 31
0.0
  0
LINE
  5
35F
100
AcDbEntity
  8
0
  6
CONTINUOUS
 62
               7
100
AcDbLine
 10
61.900000000000034
 20
45.400000021963805
 30
0.0
 11
61.89999999999992
 21
38.600000021963908
 31
0.0
  0
LINE
  5
360
100
AcDbEntity
  8
0
  6
CONTINUOUS
 62
               7
100
AcDbLine
 10
61.89999999999992
 20
38.600000021963908
 30
0.0
 11
56.099999999999909
 21
38.600000021963908
 31
0.0
  0
LINE
  5
361
100
AcDbEntity
  8
0
  6
CONTINUOUS
 62
               7
100
AcDbLine
 10
59.999999999999773
 20
19.900000021964999
 30
0.0
 11
55.199999999999761
 21
19.900000021964999
 31
0.0
  0
LINE
  5
362
100
AcDbEntity
  8
0
  6
PHANTOM
 62
               2
100
AcDbLine
 10
53.400000007144229
 20
6.4000000219636348
 30
0.0
 11
74.400000007144172
 21
6.4000000219633506
 31
0.0
  0
LINE
  5
363
100
AcDbEntity
  8
0
  6
PHANTOM
 62
               2
100
AcDbLine
 10
74.400000007144342
 20
18.400000021965056
 30
0.0
 11
53.400000007144399
 21
18.400000021965056
 31
0.0
  0
LINE
  5
364
100
AcDbEntity
  8
0
  6
PHANTOM
 62
               2
100
AcDbLine
 10
74.900000007144172
 20
6.9000000219633506
 30
0.0
 11
74.900000007144286
 21
17.900000021965113
 31
0.0
  0
LINE
  5
365
100
AcDbEntity
  8
0
  6
PHANTOM
 62
               2
100
AcDbLine
 10
52.900000007144115
 20
6.9000000219637485
 30
0.0
 11
52.900000007144399
 21
17.900000021965113
 31
0.0
  0
ARC
  5
366
100
AcDbEntity
  8
0
  6
PHANTOM
 62
               2
100
AcDbCircle
 10
74.400000007144342
 20
17.900000021965113
 30
0.0
 40
0.5000000000000002
100
AcDbArc
 50
0.0
 51
89.999999999999815
  0
ARC
  5
367
100
AcDbEntity
  8
0
  6
PHANTOM
 62
               2
100
AcDbCircle
 10
74.400000007144172
 20
6.9000000219633506
 30
0.0
 40
0.5000000000000002
100
AcDbArc
 50
269.99999999999937
 51
0.0
  0
ARC
  5
368
100
AcDbEntity
  8
0
  6
PHANTOM
 62
               2
100
AcDbCircle
 10
53.400000007144229
 20
6.9000000219637485
 30
0.0
 40
0.5000000000000002
100
AcDbArc
 50
179.99999999999963
 51
269.99999999999937
  0
ARC
  5
369
100
AcDbEntity
  8
0
  6
PHANTOM
 62
               2
100
AcDbCircle
 10
53.400000007144399
 20
17.900000021965113
 30
0.0
 40
0.5000000000000002
100
AcDbArc
 50
89.999999999999815
 51
179.99999999999963
  0
LINE
  5
36A
100
AcDbEntity
  8
0
  6
PHANTOM
 62
               2
100
AcDbLine
 10
57.400000007144172
 20
5.5000000219636007
 30
0.0
 11
70.400000007144286
 21
5.5000000219633165
 31
0.0
  0
LINE
  5
36B
100
AcDbEntity
  8
0
  6
PHANTOM
 62
               2
100
AcDbLine
 10
57.400000007144172
 20
-2.4999999780356603
 30
0.0
 11
70.400000007144172
 21
-2.4999999780356603
 31
0.0
  0
LINE
  5
36C
100
AcDbEntity
  8
0
  6
PHANTOM
 62
               2
100
AcDbLine
 10
56.900000007144058
 20
-1.9999999780357172
 30
0.0
 11
56.900000007144172
 21
5.0000000219636007
 31
0.0
  0
LINE
  5
36D
100
AcDbEntity
  8
0
  6
PHANTOM
 62
               2
100
AcDbLine
 10
70.900000007144115
 20
-1.9999999780357172
 30
0.0
 11
70.900000007144286
 21
5.0000000219633733
 31
0.0
  0
ARC
  5
36E
100
AcDbEntity
  8
0
  6
PHANTOM
 62
               2
100
AcDbCircle
 10
70.400000007144172
 20
5.0000000219633733
 30
0.0
 40
0.5000000000000002
100
AcDbArc
 50
0.0
 51
89.999999999999815
  0
ARC
  5
36F
100
AcDbEntity
  8
0
  6
PHANTOM
 62
               2
100
AcDbCircle
 10
57.400000007144172
 20
5.0000000219636007
 30
0.0
 40
0.5000000000000002
100
AcDbArc
 50
89.999999999999815
 51
179.99999999999963
  0
ARC
  5
370
100
AcDbEntity
  8
0
  6
PHANTOM
 62
               2
100
AcDbCircle
 10
57.400000007144172
 20
-1.9999999780357172
 30
0.0
 40
0.5000000000000002
100
AcDbArc
 50
179.99999999999963
 51
269.99999999999937
  0
ARC
  5
371
100
AcDbEntity
  8
0
  6
PHANTOM
 62
               2
100
AcDbCircle
 10
70.400000007144172
 20
-1.9999999780357172
 30
0.0
 40
0.5000000000000002
100
AcDbArc
 50
269.99999999999937
 51
0.0
  0
ARC
  5
372
100
AcDbEntity
  8
0
  6
CONTINUOUS
 62
               7
100
AcDbCircle
 10
74.90000002237656
 20
-7.4999999435309661
 30
0.0
 40
1.0
100
AcDbArc
 50
0.0
 51
89.999999999999815
  0
LINE
  5
373
100
AcDbEntity
  8
0
  6
CONTINUOUS
 62
               7
100
AcDbLine
 10
75.699999984293015
 20
-45.499999968833791
 30
0.0
 11
75.90000002237656
 21
-45.299999930750189
 31
0.0
  0
LINE
  5
374
100
AcDbEntity
  8
0
  6
CONTINUOUS
 62
               7
100
AcDbLine
 10
75.90000002237656
 20
-51.100000035593567
 30
0.0
 11
75.699999984293015
 21
-50.899999997510022
 31
0.0
  0
LINE
  5
375
100
AcDbEntity
  8
0
  6
CONTINUOUS
 62
               7
100
AcDbLine
 10
75.699999984293015
 20
-45.499999968833791
 30
0.0
 11
75.699999984293015
 21
-50.899999997510022
 31
0.0
  0
LINE
  5
376
100
AcDbEntity
  8
0
  6
CONTINUOUS
 62
               7
100
AcDbLine
 10
75.90000002237656
 20
-20.299999885973492
 30
0.0
 11
75.699999984293015
 21
-20.499999924057093
 31
0.0
  0
LINE
  5
377
100
AcDbEntity
  8
0
  6
CONTINUOUS
 62
               7
100
AcDbLine
 10
75.699999984293015
 20
-25.899999952733438
 30
0.0
 11
75.90000002237656
 21
-26.099999990816983
 31
0.0
  0
LINE
  5
378
100
AcDbEntity
  8
0
  6
CONTINUOUS
 62
               7
100
AcDbLine
 10
75.699999984293015
 20
-25.899999952733438
 30
0.0
 11
75.699999984293015
 21
-20.499999924057093
 31
0.0
  0
ARC
  5
379
100
AcDbEntity
  8
0
  6
CONTINUOUS
 62
               7
100
AcDbCircle
 10
53.09999999190984
 20
-7.4999999435309661
 30
0.0
 40
1.0
100
AcDbArc
 50
89.999999999999815
 51
179.99999999999963
  0
LINE
  5
37A
100
AcDbEntity
  8
0
  6
CONTINUOUS
 62
               7
100
AcDbLine
 10
52.300000029993384
 20
-45.499999968833791
 30
0.0
 11
52.300000029993384
 21
-50.899999997510022
 31
0.0
  0
LINE
  5
37B
100
AcDbEntity
  8
0
  6
CONTINUOUS
 62
               7
100
AcDbLine
 10
52.099999991909897
 20
-51.100000035593567
 30
0.0
 11
52.300000029993384
 21
-50.899999997510022
 31
0.0
  0
LINE
  5
37C
100
AcDbEntity
  8
0
  6
CONTINUOUS
 62
               7
100
AcDbLine
 10
52.300000029993384
 20
-45.499999968833791
 30
0.0
 11
52.099999991909897
 21
-45.299999930750189
 31
0.0
  0
LINE
  5
37D
100
AcDbEntity
  8
0
  6
CONTINUOUS
 62
               7
100
AcDbLine
 10
52.300000029993384
 20
-25.899999952733438
 30
0.0
 11
52.300000029993384
 21
-20.499999924057093
 31
0.0
  0
LINE
  5
37E
100
AcDbEntity
  8
0
  6
CONTINUOUS
 62
               7
100
AcDbLine
 10
52.300000029993384
 20
-25.899999952733438
 30
0.0
 11
52.099999991909897
 21
-26.099999990816983
 31
0.0
  0
LINE
  5
37F
100
AcDbEntity
  8
0
  6
CONTINUOUS
 62
               7
100
AcDbLine
 10
52.099999991909897
 20
-20.299999885973492
 30
0.0
 11
52.300000029993384
 21
-20.499999924057093
 31
0.0
  0
ARC
  5
380
100
AcDbEntity
  8
0
  6
CONTINUOUS
 62
               7
100
AcDbCircle
 10
71.149999991909908
 20
-6.9999999435309661
 30
0.0
 40
0.5
100
AcDbArc
 50
89.999999999999815
 51
179.99999999999963
  0
ARC
  5
381
100
AcDbEntity
  8
0
  6
CONTINUOUS
 62
               7
100
AcDbCircle
 10
65.649999991909908
 20
-6.9999999435309661
 30
0.0
 40
0.5
100
AcDbArc
 50
0.0
 51
89.999999999999815
  0
CIRCLE
  5
382
100
AcDbEntity
  8
0
  6
CONTINUOUS
 62
               7
100
AcDbCircle
 10
71.69999999952654
 20
-61.299999840052479
 30
0.0
 40
4.0999999999999996
  0
ARC
  5
383
100
AcDbEntity
  8
0
  6
CONTINUOUS
 62
               7
100
AcDbCircle
 10
68.399999991909908
 20
-7.4999999435309661
 30
0.0
 40
2.25
100
AcDbArc
 50
179.99999999999963
 51
0.0
  0
LINE
  5
384
100
AcDbEntity
  8
0
  6
CONTINUOUS
 62
               7
100
AcDbLine
 10
70.649999991909908
 20
-6.9999999435309661
 30
0.0
 11
70.649999991909908
 21
-7.4999999435309661
 31
0.0
  0
LINE
  5
385
100
AcDbEntity
  8
0
  6
CONTINUOUS
 62
               7
100
AcDbLine
 10
66.149999991909908
 20
-6.9999999435309661
 30
0.0
 11
66.149999991909908
 21
-7.4999999435309661
 31
0.0
  0
LINE
  5
386
100
AcDbEntity
  8
0
  6
CONTINUOUS
 62
               7
100
AcDbLine
 10
75.999999991909817
 20
-6.499999943531023
 30
0.0
 11
51.99999999190976
 21
-6.499999943531023
 31
0.0
  0
LINE
  5
387
100
AcDbEntity
  8
0
  6
CONTINUOUS
 62
               7
100
AcDbLine
 10
51.99999999190976
 20
-69.999999978036229
 30
0.0
 11
75.999999991909817
 21
-69.999999978036229
 31
0.0
  0
LINE
  5
388
100
AcDbEntity
  8
0
  6
CONTINUOUS
 62
               7
100
AcDbLine
 10
51.99999999190976
 20
-65.49999997803657
 30
0.0
 11
75.999999991909817
 21
-65.499999978036286
 31
0.0
  0
LINE
  5
389
100
AcDbEntity
  8
0
  6
CONTINUOUS
 62
               7
100
AcDbLine
 10
52.299999991909544
 20
52.000000021964055
 30
0.0
 11
75.699999991909863
 21
52.000000021963885
 31
0.0
  0
LINE
  5
38A
100
AcDbEntity
  8
0
  6
CONTINUOUS
 62
               7
100
AcDbLine
 10
70.00294377610328
 20
-62.997055711808358
 30
0.0
 11
73.397056688683165
 21
-59.602943085330779
 31
0.0
  0
LINE
  5
38B
100
AcDbEntity
  8
0
  6
CONTINUOUS
 62
               7
100
AcDbLine
 10
70.002944023462533
 20
-59.602943720937347
 30
0.0
 11
73.397056649940112
 21
-62.997056633517232
 31
0.0
  0
CIRCLE
  5
38C
100
AcDbEntity
  8
0
  6
CONTINUOUS
 62
               7
100
AcDbCircle
 10
71.69999999952654
 20
-61.299999840052479
 30
0.0
 40
4.0
  0
LINE
  5
38D
100
AcDbEntity
  8
0
  6
CONTINUOUS
 62
               7
100
AcDbLine
 10
75.90000002237656
 20
-64.499999978036286
 30
0.0
 11
75.90000002237656
 21
-51.100000035593567
 31
0.0
  0
LINE
  5
38E
100
AcDbEntity
  8
0
  6
CONTINUOUS
 62
               7
100
AcDbLine
 10
52.099999991909897
 20
-64.49999997803657
 30
0.0
 11
52.099999991909897
 21
-51.100000035593567
 31
0.0
  0
ARC
  5
38F
100
AcDbEntity
  8
0
  6
CONTINUOUS
 62
               7
100
AcDbCircle
 10
53.099999991909897
 20
-64.49999997803657
 30
0.0
 40
1.0
100
AcDbArc
 50
179.99999999999963
 51
269.99999999999937
  0
ARC
  5
390
100
AcDbEntity
  8
0
  6
CONTINUOUS
 62
               7
100
AcDbCircle
 10
74.90000002237656
 20
-64.499999978036286
 30
0.0
 40
1.0
100
AcDbArc
 50
269.99999999999937
 51
0.0
  0
LINE
  5
391
100
AcDbEntity
  8
0
  6
CONTINUOUS
 62
               7
100
AcDbLine
 10
67.499999991909874
 20
-65.499999978036399
 30
0.0
 11
67.499999991909874
 21
-69.999999998029367
 31
0.0
  0
LINE
  5
392
100
AcDbEntity
  8
0
  6
CONTINUOUS
 62
               7
100
AcDbLine
 10
60.499999991909931
 20
-65.499999978036456
 30
0.0
 11
60.499999991909931
 21
-69.999999998029367
 31
0.0
  0
LINE
  5
393
100
AcDbEntity
  8
0
  6
CONTINUOUS
 62
               7
100
AcDbLine
 10
67.499999991909874
 20
-6.499999943531023
 30
0.0
 11
67.499999991909874
 21
-2.9999999780361719
 31
0.0
  0
LINE
  5
394
100
AcDbEntity
  8
0
  6
CONTINUOUS
 62
               7
100
AcDbLine
 10
60.499999991909931
 20
-6.499999943531023
 30
0.0
 11
60.499999991909874
 21
-2.9999999780361719
 31
0.0
  0
CIRCLE
  5
395
100
AcDbEntity
  8
0
  6
CONTINUOUS
 62
               7
100
AcDbCircle
 10
56.299999999526506
 20
-10.700000081514659
 30
0.0
 40
4.0999999999999996
  0
LINE
  5
396
100
AcDbEntity
  8
0
  6
CONTINUOUS
 62
               7
100
AcDbLine
 10
54.602943776103245
 20
-12.397055953270538
 30
0.0
 11
57.997056688683131
 21
-9.0029433267929591
 31
0.0
  0
LINE
  5
397
100
AcDbEntity
  8
0
  6
CONTINUOUS
 62
               7
100
AcDbLine
 10
54.602944023462499
 20
-9.0029439623995273
 30
0.0
 11
57.997056649940077
 21
-12.397056874979413
 31
0.0
  0
CIRCLE
  5
398
100
AcDbEntity
  8
0
  6
CONTINUOUS
 62
               7
100
AcDbCircle
 10
56.299999999526506
 20
-10.700000081514659
 30
0.0
 40
4.0
  0
LINE
  5
399
100
AcDbEntity
  8
0
  6
CONTINUOUS
 62
               7
100
AcDbLine
 10
53.399999991909283
 20
-1.4999999782376818
 30
0.0
 11
53.399999991909738
 21
6.000000021963146
 31
0.0
  0
LINE
  5
39A
100
AcDbEntity
  8
0
  6
CONTINUOUS
 62
               7
100
AcDbLine
 10
74.599999991909897
 20
-1.4999999782376818
 30
0.0
 11
74.599999991909783
 21
6.0000000219628049
 31
0.0
  0
LINE
  5
39B
100
AcDbEntity
  8
0
  6
CONTINUOUS
 62
               7
100
AcDbLine
 10
52.099999969452767
 20
-1.4999999782376818
 30
0.0
 11
53.399999981373696
 21
-1.4999999782376818
 31
0.0
  0
LINE
  5
39C
100
AcDbEntity
  8
0
  6
CONTINUOUS
 62
               7
100
AcDbLine
 10
74.599999969452881
 20
-1.4999999782376818
 30
0.0
 11
75.899999991909738
 21
-1.4999999782376818
 31
0.0
  0
LINE
  5
39D
100
AcDbEntity
  8
0
  6
CONTINUOUS
 62
               7
100
AcDbLine
 10
74.600000003202979
 20
0.000000021963146
 30
0.0
 11
75.399999985321585
 21
0.000000021963146
 31
0.0
  0
ARC
  5
39E
100
AcDbEntity
  8
0
  6
CONTINUOUS
 62
               7
100
AcDbCircle
 10
75.399999991909851
 20
0.500000021963146
 30
0.0
 40
0.5
100
AcDbArc
 50
269.9999999999979
 51
359.99999999999767
  0
ARC
  5
39F
100
AcDbEntity
  8
0
  6
CONTINUOUS
 62
               7
100
AcDbCircle
 10
52.599999991909556
 20
0.5000000219634302
 30
0.0
 40
0.5
100
AcDbArc
 50
179.99999999999963
 51
269.99999999999937
  0
LINE
  5
3A0
100
AcDbEntity
  8
0
  6
CONTINUOUS
 62
               7
100
AcDbLine
 10
53.399999980616315
 20
0.0000000219634302
 30
0.0
 11
52.599999998497708
 21
0.0000000219634302
 31
0.0
  0
LINE
  5
3A1
100
AcDbEntity
  8
0
  6
CONTINUOUS
 62
               7
100
AcDbLine
 10
52.099999991909556
 20
6.000000021963146
 30
0.0
 11
75.899999991909851
 21
6.0000000219626912
 31
0.0
  0
LINE
  5
3A2
100
AcDbEntity
  8
0
  6
CONTINUOUS
 62
               7
100
AcDbLine
 10
52.099999991909556
 20
-2.9999999964121997
 30
0.0
 11
52.099999991909556
 21
51.800000021964067
 31
0.0
  0
LINE
  5
3A3
100
AcDbEntity
  8
0
  6
CONTINUOUS
 62
               7
100
AcDbLine
 10
75.899999991909851
 20
-2.9999999964121997
 30
0.0
 11
75.899999991909851
 21
51.800000021963896
 31
0.0
  0
ARC
  5
3A4
100
AcDbEntity
  8
0
  6
CONTINUOUS
 62
               7
100
AcDbCircle
 10
52.299999991909544
 20
51.800000021964067
 30
0.0
 40
0.2
100
AcDbArc
 50
89.999999999999815
 51
179.99999999999963
  0
ARC
  5
3A5
100
AcDbEntity
  8
0
  6
CONTINUOUS
 62
               7
100
AcDbCircle
 10
75.699999991909863
 20
51.800000021963896
 30
0.0
 40
0.2
100
AcDbArc
 50
0.0
 51
89.999999999999815
  0
ARC
  5
3A6
100
AcDbEntity
  8
0
  6
CONTINUOUS
 62
               7
100
AcDbCircle
 10
56.84999999190893
 20
-64.999999978036314
 30
0.0
 40
0.5
100
AcDbArc
 50
269.99999999999807
 51
359.9999999999979
  0
ARC
  5
3A7
100
AcDbEntity
  8
0
  6
CONTINUOUS
 62
               7
100
AcDbCircle
 10
62.34999999190893
 20
-64.999999978036442
 30
0.0
 40
0.5
100
AcDbArc
 50
179.99999999999827
 51
269.99999999999807
  0
LINE
  5
3A8
100
AcDbEntity
  8
0
  6
CONTINUOUS
 62
               7
100
AcDbLine
 10
61.84999999190893
 20
-64.999999978036428
 30
0.0
 11
61.84999999190893
 21
-64.499999978036428
 31
0.0
  0
LINE
  5
3A9
100
AcDbEntity
  8
0
  6
CONTINUOUS
 62
               7
100
AcDbLine
 10
57.34999999190893
 20
-64.999999978036328
 30
0.0
 11
57.34999999190893
 21
-64.499999978036328
 31
0.0
  0
LINE
  5
3AA
100
AcDbEntity
  8
0
  6
CONTINUOUS
 62
               7
100
AcDbLine
 10
52.099999991909897
 20
-45.299999930750189
 30
0.0
 11
52.099999991909897
 21
-26.099999990816983
 31
0.0
  0
LINE
  5
3AB
100
AcDbEntity
  8
0
  6
CONTINUOUS
 62
               7
100
AcDbLine
 10
75.90000002237656
 20
-45.299999930750189
 30
0.0
 11
75.90000002237656
 21
-26.099999990816983
 31
0.0
  0
LINE
  5
3AC
100
AcDbEntity
  8
0
  6
CONTINUOUS
 62
               7
100
AcDbLine
 10
52.099999991909897
 20
-20.299999885973492
 30
0.0
 11
52.099999991909897
 21
-7.4999999435309661
 31
0.0
  0
LINE
  5
3AD
100
AcDbEntity
  8
0
  6
CONTINUOUS
 62
               7
100
AcDbLine
 10
75.90000002237656
 20
-20.299999885973492
 30
0.0
 11
75.90000002237656
 21
-7.4999999435309661
 31
0.0
  0
CIRCLE
  5
3AE
100
AcDbEntity
  8
0
  6
CONTINUOUS
 62
               7
100
AcDbCircle
 10
14.0
 20
-2.4999999780361435
 30
0.0
 40
4.25
  0
CIRCLE
  5
3AF
100
AcDbEntity
  8
0
  6
CONTINUOUS
 62
               2
100
AcDbCircle
 10
14.0
 20
-2.4999999780361435
 30
0.0
 40
4.9000000000000004
  0
CIRCLE
  5
3B0
100
AcDbEntity
  8
0
  6
CONTINUOUS
 62
               7
100
AcDbCircle
 10
40.000000000000625
 20
-23.499999926296979
 30
0.0
 40
7.4749999999999996
  0
CIRCLE
  5
3B1
100
AcDbEntity
  8
0
  6
CONTINUOUS
 62
               2
100
AcDbCircle
 10
40.000000000000625
 20
-23.499999926296979
 30
0.0
 40
8.3000001907348633
  0
CIRCLE
  5
3B2
100
AcDbEntity
  8
0
  6
CONTINUOUS
 62
               7
100
AcDbCircle
 10
64.000000000000625
 20
-48.499999926296979
 30
0.0
 40
8.3000001907348633
  0
ARC
  5
3B3
100
AcDbEntity
  8
0
  6
CONTINUOUS
 62
               7
100
AcDbCircle
 10
51.500000000000682
 20
-79.499999978035234
 30
0.0
 40
0.5
100
AcDbArc
 50
270.00000000000023
 51
0.0
  0
ARC
  5
3B4
100
AcDbEntity
  8
0
  6
CONTINUOUS
 62
               7
100
AcDbCircle
 10
28.500000000000625
 20
-79.499999978035234
 30
0.0
 40
0.5
100
AcDbArc
 50
179.99999999999963
 51
269.99999999999937
  0
LINE
  5
3B5
100
AcDbEntity
  8
0
  6
CONTINUOUS
 62
               7
100
AcDbLine
 10
28.099999969533826
 20
-45.299999930750161
 30
0.0
 11
28.099999969533826
 21
-26.099999990816954
 31
0.0
  0
LINE
  5
3B6
100
AcDbEntity
  8
0
  6
CONTINUOUS
 62
               7
100
AcDbLine
 10
28.000000000000625
 20
-74.9999999780362
 30
0.0
 11
52.000000000000682
 21
-74.9999999780362
 31
0.0
  0
CIRCLE
  5
3B7
100
AcDbEntity
  8
0
  6
CONTINUOUS
 62
               7
100
AcDbCircle
 10
32.300000007617371
 20
-10.700000081514631
 30
0.0
 40
4.0
  0
LINE
  5
3B8
100
AcDbEntity
  8
0
  6
CONTINUOUS
 62
               7
100
AcDbLine
 10
30.60294378419411
 20
-12.39705595327051
 30
0.0
 11
33.997056696773996
 21
-9.0029433267929306
 31
0.0
  0
CIRCLE
  5
3B9
100
AcDbEntity
  8
0
  6
CONTINUOUS
 62
               7
100
AcDbCircle
 10
32.300000007617371
 20
-10.700000081514631
 30
0.0
 40
4.0999999999999996
  0
LINE
  5
3BA
100
AcDbEntity
  8
0
  6
CONTINUOUS
 62
               7
100
AcDbLine
 10
36.500000000000796
 20
-6.4999999435309945
 30
0.0
 11
36.500000000000739
 21
-2.9999999780361435
 31
0.0
  0
LINE
  5
3BB
100
AcDbEntity
  8
0
  6
CONTINUOUS
 62
               7
100
AcDbLine
 10
43.500000000000739
 20
-6.4999999435309945
 30
0.0
 11
43.500000000000739
 21
-2.9999999780361435
 31
0.0
  0
LINE
  5
3BC
100
AcDbEntity
  8
0
  6
CONTINUOUS
 62
               7
100
AcDbLine
 10
36.500000000000796
 20
-65.499999978036428
 30
0.0
 11
36.500000000000796
 21
-69.999999998029338
 31
0.0
  0
LINE
  5
3BD
100
AcDbEntity
  8
0
  6
CONTINUOUS
 62
               7
100
AcDbLine
 10
43.500000000000739
 20
-65.499999978036371
 30
0.0
 11
43.500000000000739
 21
-69.999999998029338
 31
0.0
  0
ARC
  5
3BE
100
AcDbEntity
  8
0
  6
CONTINUOUS
 62
               7
100
AcDbCircle
 10
50.900000030467424
 20
-64.499999978036257
 30
0.0
 40
1.0
100
AcDbArc
 50
269.99999999999937
 51
0.0
  0
ARC
  5
3BF
100
AcDbEntity
  8
0
  6
CONTINUOUS
 62
               7
100
AcDbCircle
 10
29.100000000000762
 20
-64.499999978036541
 30
0.0
 40
1.0
100
AcDbArc
 50
179.99999999999963
 51
269.99999999999937
  0
LINE
  5
3C0
100
AcDbEntity
  8
0
  6
CONTINUOUS
 62
               7
100
AcDbLine
 10
51.900000030467424
 20
-64.499999978036257
 30
0.0
 11
51.900000030467424
 21
-51.100000035593538
 31
0.0
  0
LINE
  5
3C1
100
AcDbEntity
  8
0
  6
CONTINUOUS
 62
               7
100
AcDbLine
 10
28.099999969533826
 20
-20.299999885973463
 30
0.0
 11
28.099999969533826
 21
-7.4999999435309377
 31
0.0
  0
LINE
  5
3C2
100
AcDbEntity
  8
0
  6
CONTINUOUS
 62
               7
100
AcDbLine
 10
28.099999969533826
 20
-51.100000066060474
 30
0.0
 11
28.099999969533826
 21
-64.499999978036541
 31
0.0
  0
LINE
  5
3C3
100
AcDbEntity
  8
0
  6
CENTER
 62
               2
100
AcDbLine
 10
40.000000000000625
 20
-89.632623026529828
 30
0.0
 11
40.000000000000625
 21
55.020339263112945
 31
0.0
  0
CIRCLE
  5
3C4
100
AcDbEntity
  8
0
  6
CONTINUOUS
 62
               7
100
AcDbCircle
 10
47.700000007617405
 20
-61.29999984005245
 30
0.0
 40
4.0
  0
LINE
  5
3C5
100
AcDbEntity
  8
0
  6
CONTINUOUS
 62
               7
100
AcDbLine
 10
46.002944031553398
 20
-59.602943720937319
 30
0.0
 11
49.397056658030976
 21
-62.997056633517204
 31
0.0
  0
LINE
  5
3C6
100
AcDbEntity
  8
0
  6
CONTINUOUS
 62
               7
100
AcDbLine
 10
46.002943784194144
 20
-62.997055711808329
 30
0.0
 11
49.39705669677403
 21
-59.60294308533075
 31
0.0
  0
LINE
  5
3C7
100
AcDbEntity
  8
0
  6
CONTINUOUS
 62
               7
100
AcDbLine
 10
52.000000000000682
 20
-79.499999978035234
 30
0.0
 11
52.000000000000682
 21
-2.9999999780361435
 31
0.0
  0
LINE
  5
3C8
100
AcDbEntity
  8
0
  6
CONTINUOUS
 62
               7
100
AcDbLine
 10
28.300000000000409
 20
52.000000021964084
 30
0.0
 11
51.700000000000728
 21
52.000000021963913
 31
0.0
  0
LINE
  5
3C9
100
AcDbEntity
  8
0
  6
CONTINUOUS
 62
               7
100
AcDbLine
 10
28.000000000000625
 20
-65.499999978036541
 30
0.0
 11
52.000000000000682
 21
-65.499999978036257
 31
0.0
  0
LINE
  5
3CA
100
AcDbEntity
  8
0
  6
CONTINUOUS
 62
               7
100
AcDbLine
 10
28.000000000000625
 20
-69.9999999780362
 30
0.0
 11
52.000000000000682
 21
-69.9999999780362
 31
0.0
  0
LINE
  5
3CB
100
AcDbEntity
  8
0
  6
CONTINUOUS
 62
               7
100
AcDbLine
 10
52.000000000000682
 20
-6.4999999435309945
 30
0.0
 11
28.000000000000625
 21
-6.4999999435309945
 31
0.0
  0
LINE
  5
3CC
100
AcDbEntity
  8
0
  6
CONTINUOUS
 62
               7
100
AcDbLine
 10
37.850000030467356
 20
-64.99999997803603
 30
0.0
 11
37.850000030467356
 21
-64.499999978036087
 31
0.0
  0
LINE
  5
3CD
100
AcDbEntity
  8
0
  6
CONTINUOUS
 62
               7
100
AcDbLine
 10
33.350000030467299
 20
-64.99999997803603
 30
0.0
 11
33.350000030467299
 21
-64.499999978036087
 31
0.0
  0
ARC
  5
3CE
100
AcDbEntity
  8
0
  6
CONTINUOUS
 62
               7
100
AcDbCircle
 10
35.600000030467299
 20
-64.499999978036087
 30
0.0
 40
2.25
100
AcDbArc
 50
0.0
 51
179.99999999999963
  0
LINE
  5
3CF
100
AcDbEntity
  8
0
  6
CONTINUOUS
 62
               7
100
AcDbLine
 10
42.150000000000773
 20
-6.9999999435309377
 30
0.0
 11
42.150000000000773
 21
-7.4999999435309377
 31
0.0
  0
LINE
  5
3D0
100
AcDbEntity
  8
0
  6
CONTINUOUS
 62
               7
100
AcDbLine
 10
46.650000000000773
 20
-6.9999999435309377
 30
0.0
 11
46.650000000000773
 21
-7.4999999435309377
 31
0.0
  0
ARC
  5
3D1
100
AcDbEntity
  8
0
  6
CONTINUOUS
 62
               7
100
AcDbCircle
 10
44.400000000000773
 20
-7.4999999435309377
 30
0.0
 40
2.25
100
AcDbArc
 50
179.99999999999963
 51
0.0
  0
CIRCLE
  5
3D2
100
AcDbEntity
  8
0
  6
CONTINUOUS
 62
               7
100
AcDbCircle
 10
47.700000007617405
 20
-61.29999984005245
 30
0.0
 40
4.0999999999999996
  0
ARC
  5
3D3
100
AcDbEntity
  8
0
  6
CONTINUOUS
 62
               7
100
AcDbCircle
 10
41.650000000000773
 20
-6.9999999435309377
 30
0.0
 40
0.5
100
AcDbArc
 50
0.0
 51
89.999999999999815
  0
ARC
  5
3D4
100
AcDbEntity
  8
0
  6
CONTINUOUS
 62
               7
100
AcDbCircle
 10
47.150000000000773
 20
-6.9999999435309377
 30
0.0
 40
0.5
100
AcDbArc
 50
89.999999999999815
 51
179.99999999999963
  0
ARC
  5
3D5
100
AcDbEntity
  8
0
  6
CONTINUOUS
 62
               7
100
AcDbCircle
 10
38.350000030467299
 20
-64.99999997803603
 30
0.0
 40
0.5
100
AcDbArc
 50
179.99999999999963
 51
269.99999999999937
  0
ARC
  5
3D6
100
AcDbEntity
  8
0
  6
CONTINUOUS
 62
               7
100
AcDbCircle
 10
32.850000030467356
 20
-64.99999997803603
 30
0.0
 40
0.5
100
AcDbArc
 50
269.99999999999937
 51
0.0
  0
LINE
  5
3D7
100
AcDbEntity
  8
0
  6
CONTINUOUS
 62
               7
100
AcDbLine
 10
28.100000000000762
 20
-20.299999885973463
 30
0.0
 11
28.300000038084249
 21
-20.499999924057065
 31
0.0
  0
LINE
  5
3D8
100
AcDbEntity
  8
0
  6
CONTINUOUS
 62
               7
100
AcDbLine
 10
28.300000038084249
 20
-25.89999995273341
 30
0.0
 11
28.100000000000762
 21
-26.099999990816954
 31
0.0
  0
LINE
  5
3D9
100
AcDbEntity
  8
0
  6
CONTINUOUS
 62
               7
100
AcDbLine
 10
28.300000038084249
 20
-25.89999995273341
 30
0.0
 11
28.300000038084249
 21
-20.499999924057065
 31
0.0
  0
LINE
  5
3DA
100
AcDbEntity
  8
0
  6
CONTINUOUS
 62
               7
100
AcDbLine
 10
28.300000038084249
 20
-45.499999968833762
 30
0.0
 11
28.100000000000762
 21
-45.299999930750161
 31
0.0
  0
LINE
  5
3DB
100
AcDbEntity
  8
0
  6
CONTINUOUS
 62
               7
100
AcDbLine
 10
28.100000000000762
 20
-51.100000035593538
 30
0.0
 11
28.300000038084249
 21
-50.899999997509994
 31
0.0
  0
LINE
  5
3DC
100
AcDbEntity
  8
0
  6
CONTINUOUS
 62
               7
100
AcDbLine
 10
28.300000038084249
 20
-45.499999968833762
 30
0.0
 11
28.300000038084249
 21
-50.899999997509994
 31
0.0
  0
ARC
  5
3DD
100
AcDbEntity
  8
0
  6
CONTINUOUS
 62
               7
100
AcDbCircle
 10
29.100000000000705
 20
-7.4999999435309377
 30
0.0
 40
1.0
100
AcDbArc
 50
89.999999999999815
 51
179.99999999999963
  0
LINE
  5
3DE
100
AcDbEntity
  8
0
  6
CONTINUOUS
 62
               7
100
AcDbLine
 10
51.900000030467424
 20
-20.299999885973463
 30
0.0
 11
51.900000030467424
 21
-7.4999999435309377
 31
0.0
  0
LINE
  5
3DF
100
AcDbEntity
  8
0
  6
CONTINUOUS
 62
               7
100
AcDbLine
 10
51.900000030467424
 20
-45.299999930750161
 30
0.0
 11
51.900000030467424
 21
-26.099999990816954
 31
0.0
  0
LINE
  5
3E0
100
AcDbEntity
  8
0
  6
CONTINUOUS
 62
               7
100
AcDbLine
 10
51.69999999238388
 20
-25.89999995273341
 30
0.0
 11
51.69999999238388
 21
-20.499999924057065
 31
0.0
  0
LINE
  5
3E1
100
AcDbEntity
  8
0
  6
CONTINUOUS
 62
               7
100
AcDbLine
 10
51.69999999238388
 20
-25.89999995273341
 30
0.0
 11
51.900000030467424
 21
-26.099999990816954
 31
0.0
  0
LINE
  5
3E2
100
AcDbEntity
  8
0
  6
CONTINUOUS
 62
               7
100
AcDbLine
 10
51.900000030467424
 20
-20.299999885973463
 30
0.0
 11
51.69999999238388
 21
-20.499999924057065
 31
0.0
  0
LINE
  5
3E3
100
AcDbEntity
  8
0
  6
CONTINUOUS
 62
               7
100
AcDbLine
 10
51.69999999238388
 20
-45.499999968833762
 30
0.0
 11
51.69999999238388
 21
-50.899999997509994
 31
0.0
  0
LINE
  5
3E4
100
AcDbEntity
  8
0
  6
CONTINUOUS
 62
               7
100
AcDbLine
 10
51.900000030467424
 20
-51.100000035593538
 30
0.0
 11
51.69999999238388
 21
-50.899999997509994
 31
0.0
  0
LINE
  5
3E5
100
AcDbEntity
  8
0
  6
CONTINUOUS
 62
               7
100
AcDbLine
 10
51.69999999238388
 20
-45.499999968833762
 30
0.0
 11
51.900000030467424
 21
-45.299999930750161
 31
0.0
  0
ARC
  5
3E6
100
AcDbEntity
  8
0
  6
CONTINUOUS
 62
               7
100
AcDbCircle
 10
50.900000030467424
 20
-7.4999999435309377
 30
0.0
 40
1.0
100
AcDbArc
 50
0.0
 51
89.999999999999815
  0
ARC
  5
3E7
100
AcDbEntity
  8
0
  6
PHANTOM
 62
               2
100
AcDbCircle
 10
46.400000015235037
 20
-1.9999999780356887
 30
0.0
 40
0.5000000000000002
100
AcDbArc
 50
269.99999999999937
 51
0.0
  0
ARC
  5
3E8
100
AcDbEntity
  8
0
  6
PHANTOM
 62
               2
100
AcDbCircle
 10
33.400000015235037
 20
-1.9999999780356887
 30
0.0
 40
0.5000000000000002
100
AcDbArc
 50
179.99999999999963
 51
269.99999999999937
  0
ARC
  5
3E9
100
AcDbEntity
  8
0
  6
PHANTOM
 62
               2
100
AcDbCircle
 10
33.400000015235037
 20
5.0000000219636291
 30
0.0
 40
0.5000000000000002
100
AcDbArc
 50
89.999999999999815
 51
179.99999999999963
  0
ARC
  5
3EA
100
AcDbEntity
  8
0
  6
PHANTOM
 62
               2
100
AcDbCircle
 10
46.400000015235037
 20
5.0000000219634018
 30
0.0
 40
0.5000000000000002
100
AcDbArc
 50
0.0
 51
89.999999999999815
  0
LINE
  5
3EB
100
AcDbEntity
  8
0
  6
PHANTOM
 62
               2
100
AcDbLine
 10
46.90000001523498
 20
-1.9999999780356887
 30
0.0
 11
46.90000001523515
 21
5.0000000219634018
 31
0.0
  0
LINE
  5
3EC
100
AcDbEntity
  8
0
  6
PHANTOM
 62
               2
100
AcDbLine
 10
32.900000015234923
 20
-1.9999999780356887
 30
0.0
 11
32.900000015235037
 21
5.0000000219636291
 31
0.0
  0
LINE
  5
3ED
100
AcDbEntity
  8
0
  6
PHANTOM
 62
               2
100
AcDbLine
 10
33.400000015235037
 20
-2.4999999780356319
 30
0.0
 11
46.400000015235037
 21
-2.4999999780356319
 31
0.0
  0
LINE
  5
3EE
100
AcDbEntity
  8
0
  6
PHANTOM
 62
               2
100
AcDbLine
 10
33.400000015235037
 20
5.5000000219636291
 30
0.0
 11
46.40000001523515
 21
5.5000000219633449
 31
0.0
  0
ARC
  5
3EF
100
AcDbEntity
  8
0
  6
PHANTOM
 62
               2
100
AcDbCircle
 10
29.400000015235264
 20
17.900000021965141
 30
0.0
 40
0.5000000000000002
100
AcDbArc
 50
89.999999999999815
 51
179.99999999999963
  0
ARC
  5
3F0
100
AcDbEntity
  8
0
  6
PHANTOM
 62
               2
100
AcDbCircle
 10
29.400000015235094
 20
6.9000000219637769
 30
0.0
 40
0.5000000000000002
100
AcDbArc
 50
179.99999999999963
 51
269.99999999999937
  0
ARC
  5
3F1
100
AcDbEntity
  8
0
  6
PHANTOM
 62
               2
100
AcDbCircle
 10
50.400000015235037
 20
6.900000021963379
 30
0.0
 40
0.5000000000000002
100
AcDbArc
 50
270.00000000000023
 51
0.0
  0
ARC
  5
3F2
100
AcDbEntity
  8
0
  6
PHANTOM
 62
               2
100
AcDbCircle
 10
50.400000015235207
 20
17.900000021965141
 30
0.0
 40
0.5000000000000002
100
AcDbArc
 50
0.0
 51
89.999999999999815
  0
LINE
  5
3F3
100
AcDbEntity
  8
0
  6
PHANTOM
 62
               2
100
AcDbLine
 10
28.90000001523498
 20
6.9000000219637769
 30
0.0
 11
28.900000015235264
 21
17.900000021965141
 31
0.0
  0
LINE
  5
3F4
100
AcDbEntity
  8
0
  6
PHANTOM
 62
               2
100
AcDbLine
 10
50.900000015235037
 20
6.900000021963379
 30
0.0
 11
50.90000001523515
 21
17.900000021965141
 31
0.0
  0
LINE
  5
3F5
100
AcDbEntity
  8
0
  6
PHANTOM
 62
               2
100
AcDbLine
 10
50.400000015235207
 20
18.400000021965084
 30
0.0
 11
29.400000015235264
 21
18.400000021965084
 31
0.0
  0
LINE
  5
3F6
100
AcDbEntity
  8
0
  6
PHANTOM
 62
               2
100
AcDbLine
 10
29.400000015235094
 20
6.4000000219636632
 30
0.0
 11
50.400000015235037
 21
6.400000021963379
 31
0.0
  0
LINE
  5
3F7
100
AcDbEntity
  8
0
  6
CONTINUOUS
 62
               7
100
AcDbLine
 10
36.000000008090637
 20
19.900000021965027
 30
0.0
 11
31.200000008090626
 21
19.900000021965027
 31
0.0
  0
LINE
  5
3F8
100
AcDbEntity
  8
0
  6
CONTINUOUS
 62
               7
100
AcDbLine
 10
37.900000008090785
 20
38.600000021963936
 30
0.0
 11
32.100000008090774
 21
38.600000021963936
 31
0.0
  0
LINE
  5
3F9
100
AcDbEntity
  8
0
  6
CONTINUOUS
 62
               7
100
AcDbLine
 10
37.900000008090899
 20
45.400000021963834
 30
0.0
 11
37.900000008090785
 21
38.600000021963936
 31
0.0
  0
LINE
  5
3FA
100
AcDbEntity
  8
0
  6
CONTINUOUS
 62
               7
100
AcDbLine
 10
32.100000008090774
 20
45.400000021964004
 30
0.0
 11
32.100000008090774
 21
38.600000021963936
 31
0.0
  0
LINE
  5
3FB
100
AcDbEntity
  8
0
  6
CONTINUOUS
 62
               7
100
AcDbLine
 10
37.900000008090899
 20
45.400000021963834
 30
0.0
 11
32.100000008090774
 21
45.400000021964004
 31
0.0
  0
LINE
  5
3FC
100
AcDbEntity
  8
0
  6
CONTINUOUS
 62
               7
100
AcDbLine
 10
42.100000008090944
 20
38.600000021963936
 30
0.0
 11
47.900000008090899
 21
38.600000021963766
 31
0.0
  0
LINE
  5
3FD
100
AcDbEntity
  8
0
  6
CONTINUOUS
 62
               7
100
AcDbLine
 10
42.100000008090944
 20
45.400000021963834
 30
0.0
 11
42.100000008090944
 21
38.600000021963936
 31
0.0
  0
LINE
  5
3FE
100
AcDbEntity
  8
0
  6
CONTINUOUS
 62
               7
100
AcDbLine
 10
47.900000008090899
 20
45.40000002196372
 30
0.0
 11
47.900000008090899
 21
38.600000021963766
 31
0.0
  0
LINE
  5
3FF
100
AcDbEntity
  8
0
  6
CONTINUOUS
 62
               7
100
AcDbLine
 10
42.100000008090944
 20
45.400000021963834
 30
0.0
 11
47.900000008090899
 21
45.40000002196372
 31
0.0
  0
LINE
  5
400
100
AcDbEntity
  8
0
  6
CONTINUOUS
 62
               7
100
AcDbLine
 10
32.000000008090865
 20
45.500000021963913
 30
0.0
 11
32.000000008090694
 21
38.500000021964027
 31
0.0
  0
LINE
  5
401
100
AcDbEntity
  8
0
  6
CONTINUOUS
 62
               7
100
AcDbLine
 10
38.000000008090808
 20
45.500000021963913
 30
0.0
 11
38.000000008090808
 21
38.500000021963857
 31
0.0
  0
LINE
  5
402
100
AcDbEntity
  8
0
  6
CONTINUOUS
 62
               7
100
AcDbLine
 10
38.000000008090808
 20
38.500000021963857
 30
0.0
 11
32.000000008090694
 21
38.500000021964027
 31
0.0
  0
LINE
  5
403
100
AcDbEntity
  8
0
  6
CONTINUOUS
 62
               7
100
AcDbLine
 10
38.000000008090808
 20
45.500000021963913
 30
0.0
 11
32.000000008090865
 21
45.500000021963913
 31
0.0
  0
LINE
  5
404
100
AcDbEntity
  8
0
  6
CONTINUOUS
 62
               7
100
AcDbLine
 10
42.000000008090865
 20
38.500000021963857
 30
0.0
 11
48.000000008090808
 21
38.500000021963743
 31
0.0
  0
LINE
  5
405
100
AcDbEntity
  8
0
  6
CONTINUOUS
 62
               7
100
AcDbLine
 10
42.000000008091035
 20
45.500000021963913
 30
0.0
 11
48.000000008090922
 21
45.500000021963743
 31
0.0
  0
LINE
  5
406
100
AcDbEntity
  8
0
  6
CONTINUOUS
 62
               7
100
AcDbLine
 10
47.900000008090615
 20
30.300000016212678
 30
0.0
 11
47.900000008090615
 21
30.700207558043999
 31
0.0
  0
ARC
  5
407
100
AcDbEntity
  8
0
  6
CONTINUOUS
 62
               7
100
AcDbCircle
 10
47.600000008090603
 20
30.300000016212678
 30
0.0
 40
0.3
100
AcDbArc
 50
269.9999999999979
 51
359.99999999999767
  0
LINE
  5
408
100
AcDbEntity
  8
0
  6
CONTINUOUS
 62
               7
100
AcDbLine
 10
47.900000008090615
 20
30.700207558043999
 30
0.0
 11
49.299999995542578
 21
30.700207558043886
 31
0.0
  0
ARC
  5
409
100
AcDbEntity
  8
0
  6
CONTINUOUS
 62
               7
100
AcDbCircle
 10
32.400000008090785
 20
30.300000016212962
 30
0.0
 40
0.3
100
AcDbArc
 50
179.99999999999963
 51
269.99999999999937
  0
LINE
  5
40A
100
AcDbEntity
  8
0
  6
CONTINUOUS
 62
               7
100
AcDbLine
 10
47.100000008090603
 20
28.400000021964857
 30
0.0
 11
47.100000008090603
 21
30.000000016212667
 31
0.0
  0
LINE
  5
40B
100
AcDbEntity
  8
0
  6
CONTINUOUS
 62
               7
100
AcDbLine
 10
32.100000008090774
 20
30.300000016212962
 30
0.0
 11
32.100000008090774
 21
30.700207558044113
 31
0.0
  0
LINE
  5
40C
100
AcDbEntity
  8
0
  6
CONTINUOUS
 62
               7
100
AcDbLine
 10
47.100000008090603
 20
30.000000016212667
 30
0.0
 11
49.300000008090649
 21
30.000000016212667
 31
0.0
  0
LINE
  5
40D
100
AcDbEntity
  8
0
  6
CONTINUOUS
 62
               7
100
AcDbLine
 10
32.100000008090774
 20
30.700207558044113
 30
0.0
 11
30.700000020638811
 21
30.700207558044113
 31
0.0
  0
LINE
  5
40E
100
AcDbEntity
  8
0
  6
CONTINUOUS
 62
               7
100
AcDbLine
 10
32.900000008090785
 20
30.000000016212951
 30
0.0
 11
30.70000000809074
 21
30.000000016212951
 31
0.0
  0
LINE
  5
40F
100
AcDbEntity
  8
0
  6
CONTINUOUS
 62
               7
100
AcDbLine
 10
49.300000008090649
 20
20.400000021965141
 30
0.0
 11
49.300000008090649
 21
30.700207558043886
 31
0.0
  0
ARC
  5
410
100
AcDbEntity
  8
0
  6
CONTINUOUS
 62
               7
100
AcDbCircle
 10
36.500000008090581
 20
19.200000021965266
 30
0.0
 40
0.5000000000000002
100
AcDbArc
 50
179.99999999999807
 51
269.9999999999979
  0
LINE
  5
411
100
AcDbEntity
  8
0
  6
CONTINUOUS
 62
               7
100
AcDbLine
 10
36.000000008090637
 20
19.200000021965266
 30
0.0
 11
36.000000008090637
 21
19.900000021965198
 31
0.0
  0
ARC
  5
412
100
AcDbEntity
  8
0
  6
CONTINUOUS
 62
               7
100
AcDbCircle
 10
43.500000008090637
 20
19.200000021965096
 30
0.0
 40
0.5000000000000002
100
AcDbArc
 50
269.99999999999937
 51
0.0
  0
LINE
  5
413
100
AcDbEntity
  8
0
  6
CONTINUOUS
 62
               7
100
AcDbLine
 10
44.000000008090581
 20
19.200000021965096
 30
0.0
 11
44.000000008090581
 21
19.900000021965027
 31
0.0
  0
LINE
  5
414
100
AcDbEntity
  8
0
  6
CONTINUOUS
 62
               7
100
AcDbLine
 10
43.500000008090637
 20
18.700000021965153
 30
0.0
 11
36.500000008090581
 21
18.700000021965153
 31
0.0
  0
ARC
  5
415
100
AcDbEntity
  8
0
  6
CONTINUOUS
 62
               7
100
AcDbCircle
 10
46.60000000809066
 20
28.400000021965084
 30
0.0
 40
0.5000000000000002
100
AcDbArc
 50
270.00000000000023
 51
0.0
  0
ARC
  5
416
100
AcDbEntity
  8
0
  6
CONTINUOUS
 62
               7
100
AcDbCircle
 10
33.400000008090728
 20
28.400000021965084
 30
0.0
 40
0.5000000000000002
100
AcDbArc
 50
179.99999999999963
 51
269.99999999999937
  0
LINE
  5
417
100
AcDbEntity
  8
0
  6
CONTINUOUS
 62
               7
100
AcDbLine
 10
32.900000008090615
 20
28.400000021965084
 30
0.0
 11
32.900000008090785
 21
30.000000016212951
 31
0.0
  0
ARC
  5
418
100
AcDbEntity
  8
0
  6
CONTINUOUS
 62
               7
100
AcDbCircle
 10
31.200000008090626
 20
20.400000021965141
 30
0.0
 40
0.5000000000000002
100
AcDbArc
 50
179.99999999999963
 51
269.99999999999937
  0
LINE
  5
419
100
AcDbEntity
  8
0
  6
CONTINUOUS
 62
               7
100
AcDbLine
 10
30.700000008090512
 20
20.400000021965312
 30
0.0
 11
30.70000000809074
 21
30.700207558044113
 31
0.0
  0
ARC
  5
41A
100
AcDbEntity
  8
0
  6
CONTINUOUS
 62
               7
100
AcDbCircle
 10
48.800000008090649
 20
20.400000021965141
 30
0.0
 40
0.5000000000000002
100
AcDbArc
 50
270.00000000000023
 51
0.0
  0
LINE
  5
41B
100
AcDbEntity
  8
0
  6
CONTINUOUS
 62
               7
100
AcDbLine
 10
48.800000008090649
 20
19.900000021965027
 30
0.0
 11
44.000000008090581
 21
19.900000021965027
 31
0.0
  0
LINE
  5
41C
100
AcDbEntity
  8
0
  6
CONTINUOUS
 62
               7
100
AcDbLine
 10
46.60000000809066
 20
27.900000021965141
 30
0.0
 11
33.400000008090728
 21
27.900000021965141
 31
0.0
  0
LINE
  5
41D
100
AcDbEntity
  8
0
  6
CONTINUOUS
 62
               7
100
AcDbLine
 10
42.000000008091035
 20
45.500000021963913
 30
0.0
 11
42.000000008090865
 21
38.500000021963857
 31
0.0
  0
LINE
  5
41E
100
AcDbEntity
  8
0
  6
CONTINUOUS
 62
               7
100
AcDbLine
 10
48.000000008090922
 20
45.500000021963743
 30
0.0
 11
48.000000008090808
 21
38.500000021963743
 31
0.0
  0
ARC
  5
41F
100
AcDbEntity
  8
0
  6
CONTINUOUS
 62
               7
100
AcDbCircle
 10
43.517157302099776
 20
21.700000021963788
 30
0.0
 40
0.2
100
AcDbArc
 50
269.99999999999937
 51
45.000000000000966
  0
ARC
  5
420
100
AcDbEntity
  8
0
  6
CONTINUOUS
 62
               7
100
AcDbCircle
 10
36.482842728370628
 20
21.700000021963788
 30
0.0
 40
0.2
100
AcDbArc
 50
134.99999999999793
 51
269.99999999999937
  0
ARC
  5
421
100
AcDbEntity
  8
0
  6
CONTINUOUS
 62
               7
100
AcDbCircle
 10
40.000000015235372
 20
25.217157308828249
 30
0.0
 40
0.2
100
AcDbArc
 50
44.99999999999919
 51
134.99999999999898
  0
LINE
  5
422
100
AcDbEntity
  8
0
  6
CONTINUOUS
 62
               7
100
AcDbLine
 10
40.14142137147266
 20
25.358578665065536
 30
0.0
 11
43.658578658337063
 21
21.841421378201076
 31
0.0
  0
LINE
  5
423
100
AcDbEntity
  8
0
  6
CONTINUOUS
 62
               7
100
AcDbLine
 10
39.85857865899797
 20
25.358578665065536
 30
0.0
 11
36.34142137213334
 21
21.841421378201076
 31
0.0
  0
LINE
  5
424
100
AcDbEntity
  8
0
  6
CONTINUOUS
 62
               7
100
AcDbLine
 10
43.517157302099776
 20
21.500000021963743
 30
0.0
 11
36.482842728370628
 21
21.500000021963743
 31
0.0
  0
LINE
  5
425
100
AcDbEntity
  8
0
  6
CONTINUOUS
 62
               7
100
AcDbLine
 10
32.100000008090603
 20
27.800000021963925
 30
0.0
 11
32.100000008090774
 21
29.900000021963891
 31
0.0
  0
LINE
  5
426
100
AcDbEntity
  8
0
  6
CONTINUOUS
 62
               7
100
AcDbLine
 10
32.100000008090774
 20
29.900000021963891
 30
0.0
 11
30.70000000809074
 21
29.900000021963891
 31
0.0
  0
ARC
  5
427
100
AcDbEntity
  8
0
  6
CONTINUOUS
 62
               7
100
AcDbCircle
 10
31.200000008090626
 20
20.500000021963743
 30
0.0
 40
0.5000000000000002
100
AcDbArc
 50
179.99999999999963
 51
269.99999999999937
  0
LINE
  5
428
100
AcDbEntity
  8
0
  6
CONTINUOUS
 62
               7
100
AcDbLine
 10
48.800000008090649
 20
20.0000000219638
 30
0.0
 11
31.200000008090626
 21
20.0000000219638
 31
0.0
  0
ARC
  5
429
100
AcDbEntity
  8
0
  6
CONTINUOUS
 62
               7
100
AcDbCircle
 10
48.800000008090649
 20
20.500000021963515
 30
0.0
 40
0.5000000000000002
100
AcDbArc
 50
269.9999999999979
 51
359.99999999999767
  0
LINE
  5
42A
100
AcDbEntity
  8
0
  6
CONTINUOUS
 62
               7
100
AcDbLine
 10
47.900000008090615
 20
27.800000021963925
 30
0.0
 11
47.900000008090615
 21
29.900000021963493
 31
0.0
  0
LINE
  5
42B
100
AcDbEntity
  8
0
  6
CONTINUOUS
 62
               7
100
AcDbLine
 10
47.900000008090615
 20
29.900000021963493
 30
0.0
 11
49.300000008090649
 21
29.900000021963493
 31
0.0
  0
LINE
  5
42C
100
AcDbEntity
  8
0
  6
CONTINUOUS
 62
               7
100
AcDbLine
 10
49.300000008090649
 20
27.800000021963925
 30
0.0
 11
30.700000008090626
 21
27.800000021963925
 31
0.0
  0
LINE
  5
42D
100
AcDbEntity
  8
0
  6
CONTINUOUS
 62
               7
100
AcDbLine
 10
51.500000000000682
 20
-79.999999978035234
 30
0.0
 11
28.500000000000625
 21
-79.999999978035234
 31
0.0
  0
LINE
  5
42E
100
AcDbEntity
  8
0
  6
CONTINUOUS
 62
               7
100
AcDbLine
 10
52.000000000000682
 20
-2.9999999780361435
 30
0.0
 11
28.000000000000625
 21
-2.9999999780361435
 31
0.0
  0
LINE
  5
42F
100
AcDbEntity
  8
0
  6
CONTINUOUS
 62
               7
100
AcDbLine
 10
29.400000000000148
 20
-1.4999999782376534
 30
0.0
 11
29.400000000000603
 21
6.0000000219631744
 31
0.0
  0
LINE
  5
430
100
AcDbEntity
  8
0
  6
CONTINUOUS
 62
               7
100
AcDbLine
 10
50.600000000000762
 20
-1.4999999782376534
 30
0.0
 11
50.600000000000648
 21
6.0000000219628333
 31
0.0
  0
LINE
  5
431
100
AcDbEntity
  8
0
  6
CONTINUOUS
 62
               7
100
AcDbLine
 10
28.099999977543632
 20
-1.4999999782376534
 30
0.0
 11
29.399999989464561
 21
-1.4999999782376534
 31
0.0
  0
LINE
  5
432
100
AcDbEntity
  8
0
  6
CONTINUOUS
 62
               7
100
AcDbLine
 10
50.599999977543746
 20
-1.4999999782376534
 30
0.0
 11
51.900000000000603
 21
-1.4999999782376534
 31
0.0
  0
LINE
  5
433
100
AcDbEntity
  8
0
  6
CONTINUOUS
 62
               7
100
AcDbLine
 10
50.600000011293844
 20
0.0000000219631744
 30
0.0
 11
51.39999999341245
 21
0.0000000219631744
 31
0.0
  0
ARC
  5
434
100
AcDbEntity
  8
0
  6
CONTINUOUS
 62
               7
100
AcDbCircle
 10
51.400000000000716
 20
0.5000000219631744
 30
0.0
 40
0.5
100
AcDbArc
 50
269.9999999999979
 51
359.99999999999767
  0
ARC
  5
435
100
AcDbEntity
  8
0
  6
CONTINUOUS
 62
               7
100
AcDbCircle
 10
28.600000000000421
 20
0.5000000219634586
 30
0.0
 40
0.5
100
AcDbArc
 50
179.99999999999963
 51
269.99999999999937
  0
LINE
  5
436
100
AcDbEntity
  8
0
  6
CONTINUOUS
 62
               7
100
AcDbLine
 10
29.399999988707179
 20
0.0000000219634586
 30
0.0
 11
28.600000006588573
 21
0.0000000219634586
 31
0.0
  0
LINE
  5
437
100
AcDbEntity
  8
0
  6
CONTINUOUS
 62
               7
100
AcDbLine
 10
28.100000000000421
 20
6.0000000219631744
 30
0.0
 11
51.900000000000716
 21
6.0000000219627196
 31
0.0
  0
LINE
  5
438
100
AcDbEntity
  8
0
  6
CONTINUOUS
 62
               7
100
AcDbLine
 10
51.900000000000716
 20
-2.9999999780361435
 30
0.0
 11
51.900000000000716
 21
51.800000033884956
 31
0.0
  0
LINE
  5
439
100
AcDbEntity
  8
0
  6
CONTINUOUS
 62
               7
100
AcDbLine
 10
28.100000000000421
 20
-2.9999999780361435
 30
0.0
 11
28.100000000000421
 21
51.800000033884956
 31
0.0
  0
ARC
  5
43A
100
AcDbEntity
  8
0
  6
CONTINUOUS
 62
               7
100
AcDbCircle
 10
28.300000000000409
 20
51.800000021964095
 30
0.0
 40
0.2
100
AcDbArc
 50
89.999999999999815
 51
179.99999999999963
  0
ARC
  5
43B
100
AcDbEntity
  8
0
  6
CONTINUOUS
 62
               7
100
AcDbCircle
 10
51.700000000000728
 20
51.800000021963925
 30
0.0
 40
0.2
100
AcDbArc
 50
0.0
 51
89.999999999999815
  0
LINE
  5
43C
100
AcDbEntity
  8
0
  6
CONTINUOUS
 62
               7
100
AcDbLine
 10
42.400000007618075
 20
-79.999999996412171
 30
0.0
 11
42.400000007618075
 21
-74.9999999780362
 31
0.0
  0
LINE
  5
43D
100
AcDbEntity
  8
0
  6
CONTINUOUS
 62
               7
100
AcDbLine
 10
46.400000007618075
 20
-79.999999996412171
 30
0.0
 11
46.400000007618075
 21
-74.9999999780362
 31
0.0
  0
LINE
  5
43E
100
AcDbEntity
  8
0
  6
CONTINUOUS
 62
               7
100
AcDbLine
 10
42.149999984768158
 20
-79.999999996412171
 30
0.0
 11
42.149999984768158
 21
-74.9999999780362
 31
0.0
  0
LINE
  5
43F
100
AcDbEntity
  8
0
  6
CONTINUOUS
 62
               7
100
AcDbLine
 10
46.649999984768158
 20
-79.999999996412171
 30
0.0
 11
46.649999984768158
 21
-74.9999999780362
 31
0.0
  0
LINE
  5
440
100
AcDbEntity
  8
0
  6
PHANTOM
 62
               2
100
AcDbLine
 10
-5.9999999999999716
 20
7.0000000000001563
 30
0.0
 11
-5.9999999999999716
 21
52.00000002196434
 31
0.0
  0
LINE
  5
441
100
AcDbEntity
  8
0
  6
PHANTOM
 62
               2
100
AcDbLine
 10
-5.9999999999999716
 20
52.00000002196434
 30
0.0
 11
28.100000000000421
 21
52.00000002196434
 31
0.0
  0
LINE
  5
442
100
AcDbEntity
  8
0
  6
PHANTOM
 62
               2
100
AcDbLine
 10
28.100000000000421
 20
52.00000002196434
 30
0.0
 11
28.100000000000421
 21
51.800000033884956
 31
0.0
  0
LINE
  5
443
100
AcDbEntity
  8
0
  6
PHANTOM
 62
               2
100
AcDbLine
 10
110.00000000000119
 20
7.0000000219637997
 30
0.0
 11
110.00000000000119
 21
52.000000021963629
 31
0.0
  0
LINE
  5
444
100
AcDbEntity
  8
0
  6
PHANTOM
 62
               2
100
AcDbLine
 10
110.00000000000119
 20
52.000000021963629
 30
0.0
 11
75.899999991909851
 21
52.000000021963629
 31
0.0
  0
LINE
  5
445
100
AcDbEntity
  8
0
  6
PHANTOM
 62
               2
100
AcDbLine
 10
75.899999991909851
 20
52.000000021963629
 30
0.0
 11
75.899999991909851
 21
51.800000021963896
 31
0.0
  0
ARC
  5
446
100
AcDbEntity
  8
0
  6
CONTINUOUS
 62
               7
100
AcDbCircle
 10
40.000000000000625
 20
-23.499999926297036
 30
0.0
 40
11.699999999999999
100
AcDbArc
 50
131.94879674482874
 51
110.11028008888883
  0
ARC
  5
447
100
AcDbEntity
  8
0
  6
CONTINUOUS
 62
               7
100
AcDbCircle
 10
40.000000000000625
 20
-48.499999926296979
 30
0.0
 40
11.699999999999999
100
AcDbArc
 50
311.94879625562083
 51
290.11028030534595
  0
LINE
  5
448
100
AcDbEntity
  8
0
  6
CONTINUOUS
 62
               7
100
AcDbLine
 10
30.602944232552716
 20
-9.0029439623996694
 30
0.0
 11
33.997056859030295
 21
-12.397056874979555
 31
0.0
  0
ARC
  5
449
100
AcDbEntity
  8
0
  6
CONTINUOUS
 62
               7
100
AcDbCircle
 10
59.60000001523332
 20
-64.499999978036115
 30
0.0
 40
2.25
100
AcDbArc
 50
0.0
 51
179.99999999999963
  0
ARC
  5
44A
100
AcDbEntity
  8
0
  6
CONTINUOUS
 62
               7
100
AcDbCircle
 10
64.000000000000057
 20
-23.499999926297065
 30
0.0
 40
11.699999999999999
100
AcDbArc
 50
131.94879674482874
 51
110.11028008888883
  0
ARC
  5
44B
100
AcDbEntity
  8
0
  6
CONTINUOUS
 62
               7
100
AcDbCircle
 10
64.000000000000057
 20
-48.499999926297008
 30
0.0
 40
11.699999999999999
100
AcDbArc
 50
311.94879625562083
 51
290.11028030534595
  0
LINE
  5
44C
100
AcDbEntity
  8
0
  6
CENTER
 62
               2
100
AcDbLine
 10
64.000000000000057
 20
-112.49993808425882
 30
0.0
 11
64.000000000000057
 21
55.020339263112916
 31
0.0
  0
LINE
  5
44D
100
AcDbEntity
  8
0
  6
CONTINUOUS
 62
               7
100
AcDbLine
 10
51.99999999190976
 20
-86.499999978036229
 30
0.0
 11
75.999999991909817
 21
-86.499999978036229
 31
0.0
  0
LINE
  5
44E
100
AcDbEntity
  8
0
  6
CONTINUOUS
 62
               7
100
AcDbLine
 10
51.99999999190976
 20
-98.999999978036229
 30
0.0
 11
75.999999991909817
 21
-98.999999978036229
 31
0.0
  0
LINE
  5
44F
100
AcDbEntity
  8
0
  6
CONTINUOUS
 62
               7
100
AcDbLine
 10
52.000000000000682
 20
-79.499999978035234
 30
0.0
 11
52.000000000000682
 21
-103.49999997803526
 31
0.0
  0
LINE
  5
450
100
AcDbEntity
  8
0
  6
CONTINUOUS
 62
               7
100
AcDbLine
 10
75.500000000000114
 20
-103.99999997803526
 30
0.0
 11
52.500000000000057
 21
-103.99999997803526
 31
0.0
  0
LINE
  5
451
100
AcDbEntity
  8
0
  6
CONTINUOUS
 62
               7
100
AcDbLine
 10
70.649999984767589
 20
-103.9999999964122
 30
0.0
 11
70.649999984767589
 21
-98.999999978036229
 31
0.0
  0
LINE
  5
452
100
AcDbEntity
  8
0
  6
CONTINUOUS
 62
               7
100
AcDbLine
 10
66.149999984767589
 20
-103.9999999964122
 30
0.0
 11
66.149999984767589
 21
-98.999999978036229
 31
0.0
  0
LINE
  5
453
100
AcDbEntity
  8
0
  6
CONTINUOUS
 62
               7
100
AcDbLine
 10
70.400000007617507
 20
-103.9999999964122
 30
0.0
 11
70.400000007617507
 21
-98.999999978036229
 31
0.0
  0
LINE
  5
454
100
AcDbEntity
  8
0
  6
CONTINUOUS
 62
               7
100
AcDbLine
 10
66.400000007617507
 20
-103.9999999964122
 30
0.0
 11
66.400000007617507
 21
-98.999999978036229
 31
0.0
  0
ARC
  5
455
100
AcDbEntity
  8
0
  6
CONTINUOUS
 62
               7
100
AcDbCircle
 10
75.500000000000114
 20
-103.49999997803526
 30
0.0
 40
0.5
100
AcDbArc
 50
270.00000000000023
 51
0.0
  0
ARC
  5
456
100
AcDbEntity
  8
0
  6
CONTINUOUS
 62
               7
100
AcDbCircle
 10
52.500000000000057
 20
-103.49999997803526
 30
0.0
 40
0.5
100
AcDbArc
 50
179.99999999999963
 51
269.99999999999937
  0
LINE
  5
457
100
AcDbEntity
  8
0
  6
CONTINUOUS
 62
               7
100
AcDbLine
 10
76.000000000000625
 20
-79.999999956072557
 30
0.0
 11
76.000000000000625
 21
-103.49999997803526
 31
0.0
  0
LINE
  5
458
100
AcDbEntity
  8
0
  6
CENTER
 62
               2
100
AcDbLine
 10
77.396782074617306
 20
-23.499999926297008
 30
0.0
 11
27.335965724181449
 21
-23.499999926296979
 31
0.0
  0
LINE
  5
459
100
AcDbEntity
  8
0
  6
CENTER
 62
               2
100
AcDbLine
 10
77.29678207461717
 20
-48.499999926297008
 30
0.0
 11
27.335965724181449
 21
-48.499999926296979
 31
0.0
  0
ENDBLK
  5
45A
100
AcDbEntity
  8
0
100
AcDbBlockEnd
  0
BLOCK
  5
45B
100
AcDbEntity
  8
0
100
AcDbBlockBegin
  2
PB-H-4
 70
               0
 10
0.0
 20
0.0
 30
0.0
  3
PB-H-4
  1

  0
LINE
  5
45C
100
AcDbEntity
  8
0
  6
CENTER
 62
               2
100
AcDbLine
 10
103.99999999999676
 20
-5.7923311016433559
 30
0.0
 11
103.99999999999665
 21
5.7923311016433559
 31
0.0
  0
LINE
  5
45D
100
AcDbEntity
  8
0
  6
CENTER
 62
               2
100
AcDbLine
 10
0.0000000000000568
 20
-5.7923311016433843
 30
0.0
 11
-0.0000000000000568
 21
5.7923311016433274
 31
0.0
  0
ARC
  5
45E
100
AcDbEntity
  8
0
  6
CONTINUOUS
 62
               7
100
AcDbCircle
 10
50.900000231464389
 20
59.000000017252461
 30
0.0
 40
1.0
100
AcDbArc
 50
0.0
 51
89.999999999999815
  0
ARC
  5
45F
100
AcDbEntity
  8
0
  6
CONTINUOUS
 62
               7
100
AcDbCircle
 10
47.150000200997738
 20
59.500000017252461
 30
0.0
 40
0.5
100
AcDbArc
 50
89.999999999999815
 51
179.99999999999963
  0
ARC
  5
460
100
AcDbEntity
  8
0
  6
CONTINUOUS
 62
               7
100
AcDbCircle
 10
44.400000200997738
 20
59.000000017252461
 30
0.0
 40
2.25
100
AcDbArc
 50
179.99999999999963
 51
0.0
  0
LINE
  5
461
100
AcDbEntity
  8
0
  6
CONTINUOUS
 62
               7
100
AcDbLine
 10
46.650000200997738
 20
59.500000017252461
 30
0.0
 11
46.650000200997738
 21
59.000000017252461
 31
0.0
  0
LINE
  5
462
100
AcDbEntity
  8
0
  6
CONTINUOUS
 62
               7
100
AcDbLine
 10
42.150000200997738
 20
59.500000017252461
 30
0.0
 11
42.150000200997738
 21
59.000000017252461
 31
0.0
  0
ARC
  5
463
100
AcDbEntity
  8
0
  6
CONTINUOUS
 62
               7
100
AcDbCircle
 10
41.650000200997738
 20
59.500000017252461
 30
0.0
 40
0.5
100
AcDbArc
 50
0.0
 51
89.999999999999815
  0
CIRCLE
  5
464
100
AcDbEntity
  8
0
  6
CONTINUOUS
 62
               7
100
AcDbCircle
 10
32.300000208614335
 20
55.799999879268768
 30
0.0
 40
4.0
  0
CIRCLE
  5
465
100
AcDbEntity
  8
0
  6
CONTINUOUS
 62
               7
100
AcDbCircle
 10
32.300000208614335
 20
55.799999879268768
 30
0.0
 40
4.0999999999999996
  0
LINE
  5
466
100
AcDbEntity
  8
0
  6
CONTINUOUS
 62
               7
100
AcDbLine
 10
30.602943985191075
 20
54.102944007512889
 30
0.0
 11
33.99705689777096
 21
57.497056633990468
 31
0.0
  0
LINE
  5
467
100
AcDbEntity
  8
0
  6
CONTINUOUS
 62
               7
100
AcDbLine
 10
30.602944232550328
 20
57.4970559983839
 30
0.0
 11
33.997056859027907
 21
54.102943085804014
 31
0.0
  0
ARC
  5
468
100
AcDbEntity
  8
0
  6
CONTINUOUS
 62
               7
100
AcDbCircle
 10
29.10000020099767
 20
59.000000017252461
 30
0.0
 40
1.0
100
AcDbArc
 50
89.999999999999815
 51
179.99999999999963
  0
LINE
  5
469
100
AcDbEntity
  8
0
  6
CONTINUOUS
 62
               7
100
AcDbLine
 10
28.100000200997727
 20
50.500000017252461
 30
0.0
 11
45.900000216230978
 21
50.500000017252461
 31
0.0
  0
LINE
  5
46A
100
AcDbEntity
  8
0
  6
CONTINUOUS
 62
               7
100
AcDbLine
 10
45.900000216230978
 20
50.500000009388174
 30
0.0
 11
45.900000216230978
 21
48.000000009388174
 31
0.0
  0
LINE
  5
46B
100
AcDbEntity
  8
0
  6
CONTINUOUS
 62
               7
100
AcDbLine
 10
51.900000231464389
 20
46.200000074809935
 30
0.0
 11
51.900000231464389
 21
59.000000017252461
 31
0.0
  0
LINE
  5
46C
100
AcDbEntity
  8
0
  6
CONTINUOUS
 62
               7
100
AcDbLine
 10
28.100000200997727
 20
46.200000074809935
 30
0.0
 11
28.100000200997727
 21
59.000000017252461
 31
0.0
  0
LINE
  5
46D
100
AcDbEntity
  8
0
  6
CONTINUOUS
 62
               7
100
AcDbLine
 10
51.900000231464389
 20
21.200000030033237
 30
0.0
 11
51.900000231464389
 21
40.399999969966444
 31
0.0
  0
LINE
  5
46E
100
AcDbEntity
  8
0
  6
CONTINUOUS
 62
               7
100
AcDbLine
 10
28.100000200997727
 20
21.200000030033237
 30
0.0
 11
28.100000200997727
 21
40.399999969966444
 31
0.0
  0
ARC
  5
46F
100
AcDbEntity
  8
0
  6
CONTINUOUS
 62
               7
100
AcDbCircle
 10
35.60000020099676
 20
1.9999999827470276
 30
0.0
 40
2.25
100
AcDbArc
 50
359.99999999999784
 51
179.99999999999818
  0
LINE
  5
470
100
AcDbEntity
  8
0
  6
CONTINUOUS
 62
               7
100
AcDbLine
 10
33.35000020099676
 20
1.4999999827470845
 30
0.0
 11
33.35000020099676
 21
1.9999999827470845
 31
0.0
  0
LINE
  5
471
100
AcDbEntity
  8
0
  6
CONTINUOUS
 62
               7
100
AcDbLine
 10
37.85000020099676
 20
1.4999999827469992
 30
0.0
 11
37.85000020099676
 21
1.9999999827469992
 31
0.0
  0
ARC
  5
472
100
AcDbEntity
  8
0
  6
CONTINUOUS
 62
               7
100
AcDbCircle
 10
38.35000020099676
 20
1.4999999827469708
 30
0.0
 40
0.5
100
AcDbArc
 50
179.99999999999827
 51
269.99999999999807
  0
ARC
  5
473
100
AcDbEntity
  8
0
  6
CONTINUOUS
 62
               7
100
AcDbCircle
 10
32.85000020099676
 20
1.4999999827471129
 30
0.0
 40
0.5
100
AcDbArc
 50
269.99999999999807
 51
359.9999999999979
  0
ARC
  5
474
100
AcDbEntity
  8
0
  6
CONTINUOUS
 62
               7
100
AcDbCircle
 10
50.900000231464389
 20
1.9999999827471413
 30
0.0
 40
1.0
100
AcDbArc
 50
269.99999999999937
 51
0.0
  0
ARC
  5
475
100
AcDbEntity
  8
0
  6
CONTINUOUS
 62
               7
100
AcDbCircle
 10
29.100000200997727
 20
1.9999999827468571
 30
0.0
 40
1.0
100
AcDbArc
 50
179.99999999999963
 51
269.99999999999937
  0
LINE
  5
476
100
AcDbEntity
  8
0
  6
CONTINUOUS
 62
               7
100
AcDbLine
 10
28.100000200997727
 20
1.9999999827468571
 30
0.0
 11
28.100000200997727
 21
15.39999992518986
 31
0.0
  0
LINE
  5
477
100
AcDbEntity
  8
0
  6
CONTINUOUS
 62
               7
100
AcDbLine
 10
51.900000231464389
 20
1.9999999827471413
 30
0.0
 11
51.900000231464389
 21
15.39999992518986
 31
0.0
  0
CIRCLE
  5
478
100
AcDbEntity
  8
0
  6
CONTINUOUS
 62
               7
100
AcDbCircle
 10
47.70000020861437
 20
5.2000001207309481
 30
0.0
 40
4.0
  0
LINE
  5
479
100
AcDbEntity
  8
0
  6
CONTINUOUS
 62
               7
100
AcDbLine
 10
46.002944232550362
 20
6.89705623984608
 30
0.0
 11
49.397056859027941
 21
3.5029433272661947
 31
0.0
  0
LINE
  5
47A
100
AcDbEntity
  8
0
  6
CONTINUOUS
 62
               7
100
AcDbLine
 10
46.002943985191109
 20
3.5029442489750693
 30
0.0
 11
49.397056897770995
 21
6.8970568754526482
 31
0.0
  0
LINE
  5
47B
100
AcDbEntity
  8
0
  6
CONTINUOUS
 62
               7
100
AcDbLine
 10
28.00000020099759
 20
0.9999999827468571
 30
0.0
 11
52.000000200997647
 21
0.9999999827471413
 31
0.0
  0
ARC
  5
47C
100
AcDbEntity
  8
0
  6
CONTINUOUS
 62
               7
100
AcDbCircle
 10
51.400000231464446
 20
48.000000017252461
 30
0.0
 40
0.5
100
AcDbArc
 50
269.99999999999937
 51
0.0
  0
ARC
  5
47D
100
AcDbEntity
  8
0
  6
CONTINUOUS
 62
               7
100
AcDbCircle
 10
28.60000020099767
 20
12.999999982747255
 30
0.0
 40
0.5
100
AcDbArc
 50
89.999999999999815
 51
179.99999999999963
  0
ARC
  5
47E
100
AcDbEntity
  8
0
  6
CONTINUOUS
 62
               7
100
AcDbCircle
 10
46.400000216231035
 20
48.000000017252461
 30
0.0
 40
0.5
100
AcDbArc
 50
179.99999999999963
 51
269.99999999999937
  0
LINE
  5
47F
100
AcDbEntity
  8
0
  6
CONTINUOUS
 62
               7
100
AcDbLine
 10
51.400000231464446
 20
47.500000017252461
 30
0.0
 11
46.400000216231035
 21
47.500000017252461
 31
0.0
  0
CIRCLE
  5
480
100
AcDbEntity
  8
0
  6
CONTINUOUS
 62
               7
100
AcDbCircle
 10
47.70000020861437
 20
5.2000001207309481
 30
0.0
 40
4.0999999999999996
  0
LINE
  5
481
100
AcDbEntity
  8
0
  6
CONTINUOUS
 62
               7
100
AcDbLine
 10
28.100000200997727
 20
46.200000074809935
 30
0.0
 11
28.300000239081214
 21
46.000000036726334
 31
0.0
  0
LINE
  5
482
100
AcDbEntity
  8
0
  6
CONTINUOUS
 62
               7
100
AcDbLine
 10
28.300000239081214
 20
40.600000008049989
 30
0.0
 11
28.100000200997727
 21
40.399999969966444
 31
0.0
  0
LINE
  5
483
100
AcDbEntity
  8
0
  6
CONTINUOUS
 62
               7
100
AcDbLine
 10
28.300000239081214
 20
40.600000008049989
 30
0.0
 11
28.300000239081214
 21
46.000000036726334
 31
0.0
  0
LINE
  5
484
100
AcDbEntity
  8
0
  6
CONTINUOUS
 62
               7
100
AcDbLine
 10
28.300000239081214
 20
20.999999991949636
 30
0.0
 11
28.100000200997727
 21
21.200000030033237
 31
0.0
  0
LINE
  5
485
100
AcDbEntity
  8
0
  6
CONTINUOUS
 62
               7
100
AcDbLine
 10
28.100000200997727
 20
15.39999992518986
 30
0.0
 11
28.300000239081214
 21
15.599999963273405
 31
0.0
  0
LINE
  5
486
100
AcDbEntity
  8
0
  6
CONTINUOUS
 62
               7
100
AcDbLine
 10
28.300000239081214
 20
20.999999991949636
 30
0.0
 11
28.300000239081214
 21
15.599999963273405
 31
0.0
  0
LINE
  5
487
100
AcDbEntity
  8
0
  6
CONTINUOUS
 62
               7
100
AcDbLine
 10
51.700000193380845
 20
40.600000008049989
 30
0.0
 11
51.700000193380845
 21
46.000000036726334
 31
0.0
  0
LINE
  5
488
100
AcDbEntity
  8
0
  6
CONTINUOUS
 62
               7
100
AcDbLine
 10
51.700000193380845
 20
40.600000008049989
 30
0.0
 11
51.900000231464389
 21
40.399999969966444
 31
0.0
  0
LINE
  5
489
100
AcDbEntity
  8
0
  6
CONTINUOUS
 62
               7
100
AcDbLine
 10
51.900000231464389
 20
46.200000074809935
 30
0.0
 11
51.700000193380845
 21
46.000000036726334
 31
0.0
  0
LINE
  5
48A
100
AcDbEntity
  8
0
  6
CONTINUOUS
 62
               7
100
AcDbLine
 10
51.700000193380845
 20
20.999999991949636
 30
0.0
 11
51.700000193380845
 21
15.599999963273405
 31
0.0
  0
LINE
  5
48B
100
AcDbEntity
  8
0
  6
CONTINUOUS
 62
               7
100
AcDbLine
 10
51.900000231464389
 20
15.39999992518986
 30
0.0
 11
51.700000193380845
 21
15.599999963273405
 31
0.0
  0
LINE
  5
48C
100
AcDbEntity
  8
0
  6
CONTINUOUS
 62
               7
100
AcDbLine
 10
51.700000193380845
 20
20.999999991949636
 30
0.0
 11
51.900000231464389
 21
21.200000030033237
 31
0.0
  0
LINE
  5
48D
100
AcDbEntity
  8
0
  6
CONTINUOUS
 62
               7
100
AcDbLine
 10
34.100000216231024
 20
10.499999990611542
 30
0.0
 11
34.100000216231024
 21
12.999999990611542
 31
0.0
  0
ARC
  5
48E
100
AcDbEntity
  8
0
  6
CONTINUOUS
 62
               7
100
AcDbCircle
 10
33.600000216231024
 20
12.999999982747255
 30
0.0
 40
0.5
100
AcDbArc
 50
0.0
 51
89.999999999999815
  0
LINE
  5
48F
100
AcDbEntity
  8
0
  6
CONTINUOUS
 62
               7
100
AcDbLine
 10
28.60000020099767
 20
13.499999982747255
 30
0.0
 11
33.600000216231024
 21
13.499999982747255
 31
0.0
  0
LINE
  5
490
100
AcDbEntity
  8
0
  6
DASHED
 62
               7
100
AcDbLine
 10
28.150000212456291
 20
50.500000017252461
 30
0.0
 11
36.000000216231001
 21
50.500000017252461
 31
0.0
  0
LINE
  5
491
100
AcDbEntity
  8
0
  6
CONTINUOUS
 62
               7
100
AcDbLine
 10
51.900000231464389
 20
10.499999982747255
 30
0.0
 11
34.100000216231024
 21
10.499999982747255
 31
0.0
  0
ARC
  5
492
100
AcDbEntity
  8
0
  6
CONTINUOUS
 62
               7
100
AcDbCircle
 10
74.900000231464389
 20
59.000000017252461
 30
0.0
 40
1.0
100
AcDbArc
 50
0.0
 51
89.999999999999815
  0
ARC
  5
493
100
AcDbEntity
  8
0
  6
CONTINUOUS
 62
               7
100
AcDbCircle
 10
71.150000200997738
 20
59.500000017252461
 30
0.0
 40
0.5
100
AcDbArc
 50
89.999999999999815
 51
179.99999999999963
  0
ARC
  5
494
100
AcDbEntity
  8
0
  6
CONTINUOUS
 62
               7
100
AcDbCircle
 10
68.400000200997738
 20
59.000000017252461
 30
0.0
 40
2.25
100
AcDbArc
 50
179.99999999999963
 51
0.0
  0
LINE
  5
495
100
AcDbEntity
  8
0
  6
CONTINUOUS
 62
               7
100
AcDbLine
 10
70.650000200997738
 20
59.500000017252461
 30
0.0
 11
70.650000200997738
 21
59.000000017252461
 31
0.0
  0
LINE
  5
496
100
AcDbEntity
  8
0
  6
CONTINUOUS
 62
               7
100
AcDbLine
 10
66.150000200997738
 20
59.500000017252461
 30
0.0
 11
66.150000200997738
 21
59.000000017252461
 31
0.0
  0
ARC
  5
497
100
AcDbEntity
  8
0
  6
CONTINUOUS
 62
               7
100
AcDbCircle
 10
65.650000200997738
 20
59.500000017252461
 30
0.0
 40
0.5
100
AcDbArc
 50
0.0
 51
89.999999999999815
  0
CIRCLE
  5
498
100
AcDbEntity
  8
0
  6
CONTINUOUS
 62
               7
100
AcDbCircle
 10
56.300000208614335
 20
55.799999879268768
 30
0.0
 40
4.0
  0
CIRCLE
  5
499
100
AcDbEntity
  8
0
  6
CONTINUOUS
 62
               7
100
AcDbCircle
 10
56.300000208614335
 20
55.799999879268768
 30
0.0
 40
4.0999999999999996
  0
LINE
  5
49A
100
AcDbEntity
  8
0
  6
CONTINUOUS
 62
               7
100
AcDbLine
 10
54.602943985191075
 20
54.102944007512889
 30
0.0
 11
57.99705689777096
 21
57.497056633990468
 31
0.0
  0
LINE
  5
49B
100
AcDbEntity
  8
0
  6
CONTINUOUS
 62
               7
100
AcDbLine
 10
54.602944232550328
 20
57.4970559983839
 30
0.0
 11
57.997056859027907
 21
54.102943085804014
 31
0.0
  0
ARC
  5
49C
100
AcDbEntity
  8
0
  6
CONTINUOUS
 62
               7
100
AcDbCircle
 10
53.10000020099767
 20
59.000000017252461
 30
0.0
 40
1.0
100
AcDbArc
 50
89.999999999999815
 51
179.99999999999963
  0
LINE
  5
49D
100
AcDbEntity
  8
0
  6
CONTINUOUS
 62
               7
100
AcDbLine
 10
52.100000200997727
 20
50.500000017252461
 30
0.0
 11
69.900000216230978
 21
50.500000017252461
 31
0.0
  0
LINE
  5
49E
100
AcDbEntity
  8
0
  6
CONTINUOUS
 62
               7
100
AcDbLine
 10
69.900000216230978
 20
50.500000009388174
 30
0.0
 11
69.900000216230978
 21
48.000000009388174
 31
0.0
  0
LINE
  5
49F
100
AcDbEntity
  8
0
  6
CONTINUOUS
 62
               7
100
AcDbLine
 10
75.900000231464389
 20
46.200000074809935
 30
0.0
 11
75.900000231464389
 21
59.000000017252461
 31
0.0
  0
LINE
  5
4A0
100
AcDbEntity
  8
0
  6
CONTINUOUS
 62
               7
100
AcDbLine
 10
52.100000200997727
 20
46.200000074809935
 30
0.0
 11
52.100000200997727
 21
59.000000017252461
 31
0.0
  0
LINE
  5
4A1
100
AcDbEntity
  8
0
  6
CONTINUOUS
 62
               7
100
AcDbLine
 10
75.900000231464389
 20
21.200000030033237
 30
0.0
 11
75.900000231464389
 21
40.399999969966444
 31
0.0
  0
LINE
  5
4A2
100
AcDbEntity
  8
0
  6
CONTINUOUS
 62
               7
100
AcDbLine
 10
52.100000200997727
 20
21.200000030033237
 30
0.0
 11
52.100000200997727
 21
40.399999969966444
 31
0.0
  0
ARC
  5
4A3
100
AcDbEntity
  8
0
  6
CONTINUOUS
 62
               7
100
AcDbCircle
 10
59.60000020099676
 20
1.9999999827470276
 30
0.0
 40
2.25
100
AcDbArc
 50
359.99999999999784
 51
179.99999999999818
  0
LINE
  5
4A4
100
AcDbEntity
  8
0
  6
CONTINUOUS
 62
               7
100
AcDbLine
 10
57.35000020099676
 20
1.4999999827470845
 30
0.0
 11
57.35000020099676
 21
1.9999999827470845
 31
0.0
  0
LINE
  5
4A5
100
AcDbEntity
  8
0
  6
CONTINUOUS
 62
               7
100
AcDbLine
 10
61.85000020099676
 20
1.4999999827469992
 30
0.0
 11
61.85000020099676
 21
1.9999999827469992
 31
0.0
  0
ARC
  5
4A6
100
AcDbEntity
  8
0
  6
CONTINUOUS
 62
               7
100
AcDbCircle
 10
62.35000020099676
 20
1.4999999827469708
 30
0.0
 40
0.5
100
AcDbArc
 50
179.99999999999827
 51
269.99999999999807
  0
ARC
  5
4A7
100
AcDbEntity
  8
0
  6
CONTINUOUS
 62
               7
100
AcDbCircle
 10
56.85000020099676
 20
1.4999999827471129
 30
0.0
 40
0.5
100
AcDbArc
 50
269.99999999999807
 51
359.9999999999979
  0
ARC
  5
4A8
100
AcDbEntity
  8
0
  6
CONTINUOUS
 62
               7
100
AcDbCircle
 10
74.900000231464389
 20
1.9999999827471413
 30
0.0
 40
1.0
100
AcDbArc
 50
269.99999999999937
 51
0.0
  0
ARC
  5
4A9
100
AcDbEntity
  8
0
  6
CONTINUOUS
 62
               7
100
AcDbCircle
 10
53.100000200997727
 20
1.9999999827468571
 30
0.0
 40
1.0
100
AcDbArc
 50
179.99999999999963
 51
269.99999999999937
  0
LINE
  5
4AA
100
AcDbEntity
  8
0
  6
CONTINUOUS
 62
               7
100
AcDbLine
 10
52.100000200997727
 20
1.9999999827468571
 30
0.0
 11
52.100000200997727
 21
15.39999992518986
 31
0.0
  0
LINE
  5
4AB
100
AcDbEntity
  8
0
  6
CONTINUOUS
 62
               7
100
AcDbLine
 10
75.900000231464389
 20
1.9999999827471413
 30
0.0
 11
75.900000231464389
 21
15.39999992518986
 31
0.0
  0
CIRCLE
  5
4AC
100
AcDbEntity
  8
0
  6
CONTINUOUS
 62
               7
100
AcDbCircle
 10
71.70000020861437
 20
5.2000001207309481
 30
0.0
 40
4.0
  0
LINE
  5
4AD
100
AcDbEntity
  8
0
  6
CONTINUOUS
 62
               7
100
AcDbLine
 10
70.002944232550362
 20
6.89705623984608
 30
0.0
 11
73.397056859027941
 21
3.5029433272661947
 31
0.0
  0
LINE
  5
4AE
100
AcDbEntity
  8
0
  6
CONTINUOUS
 62
               7
100
AcDbLine
 10
70.002943985191109
 20
3.5029442489750693
 30
0.0
 11
73.397056897770995
 21
6.8970568754526482
 31
0.0
  0
LINE
  5
4AF
100
AcDbEntity
  8
0
  6
CONTINUOUS
 62
               7
100
AcDbLine
 10
52.00000020099759
 20
0.9999999827468571
 30
0.0
 11
76.000000200997647
 21
0.9999999827471413
 31
0.0
  0
ARC
  5
4B0
100
AcDbEntity
  8
0
  6
CONTINUOUS
 62
               7
100
AcDbCircle
 10
75.400000231464446
 20
48.000000017252461
 30
0.0
 40
0.5
100
AcDbArc
 50
269.99999999999937
 51
0.0
  0
ARC
  5
4B1
100
AcDbEntity
  8
0
  6
CONTINUOUS
 62
               7
100
AcDbCircle
 10
52.60000020099767
 20
12.999999982747255
 30
0.0
 40
0.5
100
AcDbArc
 50
89.999999999999815
 51
179.99999999999963
  0
ARC
  5
4B2
100
AcDbEntity
  8
0
  6
CONTINUOUS
 62
               7
100
AcDbCircle
 10
70.400000216231035
 20
48.000000017252461
 30
0.0
 40
0.5
100
AcDbArc
 50
179.99999999999963
 51
269.99999999999937
  0
LINE
  5
4B3
100
AcDbEntity
  8
0
  6
CONTINUOUS
 62
               7
100
AcDbLine
 10
75.400000231464446
 20
47.500000017252461
 30
0.0
 11
70.400000216231035
 21
47.500000017252461
 31
0.0
  0
CIRCLE
  5
4B4
100
AcDbEntity
  8
0
  6
CONTINUOUS
 62
               7
100
AcDbCircle
 10
71.70000020861437
 20
5.2000001207309481
 30
0.0
 40
4.0999999999999996
  0
LINE
  5
4B5
100
AcDbEntity
  8
0
  6
CONTINUOUS
 62
               7
100
AcDbLine
 10
52.100000200997727
 20
46.200000074809935
 30
0.0
 11
52.300000239081214
 21
46.000000036726334
 31
0.0
  0
LINE
  5
4B6
100
AcDbEntity
  8
0
  6
CONTINUOUS
 62
               7
100
AcDbLine
 10
52.300000239081214
 20
40.600000008049989
 30
0.0
 11
52.100000200997727
 21
40.399999969966444
 31
0.0
  0
LINE
  5
4B7
100
AcDbEntity
  8
0
  6
CONTINUOUS
 62
               7
100
AcDbLine
 10
52.300000239081214
 20
40.600000008049989
 30
0.0
 11
52.300000239081214
 21
46.000000036726334
 31
0.0
  0
LINE
  5
4B8
100
AcDbEntity
  8
0
  6
CONTINUOUS
 62
               7
100
AcDbLine
 10
52.300000239081214
 20
20.999999991949636
 30
0.0
 11
52.100000200997727
 21
21.200000030033237
 31
0.0
  0
LINE
  5
4B9
100
AcDbEntity
  8
0
  6
CONTINUOUS
 62
               7
100
AcDbLine
 10
52.100000200997727
 20
15.39999992518986
 30
0.0
 11
52.300000239081214
 21
15.599999963273405
 31
0.0
  0
LINE
  5
4BA
100
AcDbEntity
  8
0
  6
CONTINUOUS
 62
               7
100
AcDbLine
 10
52.300000239081214
 20
20.999999991949636
 30
0.0
 11
52.300000239081214
 21
15.599999963273405
 31
0.0
  0
LINE
  5
4BB
100
AcDbEntity
  8
0
  6
CONTINUOUS
 62
               7
100
AcDbLine
 10
75.700000193380845
 20
40.600000008049989
 30
0.0
 11
75.700000193380845
 21
46.000000036726334
 31
0.0
  0
LINE
  5
4BC
100
AcDbEntity
  8
0
  6
CONTINUOUS
 62
               7
100
AcDbLine
 10
75.700000193380845
 20
40.600000008049989
 30
0.0
 11
75.900000231464389
 21
40.399999969966444
 31
0.0
  0
LINE
  5
4BD
100
AcDbEntity
  8
0
  6
CONTINUOUS
 62
               7
100
AcDbLine
 10
75.900000231464389
 20
46.200000074809935
 30
0.0
 11
75.700000193380845
 21
46.000000036726334
 31
0.0
  0
LINE
  5
4BE
100
AcDbEntity
  8
0
  6
CONTINUOUS
 62
               7
100
AcDbLine
 10
75.700000193380845
 20
20.999999991949636
 30
0.0
 11
75.700000193380845
 21
15.599999963273405
 31
0.0
  0
LINE
  5
4BF
100
AcDbEntity
  8
0
  6
CONTINUOUS
 62
               7
100
AcDbLine
 10
75.900000231464389
 20
15.39999992518986
 30
0.0
 11
75.700000193380845
 21
15.599999963273405
 31
0.0
  0
LINE
  5
4C0
100
AcDbEntity
  8
0
  6
CONTINUOUS
 62
               7
100
AcDbLine
 10
75.700000193380845
 20
20.999999991949636
 30
0.0
 11
75.900000231464389
 21
21.200000030033237
 31
0.0
  0
LINE
  5
4C1
100
AcDbEntity
  8
0
  6
CONTINUOUS
 62
               7
100
AcDbLine
 10
58.100000216231024
 20
10.499999990611542
 30
0.0
 11
58.100000216231024
 21
12.999999990611542
 31
0.0
  0
ARC
  5
4C2
100
AcDbEntity
  8
0
  6
CONTINUOUS
 62
               7
100
AcDbCircle
 10
57.600000216231024
 20
12.999999982747255
 30
0.0
 40
0.5
100
AcDbArc
 50
0.0
 51
89.999999999999815
  0
LINE
  5
4C3
100
AcDbEntity
  8
0
  6
CONTINUOUS
 62
               7
100
AcDbLine
 10
52.60000020099767
 20
13.499999982747255
 30
0.0
 11
57.600000216231024
 21
13.499999982747255
 31
0.0
  0
LINE
  5
4C4
100
AcDbEntity
  8
0
  6
DASHED
 62
               7
100
AcDbLine
 10
52.150000212456291
 20
50.500000017252461
 30
0.0
 11
60.000000216231001
 21
50.500000017252461
 31
0.0
  0
LINE
  5
4C5
100
AcDbEntity
  8
0
  6
CONTINUOUS
 62
               7
100
AcDbLine
 10
75.900000231464389
 20
10.499999982747255
 30
0.0
 11
58.100000216231024
 21
10.499999982747255
 31
0.0
  0
LINE
  5
4C6
100
AcDbEntity
  8
0
  6
CENTER
 62
             200
100
AcDbLine
 10
63.999999999997812
 20
60.000000017252745
 30
0.0
 11
63.999999999997527
 21
102.00000002196361
 31
0.0
  0
LINE
  5
4C7
100
AcDbEntity
  8
0
  6
CONTINUOUS
 62
               7
100
AcDbLine
 10
33.350000015229853
 20
102.0000000172526
 30
0.0
 11
28.099999984764082
 21
102.0000000172526
 31
0.0
  0
LINE
  5
4C8
100
AcDbEntity
  8
0
  6
CONTINUOUS
 62
               4
100
AcDbLine
 10
37.850000015229853
 20
102.00000001725257
 30
0.0
 11
37.600000007614085
 21
102.00000001725257
 31
0.0
  0
LINE
  5
4C9
100
AcDbEntity
  8
0
  6
CONTINUOUS
 62
               7
100
AcDbLine
 10
57.350000015229853
 20
102.00000002196364
 30
0.0
 11
52.099999984764082
 21
102.00000002196364
 31
0.0
  0
LINE
  5
4CA
100
AcDbEntity
  8
0
  6
CONTINUOUS
 62
               4
100
AcDbLine
 10
61.850000015229853
 20
102.00000002196361
 30
0.0
 11
61.600000007614085
 21
102.00000002196361
 31
0.0
  0
LINE
  5
4CB
100
AcDbEntity
  8
0
  6
CENTER
 62
               2
100
AcDbLine
 10
39.999999999997527
 20
102.00000001725257
 30
0.0
 11
39.999999999997414
 21
118.71701806209916
 31
0.0
  0
LINE
  5
4CC
100
AcDbEntity
  8
0
  6
CENTER
 62
               2
100
AcDbLine
 10
63.999999999997527
 20
102.00000002196361
 30
0.0
 11
63.999999999997414
 21
118.7170180668102
 31
0.0
  0
LINE
  5
4CD
100
AcDbEntity
  8
0
  6
CENTER
 62
             200
100
AcDbLine
 10
39.999999999997812
 20
60.000000017252574
 30
0.0
 11
39.999999999997527
 21
102.00000001725257
 31
0.0
  0
LINE
  5
4CE
100
AcDbEntity
  8
0
  6
CONTINUOUS
 62
               4
100
AcDbLine
 10
52.099999984764565
 20
60.000000017252574
 30
0.0
 11
52.099999984764082
 21
80.000000021963615
 31
0.0
  0
LINE
  5
4CF
100
AcDbEntity
  8
0
  6
CONTINUOUS
 62
               4
100
AcDbLine
 10
51.900000015231257
 20
60.000000017252574
 30
0.0
 11
51.900000015230717
 21
80.000000017252574
 31
0.0
  0
LINE
  5
4D0
100
AcDbEntity
  8
0
  6
CONTINUOUS
 62
               4
100
AcDbLine
 10
28.099999984764565
 20
60.000000017252574
 30
0.0
 11
28.099999984764082
 21
80.000000017252574
 31
0.0
  0
LINE
  5
4D1
100
AcDbEntity
  8
0
  6
CONTINUOUS
 62
               4
100
AcDbLine
 10
75.900000015231257
 20
60.000000017252574
 30
0.0
 11
75.900000015230717
 21
80.000000021963615
 31
0.0
  0
LINE
  5
4D2
100
AcDbEntity
  8
0
  6
CENTER
 62
               2
100
AcDbLine
 10
63.999999999998238
 20
-1.7805332533495744
 30
0.0
 11
63.999999999997812
 21
60.000000017252745
 31
0.0
  0
LINE
  5
4D3
100
AcDbEntity
  8
0
  6
CENTER
 62
               2
100
AcDbLine
 10
39.999999999998238
 20
-1.7805332533495744
 30
0.0
 11
39.999999999997812
 21
60.000000017252574
 31
0.0
  0
LINE
  5
4D4
100
AcDbEntity
  8
0
  6
CONTINUOUS
 62
               7
100
AcDbLine
 10
27.999999999998039
 20
0.0
 30
0.0
 11
27.999999999998039
 21
60.000000000000085
 31
0.0
  0
ARC
  5
4D5
100
AcDbEntity
  8
0
  6
CONTINUOUS
 62
               7
100
AcDbCircle
 10
35.600000007614938
 20
1.9999999827474824
 30
0.0
 40
2.0
100
AcDbArc
 50
0.0
 51
179.99999999999963
  0
LINE
  5
4D6
100
AcDbEntity
  8
0
  6
CONTINUOUS
 62
               7
100
AcDbLine
 10
37.600000007614938
 20
1.9999999827474824
 30
0.0
 11
37.600000007614938
 21
0.9999999827474824
 31
0.0
  0
LINE
  5
4D7
100
AcDbEntity
  8
0
  6
CONTINUOUS
 62
               7
100
AcDbLine
 10
33.600000007614938
 20
1.9999999827474824
 30
0.0
 11
33.600000007614938
 21
0.9999999827474824
 31
0.0
  0
ARC
  5
4D8
100
AcDbEntity
  8
0
  6
CONTINUOUS
 62
               7
100
AcDbCircle
 10
44.400000007614892
 20
59.000000017252574
 30
0.0
 40
2.0
100
AcDbArc
 50
179.99999999999963
 51
0.0
  0
LINE
  5
4D9
100
AcDbEntity
  8
0
  6
CONTINUOUS
 62
               7
100
AcDbLine
 10
42.400000007614892
 20
59.000000017252574
 30
0.0
 11
42.400000007614892
 21
60.000000017252574
 31
0.0
  0
LINE
  5
4DA
100
AcDbEntity
  8
0
  6
CONTINUOUS
 62
               7
100
AcDbLine
 10
46.400000007614892
 20
59.000000017252574
 30
0.0
 11
46.400000007614892
 21
60.000000017252574
 31
0.0
  0
LINE
  5
4DB
100
AcDbEntity
  8
0
  6
CONTINUOUS
 62
               7
100
AcDbLine
 10
51.999999999998039
 20
0.0
 30
0.0
 11
51.999999999998039
 21
60.000000000000085
 31
0.0
  0
ARC
  5
4DC
100
AcDbEntity
  8
0
  6
CONTINUOUS
 62
               7
100
AcDbCircle
 10
59.600000007614938
 20
1.9999999827474824
 30
0.0
 40
2.0
100
AcDbArc
 50
0.0
 51
179.99999999999963
  0
LINE
  5
4DD
100
AcDbEntity
  8
0
  6
CONTINUOUS
 62
               7
100
AcDbLine
 10
61.600000007614938
 20
1.9999999827474824
 30
0.0
 11
61.600000007614938
 21
0.9999999827474824
 31
0.0
  0
LINE
  5
4DE
100
AcDbEntity
  8
0
  6
CONTINUOUS
 62
               7
100
AcDbLine
 10
57.600000007614938
 20
1.9999999827474824
 30
0.0
 11
57.600000007614938
 21
0.9999999827474824
 31
0.0
  0
ARC
  5
4DF
100
AcDbEntity
  8
0
  6
CONTINUOUS
 62
               7
100
AcDbCircle
 10
68.400000007614892
 20
59.000000017252574
 30
0.0
 40
2.0
100
AcDbArc
 50
179.99999999999963
 51
0.0
  0
LINE
  5
4E0
100
AcDbEntity
  8
0
  6
CONTINUOUS
 62
               7
100
AcDbLine
 10
66.400000007614892
 20
59.000000017252574
 30
0.0
 11
66.400000007614892
 21
60.000000017252574
 31
0.0
  0
LINE
  5
4E1
100
AcDbEntity
  8
0
  6
CONTINUOUS
 62
               7
100
AcDbLine
 10
70.400000007614892
 20
59.000000017252574
 30
0.0
 11
70.400000007614892
 21
60.000000017252574
 31
0.0
  0
LINE
  5
4E2
100
AcDbEntity
  8
0
  6
CONTINUOUS
 62
               7
100
AcDbLine
 10
75.999999999998039
 20
0.0
 30
0.0
 11
75.999999999998039
 21
60.000000000000085
 31
0.0
  0
LINE
  5
4E3
100
AcDbEntity
  8
0
  6
CENTER
 62
               2
100
AcDbLine
 10
1.7985163758477256
 20
45.000000017252205
 30
0.0
 11
25.922020897315747
 21
45.00000001725229
 31
0.0
  0
ARC
  5
4E4
100
AcDbEntity
  8
0
  6
CONTINUOUS
 62
               7
100
AcDbCircle
 10
-0.500000000001819
 20
37.500000017252574
 30
0.0
 40
0.5
100
AcDbArc
 50
270.00000000000023
 51
0.0
  0
ARC
  5
4E5
100
AcDbEntity
  8
0
  6
CONTINUOUS
 62
               7
100
AcDbCircle
 10
-5.0000000000018758
 20
1.0
 30
0.0
 40
1.0
100
AcDbArc
 50
179.99999999999963
 51
269.99999999999937
  0
CIRCLE
  5
4E6
100
AcDbEntity
  8
0
  6
CONTINUOUS
 62
               2
100
AcDbCircle
 10
13.99999999999801
 20
17.000000017252347
 30
0.0
 40
10.477499999999999
  0
CIRCLE
  5
4E7
100
AcDbEntity
  8
0
  6
CONTINUOUS
 62
               7
100
AcDbCircle
 10
13.99999999999801
 20
17.000000017252347
 30
0.0
 40
9.3155000000000001
  0
LINE
  5
4E8
100
AcDbEntity
  8
0
  6
CENTER
 62
               2
100
AcDbLine
 10
1.7985163758477256
 20
17.000000017252205
 30
0.0
 11
25.922020897315747
 21
17.00000001725229
 31
0.0
  0
LINE
  5
4E9
100
AcDbEntity
  8
0
  6
CENTER
 62
               2
100
AcDbLine
 10
13.99999999999801
 20
56.921033573129989
 30
0.0
 11
13.99999999999801
 21
3.4529488789277991
 31
0.0
  0
ARC
  5
4EA
100
AcDbEntity
  8
0
  6
CONTINUOUS
 62
               7
100
AcDbCircle
 10
-5.000000000001819
 20
36.000000017252574
 30
0.0
 40
1.0
100
AcDbArc
 50
89.999999999999815
 51
179.99999999999963
  0
LINE
  5
4EB
100
AcDbEntity
  8
0
  6
CONTINUOUS
 62
               7
100
AcDbLine
 10
-6.0000000000018758
 20
1.0
 30
0.0
 11
-6.000000000001819
 21
36.000000017252574
 31
0.0
  0
LINE
  5
4EC
100
AcDbEntity
  8
0
  6
CONTINUOUS
 62
               7
100
AcDbLine
 10
-0.500000000001819
 20
37.000000017252574
 30
0.0
 11
-5.000000000001819
 21
37.000000017252574
 31
0.0
  0
LINE
  5
4ED
100
AcDbEntity
  8
0
  6
CONTINUOUS
 62
               7
100
AcDbLine
 10
-0.000000000001819
 20
37.500000017252574
 30
0.0
 11
-0.0000000000017621
 21
59.000000017252574
 31
0.0
  0
ARC
  5
4EE
100
AcDbEntity
  8
0
  6
CONTINUOUS
 62
               7
100
AcDbCircle
 10
0.9999999999982379
 20
59.000000017252574
 30
0.0
 40
1.0
100
AcDbArc
 50
89.999999999999815
 51
179.99999999999963
  0
CIRCLE
  5
4EF
100
AcDbEntity
  8
0
  6
CONTINUOUS
 62
               7
100
AcDbCircle
 10
13.99999999999801
 20
45.000000017252376
 30
0.0
 40
9.3155000000000001
  0
CIRCLE
  5
4F0
100
AcDbEntity
  8
0
  6
CONTINUOUS
 62
               2
100
AcDbCircle
 10
13.99999999999801
 20
45.000000017252376
 30
0.0
 40
10.477499999999999
  0
LINE
  5
4F1
100
AcDbEntity
  8
0
  6
CENTER
 62
               2
100
AcDbLine
 10
102.20148362414841
 20
45.000000017252205
 30
0.0
 11
78.077979102680388
 21
45.00000001725229
 31
0.0
  0
ARC
  5
4F2
100
AcDbEntity
  8
0
  6
CONTINUOUS
 62
               7
100
AcDbCircle
 10
104.49999999999795
 20
37.500000017252574
 30
0.0
 40
0.5
100
AcDbArc
 50
179.99999999999963
 51
269.99999999999937
  0
ARC
  5
4F3
100
AcDbEntity
  8
0
  6
CONTINUOUS
 62
               7
100
AcDbCircle
 10
108.99999999999801
 20
1.0
 30
0.0
 40
1.0
100
AcDbArc
 50
270.00000000000023
 51
0.0
  0
CIRCLE
  5
4F4
100
AcDbEntity
  8
0
  6
CONTINUOUS
 62
               2
100
AcDbCircle
 10
89.999999999998124
 20
17.000000017252347
 30
0.0
 40
10.477499999999999
  0
CIRCLE
  5
4F5
100
AcDbEntity
  8
0
  6
CONTINUOUS
 62
               7
100
AcDbCircle
 10
89.999999999998124
 20
17.000000017252347
 30
0.0
 40
9.3155000000000001
  0
LINE
  5
4F6
100
AcDbEntity
  8
0
  6
CENTER
 62
               2
100
AcDbLine
 10
102.20148362414841
 20
17.000000017252205
 30
0.0
 11
78.077979102680388
 21
17.00000001725229
 31
0.0
  0
LINE
  5
4F7
100
AcDbEntity
  8
0
  6
CENTER
 62
               2
100
AcDbLine
 10
89.999999999998124
 20
56.921033573129989
 30
0.0
 11
89.999999999998124
 21
3.4529488789277991
 31
0.0
  0
LINE
  5
4F8
100
AcDbEntity
  8
0
  6
CONTINUOUS
 62
               7
100
AcDbLine
 10
75.999999999998124
 20
0.0
 30
0.0
 11
108.99999999999801
 21
0.0
 31
0.0
  0
ARC
  5
4F9
100
AcDbEntity
  8
0
  6
CONTINUOUS
 62
               7
100
AcDbCircle
 10
108.99999999999795
 20
36.000000017252574
 30
0.0
 40
1.0
100
AcDbArc
 50
0.0
 51
89.999999999999815
  0
LINE
  5
4FA
100
AcDbEntity
  8
0
  6
CONTINUOUS
 62
               7
100
AcDbLine
 10
109.99999999999801
 20
1.0
 30
0.0
 11
109.99999999999795
 21
36.000000017252574
 31
0.0
  0
LINE
  5
4FB
100
AcDbEntity
  8
0
  6
CONTINUOUS
 62
               7
100
AcDbLine
 10
104.49999999999795
 20
37.000000017252574
 30
0.0
 11
108.99999999999795
 21
37.000000017252574
 31
0.0
  0
LINE
  5
4FC
100
AcDbEntity
  8
0
  6
CONTINUOUS
 62
               7
100
AcDbLine
 10
103.99999999999795
 20
37.500000017252574
 30
0.0
 11
103.9999999999979
 21
59.000000017252574
 31
0.0
  0
ARC
  5
4FD
100
AcDbEntity
  8
0
  6
CONTINUOUS
 62
               7
100
AcDbCircle
 10
102.9999999999979
 20
59.000000017252574
 30
0.0
 40
1.0
100
AcDbArc
 50
0.0
 51
89.999999999999815
  0
CIRCLE
  5
4FE
100
AcDbEntity
  8
0
  6
CONTINUOUS
 62
               7
100
AcDbCircle
 10
89.999999999998124
 20
45.000000017252376
 30
0.0
 40
9.3155000000000001
  0
CIRCLE
  5
4FF
100
AcDbEntity
  8
0
  6
CONTINUOUS
 62
               2
100
AcDbCircle
 10
89.999999999998124
 20
45.000000017252376
 30
0.0
 40
10.477499999999999
  0
LINE
  5
500
100
AcDbEntity
  8
0
  6
CONTINUOUS
 62
               7
100
AcDbLine
 10
75.999999999998124
 20
60.000000017252574
 30
0.0
 11
102.9999999999979
 21
60.000000017252574
 31
0.0
  0
LINE
  5
501
100
AcDbEntity
  8
0
  6
CONTINUOUS
 62
               7
100
AcDbLine
 10
52.500000008087625
 20
107.00000002196265
 30
0.0
 11
75.500000008087682
 21
107.00000002196265
 31
0.0
  0
ARC
  5
502
100
AcDbEntity
  8
0
  6
CONTINUOUS
 62
               7
100
AcDbCircle
 10
75.500000008087682
 20
106.50000002196265
 30
0.0
 40
0.5
100
AcDbArc
 50
0.0
 51
89.999999999999815
  0
ARC
  5
503
100
AcDbEntity
  8
0
  6
CONTINUOUS
 62
               7
100
AcDbCircle
 10
52.500000008087625
 20
106.50000002196265
 30
0.0
 40
0.5
100
AcDbArc
 50
89.999999999999815
 51
179.99999999999963
  0
LINE
  5
504
100
AcDbEntity
  8
0
  6
CONTINUOUS
 62
               7
100
AcDbLine
 10
61.850000015229853
 20
107.00000004033959
 30
0.0
 11
61.850000015229853
 21
102.00000002196361
 31
0.0
  0
LINE
  5
505
100
AcDbEntity
  8
0
  6
CONTINUOUS
 62
               7
100
AcDbLine
 10
57.350000015229853
 20
107.00000004033959
 30
0.0
 11
57.350000015229853
 21
102.00000002196361
 31
0.0
  0
LINE
  5
506
100
AcDbEntity
  8
0
  6
CONTINUOUS
 62
               7
100
AcDbLine
 10
76.000000008087682
 20
106.50000002196265
 30
0.0
 11
76.000000008087682
 21
102.00000002196361
 31
0.0
  0
LINE
  5
507
100
AcDbEntity
  8
0
  6
CONTINUOUS
 62
               7
100
AcDbLine
 10
52.099999984764082
 20
102.00000002196364
 30
0.0
 11
52.000000008087625
 21
102.00000002196364
 31
0.0
  0
LINE
  5
508
100
AcDbEntity
  8
0
  6
CONTINUOUS
 62
               7
100
AcDbLine
 10
76.000000008087682
 20
102.00000002196361
 30
0.0
 11
75.900000015230717
 21
102.00000002196361
 31
0.0
  0
LINE
  5
509
100
AcDbEntity
  8
0
  6
CONTINUOUS
 62
               7
100
AcDbLine
 10
68.022789737085873
 20
114.00000002196356
 30
0.0
 11
68.022789737085873
 21
107.00000002196265
 31
0.0
  0
LINE
  5
50A
100
AcDbEntity
  8
0
  6
CONTINUOUS
 62
               7
100
AcDbLine
 10
71.821054732346113
 20
114.00000002196356
 30
0.0
 11
71.821054732346113
 21
107.00000002196265
 31
0.0
  0
LINE
  5
50B
100
AcDbEntity
  8
0
  6
CONTINUOUS
 62
               7
100
AcDbLine
 10
75.099999992854578
 20
113.00000000061033
 30
0.0
 11
75.099999992854578
 21
107.00000002196339
 31
0.0
  0
LINE
  5
50C
100
AcDbEntity
  8
0
  6
CONTINUOUS
 62
               7
100
AcDbLine
 10
53.099999992854521
 20
113.00000000061033
 30
0.0
 11
53.099999992854521
 21
107.00000002196361
 31
0.0
  0
ARC
  5
50D
100
AcDbEntity
  8
0
  6
CONTINUOUS
 62
               7
100
AcDbCircle
 10
74.099999992854578
 20
113.00000002196356
 30
0.0
 40
1.0
100
AcDbArc
 50
0.0
 51
89.999999999999815
  0
LINE
  5
50E
100
AcDbEntity
  8
0
  6
CONTINUOUS
 62
               7
100
AcDbLine
 10
74.099999992854578
 20
114.00000002196356
 30
0.0
 11
54.099999992854578
 21
114.00000002196356
 31
0.0
  0
ARC
  5
50F
100
AcDbEntity
  8
0
  6
CONTINUOUS
 62
               7
100
AcDbCircle
 10
54.099999992854578
 20
113.00000002196356
 30
0.0
 40
1.0
100
AcDbArc
 50
89.999999999999815
 51
179.99999999999963
  0
ARC
  5
510
100
AcDbEntity
  8
0
  6
CONTINUOUS
 62
               7
100
AcDbCircle
 10
50.099999992854578
 20
113.00000001725252
 30
0.0
 40
1.0
100
AcDbArc
 50
0.0
 51
89.999999999999815
  0
ARC
  5
511
100
AcDbEntity
  8
0
  6
CONTINUOUS
 62
               7
100
AcDbCircle
 10
30.099999992854578
 20
113.00000001725252
 30
0.0
 40
1.0
100
AcDbArc
 50
89.999999999999815
 51
179.99999999999963
  0
LINE
  5
512
100
AcDbEntity
  8
0
  6
CONTINUOUS
 62
               7
100
AcDbLine
 10
50.099999992854578
 20
114.00000001725252
 30
0.0
 11
30.099999992854578
 21
114.00000001725252
 31
0.0
  0
LINE
  5
513
100
AcDbEntity
  8
0
  6
CONTINUOUS
 62
               7
100
AcDbLine
 10
29.099999992854521
 20
112.99999999589929
 30
0.0
 11
29.099999992854521
 21
107.00000001725257
 31
0.0
  0
LINE
  5
514
100
AcDbEntity
  8
0
  6
CONTINUOUS
 62
               7
100
AcDbLine
 10
51.099999992854578
 20
112.99999999589929
 30
0.0
 11
51.099999992854578
 21
107.00000001725235
 31
0.0
  0
LINE
  5
515
100
AcDbEntity
  8
0
  6
CONTINUOUS
 62
               7
100
AcDbLine
 10
47.821054732346113
 20
114.00000001725252
 30
0.0
 11
47.821054732346113
 21
107.00000001725161
 31
0.0
  0
LINE
  5
516
100
AcDbEntity
  8
0
  6
CONTINUOUS
 62
               7
100
AcDbLine
 10
44.022789737085873
 20
114.00000001725252
 30
0.0
 11
44.022789737085873
 21
107.00000001725161
 31
0.0
  0
LINE
  5
517
100
AcDbEntity
  8
0
  6
CONTINUOUS
 62
               7
100
AcDbLine
 10
52.000000008087682
 20
102.00000001725257
 30
0.0
 11
51.900000015230717
 21
102.00000001725257
 31
0.0
  0
LINE
  5
518
100
AcDbEntity
  8
0
  6
CONTINUOUS
 62
               7
100
AcDbLine
 10
28.099999984764082
 20
102.0000000172526
 30
0.0
 11
28.000000008087625
 21
102.0000000172526
 31
0.0
  0
LINE
  5
519
100
AcDbEntity
  8
0
  6
CONTINUOUS
 62
               7
100
AcDbLine
 10
52.000000008087682
 20
106.50000001725161
 30
0.0
 11
52.000000008087682
 21
102.00000001725257
 31
0.0
  0
LINE
  5
51A
100
AcDbEntity
  8
0
  6
CONTINUOUS
 62
               7
100
AcDbLine
 10
28.000000008087625
 20
106.50000001725161
 30
0.0
 11
28.000000008087625
 21
102.0000000172526
 31
0.0
  0
LINE
  5
51B
100
AcDbEntity
  8
0
  6
CONTINUOUS
 62
               7
100
AcDbLine
 10
33.350000015229853
 20
107.00000003562855
 30
0.0
 11
33.350000015229853
 21
102.00000001725257
 31
0.0
  0
LINE
  5
51C
100
AcDbEntity
  8
0
  6
CONTINUOUS
 62
               7
100
AcDbLine
 10
37.850000015229853
 20
107.00000003562855
 30
0.0
 11
37.850000015229853
 21
102.00000001725257
 31
0.0
  0
ARC
  5
51D
100
AcDbEntity
  8
0
  6
CONTINUOUS
 62
               7
100
AcDbCircle
 10
28.500000008087625
 20
106.50000001725161
 30
0.0
 40
0.5
100
AcDbArc
 50
89.999999999999815
 51
179.99999999999963
  0
ARC
  5
51E
100
AcDbEntity
  8
0
  6
CONTINUOUS
 62
               7
100
AcDbCircle
 10
51.500000008087682
 20
106.50000001725161
 30
0.0
 40
0.5
100
AcDbArc
 50
0.0
 51
89.999999999999815
  0
LINE
  5
51F
100
AcDbEntity
  8
0
  6
CONTINUOUS
 62
               7
100
AcDbLine
 10
28.500000008087625
 20
107.00000001725161
 30
0.0
 11
51.500000008087682
 21
107.00000001725161
 31
0.0
  0
CIRCLE
  5
520
100
AcDbEntity
  8
0
  6
CONTINUOUS
 62
               4
100
AcDbCircle
 10
56.999999999997385
 20
97.300000021963612
 30
0.0
 40
2.0999999999999943
  0
ARC
  5
521
100
AcDbEntity
  8
0
  6
CONTINUOUS
 62
               4
100
AcDbCircle
 10
60.400000015230717
 20
94.100000021963595
 30
0.0
 40
0.5
100
AcDbArc
 50
270.00000000000023
 51
0.0
  0
ARC
  5
522
100
AcDbEntity
  8
0
  6
CONTINUOUS
 62
               4
100
AcDbCircle
 10
60.400000015230717
 20
100.50000002196361
 30
0.0
 40
0.5
100
AcDbArc
 50
0.0
 51
89.999999999999815
  0
LINE
  5
523
100
AcDbEntity
  8
0
  6
CENTER
 62
             200
100
AcDbLine
 10
56.999999999997385
 20
101.85551698887159
 30
0.0
 11
56.999999999997385
 21
92.88164912070242
 31
0.0
  0
LINE
  5
524
100
AcDbEntity
  8
0
  6
CONTINUOUS
 62
               4
100
AcDbLine
 10
60.900000015230717
 20
100.50000002196361
 30
0.0
 11
60.900000015230717
 21
94.100000021963595
 31
0.0
  0
ARC
  5
525
100
AcDbEntity
  8
0
  6
CONTINUOUS
 62
               4
100
AcDbCircle
 10
53.599999984764082
 20
94.100000021963595
 30
0.0
 40
0.5
100
AcDbArc
 50
179.99999999999963
 51
269.99999999999937
  0
ARC
  5
526
100
AcDbEntity
  8
0
  6
CONTINUOUS
 62
               4
100
AcDbCircle
 10
53.599999984764082
 20
100.50000002196361
 30
0.0
 40
0.5
100
AcDbArc
 50
89.999999999999815
 51
179.99999999999963
  0
LINE
  5
527
100
AcDbEntity
  8
0
  6
CONTINUOUS
 62
               4
100
AcDbLine
 10
53.099999984764082
 20
100.50000002196361
 30
0.0
 11
53.099999984764082
 21
94.100000021963595
 31
0.0
  0
LINE
  5
528
100
AcDbEntity
  8
0
  6
CONTINUOUS
 62
               4
100
AcDbLine
 10
60.400000015230717
 20
101.00000002196361
 30
0.0
 11
53.599999984764082
 21
101.00000002196361
 31
0.0
  0
LINE
  5
529
100
AcDbEntity
  8
0
  6
CONTINUOUS
 62
               4
100
AcDbLine
 10
60.400000015230717
 20
93.600000021963595
 30
0.0
 11
53.599999984764082
 21
93.600000021963595
 31
0.0
  0
LINE
  5
52A
100
AcDbEntity
  8
0
  6
CENTER
 62
             200
100
AcDbLine
 10
52.251330068799177
 20
97.300000021963626
 30
0.0
 11
61.730432012936745
 21
97.300000021963598
 31
0.0
  0
LINE
  5
52B
100
AcDbEntity
  8
0
  6
CONTINUOUS
 62
               4
100
AcDbLine
 10
55.063508326893697
 20
96.800000021963598
 30
0.0
 11
58.936491673101102
 21
96.800000021963612
 31
0.0
  0
LINE
  5
52C
100
AcDbEntity
  8
0
  6
CONTINUOUS
 62
               4
100
AcDbLine
 10
55.063508326893697
 20
97.800000021963598
 30
0.0
 11
58.936491673101102
 21
97.800000021963626
 31
0.0
  0
CIRCLE
  5
52D
100
AcDbEntity
  8
0
  6
CONTINUOUS
 62
               4
100
AcDbCircle
 10
56.999999999997385
 20
97.300000021963626
 30
0.0
 40
2.0
  0
ARC
  5
52E
100
AcDbEntity
  8
0
  6
CONTINUOUS
 62
               4
100
AcDbCircle
 10
56.999999999997385
 20
97.300000021963626
 30
0.0
 40
1.7000000000000002
100
AcDbArc
 50
197.10463517664337
 51
342.89536482335581
  0
ARC
  5
52F
100
AcDbEntity
  8
0
  6
CONTINUOUS
 62
               4
100
AcDbCircle
 10
56.999999999997385
 20
97.300000021963626
 30
0.0
 40
1.7000000000000002
100
AcDbArc
 50
17.104635176644088
 51
162.89536482335612
  0
LINE
  5
530
100
AcDbEntity
  8
0
  6
CONTINUOUS
 62
               4
100
AcDbLine
 10
58.900000007614693
 20
77.000000021963615
 30
0.0
 11
58.900000007614693
 21
75.000000021963615
 31
0.0
  0
LINE
  5
531
100
AcDbEntity
  8
0
  6
CONTINUOUS
 62
               4
100
AcDbLine
 10
55.59999999238056
 20
77.000000021963615
 30
0.0
 11
55.59999999238056
 21
75.000000021963615
 31
0.0
  0
LINE
  5
532
100
AcDbEntity
  8
0
  6
CONTINUOUS
 62
               4
100
AcDbLine
 10
54.599999999997635
 20
85.000000021963615
 30
0.0
 11
54.099999999997635
 21
85.000000021963615
 31
0.0
  0
LINE
  5
533
100
AcDbEntity
  8
0
  6
CONTINUOUS
 62
               4
100
AcDbLine
 10
60.399999999997618
 20
85.000000021963615
 30
0.0
 11
60.399999999997618
 21
80.000000021963615
 31
0.0
  0
LINE
  5
534
100
AcDbEntity
  8
0
  6
CONTINUOUS
 62
               4
100
AcDbLine
 10
54.099999999997635
 20
85.000000021963615
 30
0.0
 11
54.099999999997635
 21
80.000000021963615
 31
0.0
  0
LINE
  5
535
100
AcDbEntity
  8
0
  6
CONTINUOUS
 62
               4
100
AcDbLine
 10
60.399999999997618
 20
85.000000021963615
 30
0.0
 11
59.899999999997618
 21
85.000000021963615
 31
0.0
  0
LINE
  5
536
100
AcDbEntity
  8
0
  6
CONTINUOUS
 62
               4
100
AcDbLine
 10
54.599999999997635
 20
85.000000021963615
 30
0.0
 11
54.599999999997635
 21
80.000000021963615
 31
0.0
  0
LINE
  5
537
100
AcDbEntity
  8
0
  6
CONTINUOUS
 62
               4
100
AcDbLine
 10
59.899999999997618
 20
85.000000021963615
 30
0.0
 11
59.899999999997618
 21
80.000000021963615
 31
0.0
  0
LINE
  5
538
100
AcDbEntity
  8
0
  6
CONTINUOUS
 62
               4
100
AcDbLine
 10
58.900000007614693
 20
76.300000021963626
 30
0.0
 11
55.59999999238056
 21
76.300000021963626
 31
0.0
  0
LINE
  5
539
100
AcDbEntity
  8
0
  6
CONTINUOUS
 62
               4
100
AcDbLine
 10
58.900000007614693
 20
76.800000021963626
 30
0.0
 11
55.59999999238056
 21
76.800000021963626
 31
0.0
  0
LINE
  5
53A
100
AcDbEntity
  8
0
  6
CONTINUOUS
 62
               4
100
AcDbLine
 10
57.600000007614085
 20
102.00000002196364
 30
0.0
 11
57.350000015229853
 21
102.00000002196364
 31
0.0
  0
LINE
  5
53B
100
AcDbEntity
  8
0
  6
CONTINUOUS
 62
               4
100
AcDbLine
 10
61.100000007614113
 20
106.50000002196364
 30
0.0
 11
58.100000007614113
 21
106.50000002196364
 31
0.0
  0
ARC
  5
53C
100
AcDbEntity
  8
0
  6
CONTINUOUS
 62
               4
100
AcDbCircle
 10
58.100000007614113
 20
106.00000002196364
 30
0.0
 40
0.5
100
AcDbArc
 50
89.999999999999815
 51
179.99999999999963
  0
ARC
  5
53D
100
AcDbEntity
  8
0
  6
CONTINUOUS
 62
               4
100
AcDbCircle
 10
61.100000007614113
 20
106.00000002196364
 30
0.0
 40
0.5
100
AcDbArc
 50
0.0
 51
89.999999999999815
  0
LINE
  5
53E
100
AcDbEntity
  8
0
  6
CONTINUOUS
 62
               4
100
AcDbLine
 10
61.600000007614113
 20
106.00000002196361
 30
0.0
 11
61.600000007614085
 21
102.00000002196361
 31
0.0
  0
LINE
  5
53F
100
AcDbEntity
  8
0
  6
CONTINUOUS
 62
               4
100
AcDbLine
 10
57.600000007614113
 20
106.00000002196364
 30
0.0
 11
57.600000007614085
 21
102.00000002196364
 31
0.0
  0
LINE
  5
540
100
AcDbEntity
  8
0
  6
CONTINUOUS
 62
               7
100
AcDbLine
 10
75.900000015230717
 20
102.00000002196361
 30
0.0
 11
61.850000015229853
 21
102.00000002196361
 31
0.0
  0
LINE
  5
541
100
AcDbEntity
  8
0
  6
CONTINUOUS
 62
               4
100
AcDbLine
 10
75.900000015230717
 20
80.000000021963615
 30
0.0
 11
52.099999984764082
 21
80.000000021963615
 31
0.0
  0
LINE
  5
542
100
AcDbEntity
  8
0
  6
CONTINUOUS
 62
               4
100
AcDbLine
 10
52.099999984764082
 20
102.00000002196364
 30
0.0
 11
52.099999984764082
 21
80.000000021963615
 31
0.0
  0
LINE
  5
543
100
AcDbEntity
  8
0
  6
CONTINUOUS
 62
               4
100
AcDbLine
 10
75.900000015230717
 20
102.00000002196361
 30
0.0
 11
75.900000015230717
 21
80.000000021963615
 31
0.0
  0
LINE
  5
544
100
AcDbEntity
  8
0
  6
CONTINUOUS
 62
               4
100
AcDbLine
 10
55.099999984764082
 20
77.000000021963615
 30
0.0
 11
59.399999984764065
 21
77.000000021963615
 31
0.0
  0
LINE
  5
545
100
AcDbEntity
  8
0
  6
CONTINUOUS
 62
               4
100
AcDbLine
 10
55.099999984764082
 20
75.000000021963615
 30
0.0
 11
59.399999984764065
 21
75.000000021963615
 31
0.0
  0
LINE
  5
546
100
AcDbEntity
  8
0
  6
CONTINUOUS
 62
               4
100
AcDbLine
 10
59.399999984764065
 20
75.000000021963615
 30
0.0
 11
59.399999984764065
 21
77.000000021963615
 31
0.0
  0
LINE
  5
547
100
AcDbEntity
  8
0
  6
CONTINUOUS
 62
               4
100
AcDbLine
 10
55.099999984764082
 20
75.000000021963615
 30
0.0
 11
55.099999984764082
 21
77.000000021963615
 31
0.0
  0
ARC
  5
548
100
AcDbEntity
  8
0
  6
CONTINUOUS
 62
               4
100
AcDbCircle
 10
36.400000015230717
 20
94.100000017252555
 30
0.0
 40
0.5
100
AcDbArc
 50
270.00000000000023
 51
0.0
  0
ARC
  5
549
100
AcDbEntity
  8
0
  6
CONTINUOUS
 62
               4
100
AcDbCircle
 10
36.400000015230717
 20
100.50000001725257
 30
0.0
 40
0.5
100
AcDbArc
 50
0.0
 51
89.999999999999815
  0
LINE
  5
54A
100
AcDbEntity
  8
0
  6
CENTER
 62
             200
100
AcDbLine
 10
32.999999999997385
 20
101.85551698416054
 30
0.0
 11
32.999999999997385
 21
92.88164911599138
 31
0.0
  0
LINE
  5
54B
100
AcDbEntity
  8
0
  6
CONTINUOUS
 62
               4
100
AcDbLine
 10
36.900000015230717
 20
100.50000001725257
 30
0.0
 11
36.900000015230717
 21
94.100000017252555
 31
0.0
  0
ARC
  5
54C
100
AcDbEntity
  8
0
  6
CONTINUOUS
 62
               4
100
AcDbCircle
 10
29.599999984764082
 20
94.100000017252555
 30
0.0
 40
0.5
100
AcDbArc
 50
179.99999999999963
 51
269.99999999999937
  0
ARC
  5
54D
100
AcDbEntity
  8
0
  6
CONTINUOUS
 62
               4
100
AcDbCircle
 10
29.599999984764082
 20
100.50000001725257
 30
0.0
 40
0.5
100
AcDbArc
 50
89.999999999999815
 51
179.99999999999963
  0
LINE
  5
54E
100
AcDbEntity
  8
0
  6
CONTINUOUS
 62
               4
100
AcDbLine
 10
29.099999984764082
 20
100.50000001725257
 30
0.0
 11
29.099999984764082
 21
94.100000017252555
 31
0.0
  0
LINE
  5
54F
100
AcDbEntity
  8
0
  6
CONTINUOUS
 62
               4
100
AcDbLine
 10
36.400000015230717
 20
101.00000001725257
 30
0.0
 11
29.599999984764082
 21
101.00000001725257
 31
0.0
  0
LINE
  5
550
100
AcDbEntity
  8
0
  6
CONTINUOUS
 62
               4
100
AcDbLine
 10
36.400000015230717
 20
93.600000017252555
 30
0.0
 11
29.599999984764082
 21
93.600000017252555
 31
0.0
  0
LINE
  5
551
100
AcDbEntity
  8
0
  6
CENTER
 62
             200
100
AcDbLine
 10
28.251330068799177
 20
97.300000017252586
 30
0.0
 11
37.730432012936745
 21
97.300000017252557
 31
0.0
  0
LINE
  5
552
100
AcDbEntity
  8
0
  6
CONTINUOUS
 62
               4
100
AcDbLine
 10
31.063508326893697
 20
96.800000017252557
 30
0.0
 11
34.936491673101102
 21
96.800000017252572
 31
0.0
  0
LINE
  5
553
100
AcDbEntity
  8
0
  6
CONTINUOUS
 62
               4
100
AcDbLine
 10
31.063508326893697
 20
97.800000017252557
 30
0.0
 11
34.936491673101102
 21
97.800000017252586
 31
0.0
  0
CIRCLE
  5
554
100
AcDbEntity
  8
0
  6
CONTINUOUS
 62
               4
100
AcDbCircle
 10
32.999999999997385
 20
97.300000017252586
 30
0.0
 40
2.0
  0
ARC
  5
555
100
AcDbEntity
  8
0
  6
CONTINUOUS
 62
               4
100
AcDbCircle
 10
32.999999999997385
 20
97.300000017252586
 30
0.0
 40
1.7000000000000002
100
AcDbArc
 50
197.10463517664337
 51
342.89536482335581
  0
ARC
  5
556
100
AcDbEntity
  8
0
  6
CONTINUOUS
 62
               4
100
AcDbCircle
 10
32.999999999997385
 20
97.300000017252586
 30
0.0
 40
1.7000000000000002
100
AcDbArc
 50
17.104635176644088
 51
162.89536482335612
  0
CIRCLE
  5
557
100
AcDbEntity
  8
0
  6
CONTINUOUS
 62
               4
100
AcDbCircle
 10
32.999999999997385
 20
97.300000017252586
 30
0.0
 40
2.1000000000000001
  0
LINE
  5
558
100
AcDbEntity
  8
0
  6
CONTINUOUS
 62
               4
100
AcDbLine
 10
34.900000007614693
 20
77.000000017252574
 30
0.0
 11
34.900000007614693
 21
75.000000017252574
 31
0.0
  0
LINE
  5
559
100
AcDbEntity
  8
0
  6
CONTINUOUS
 62
               4
100
AcDbLine
 10
31.59999999238056
 20
77.000000017252574
 30
0.0
 11
31.59999999238056
 21
75.000000017252574
 31
0.0
  0
LINE
  5
55A
100
AcDbEntity
  8
0
  6
CONTINUOUS
 62
               4
100
AcDbLine
 10
30.599999999997635
 20
85.000000017252574
 30
0.0
 11
30.099999999997635
 21
85.000000017252574
 31
0.0
  0
LINE
  5
55B
100
AcDbEntity
  8
0
  6
CONTINUOUS
 62
               4
100
AcDbLine
 10
36.399999999997618
 20
85.000000017252574
 30
0.0
 11
36.399999999997618
 21
80.000000017252574
 31
0.0
  0
LINE
  5
55C
100
AcDbEntity
  8
0
  6
CONTINUOUS
 62
               4
100
AcDbLine
 10
30.099999999997635
 20
85.000000017252574
 30
0.0
 11
30.099999999997635
 21
80.000000017252574
 31
0.0
  0
LINE
  5
55D
100
AcDbEntity
  8
0
  6
CONTINUOUS
 62
               4
100
AcDbLine
 10
36.399999999997618
 20
85.000000017252574
 30
0.0
 11
35.899999999997618
 21
85.000000017252574
 31
0.0
  0
LINE
  5
55E
100
AcDbEntity
  8
0
  6
CONTINUOUS
 62
               4
100
AcDbLine
 10
30.599999999997635
 20
85.000000017252574
 30
0.0
 11
30.599999999997635
 21
80.000000017252574
 31
0.0
  0
LINE
  5
55F
100
AcDbEntity
  8
0
  6
CONTINUOUS
 62
               4
100
AcDbLine
 10
35.899999999997618
 20
85.000000017252574
 30
0.0
 11
35.899999999997618
 21
80.000000017252574
 31
0.0
  0
LINE
  5
560
100
AcDbEntity
  8
0
  6
CONTINUOUS
 62
               4
100
AcDbLine
 10
34.900000007614693
 20
76.300000017252586
 30
0.0
 11
31.59999999238056
 21
76.300000017252586
 31
0.0
  0
LINE
  5
561
100
AcDbEntity
  8
0
  6
CONTINUOUS
 62
               4
100
AcDbLine
 10
34.900000007614693
 20
76.800000017252586
 30
0.0
 11
31.59999999238056
 21
76.800000017252586
 31
0.0
  0
LINE
  5
562
100
AcDbEntity
  8
0
  6
CONTINUOUS
 62
               4
100
AcDbLine
 10
33.600000007614085
 20
102.0000000172526
 30
0.0
 11
33.350000015229853
 21
102.0000000172526
 31
0.0
  0
LINE
  5
563
100
AcDbEntity
  8
0
  6
CONTINUOUS
 62
               4
100
AcDbLine
 10
37.100000007614113
 20
106.5000000172526
 30
0.0
 11
34.100000007614113
 21
106.5000000172526
 31
0.0
  0
ARC
  5
564
100
AcDbEntity
  8
0
  6
CONTINUOUS
 62
               4
100
AcDbCircle
 10
34.100000007614113
 20
106.0000000172526
 30
0.0
 40
0.5
100
AcDbArc
 50
89.999999999999815
 51
179.99999999999963
  0
ARC
  5
565
100
AcDbEntity
  8
0
  6
CONTINUOUS
 62
               4
100
AcDbCircle
 10
37.100000007614113
 20
106.0000000172526
 30
0.0
 40
0.5
100
AcDbArc
 50
0.0
 51
89.999999999999815
  0
LINE
  5
566
100
AcDbEntity
  8
0
  6
CONTINUOUS
 62
               4
100
AcDbLine
 10
37.600000007614113
 20
106.00000001725257
 30
0.0
 11
37.600000007614085
 21
102.00000001725257
 31
0.0
  0
LINE
  5
567
100
AcDbEntity
  8
0
  6
CONTINUOUS
 62
               4
100
AcDbLine
 10
33.600000007614113
 20
106.0000000172526
 30
0.0
 11
33.600000007614085
 21
102.0000000172526
 31
0.0
  0
LINE
  5
568
100
AcDbEntity
  8
0
  6
CONTINUOUS
 62
               7
100
AcDbLine
 10
51.900000015230717
 20
102.00000001725257
 30
0.0
 11
37.850000015229853
 21
102.00000001725257
 31
0.0
  0
LINE
  5
569
100
AcDbEntity
  8
0
  6
CONTINUOUS
 62
               4
100
AcDbLine
 10
51.900000015230717
 20
80.000000017252574
 30
0.0
 11
28.099999984764082
 21
80.000000017252574
 31
0.0
  0
LINE
  5
56A
100
AcDbEntity
  8
0
  6
CONTINUOUS
 62
               4
100
AcDbLine
 10
28.099999984764082
 20
102.0000000172526
 30
0.0
 11
28.099999984764082
 21
80.000000017252574
 31
0.0
  0
LINE
  5
56B
100
AcDbEntity
  8
0
  6
CONTINUOUS
 62
               4
100
AcDbLine
 10
51.900000015230717
 20
102.00000001725257
 30
0.0
 11
51.900000015230717
 21
80.000000017252574
 31
0.0
  0
LINE
  5
56C
100
AcDbEntity
  8
0
  6
CONTINUOUS
 62
               4
100
AcDbLine
 10
31.099999984764082
 20
77.000000017252574
 30
0.0
 11
35.399999984764065
 21
77.000000017252574
 31
0.0
  0
LINE
  5
56D
100
AcDbEntity
  8
0
  6
CONTINUOUS
 62
               4
100
AcDbLine
 10
31.099999984764082
 20
75.000000017252574
 30
0.0
 11
35.399999984764065
 21
75.000000017252574
 31
0.0
  0
LINE
  5
56E
100
AcDbEntity
  8
0
  6
CONTINUOUS
 62
               4
100
AcDbLine
 10
35.399999984764065
 20
75.000000017252574
 30
0.0
 11
35.399999984764065
 21
77.000000017252574
 31
0.0
  0
LINE
  5
56F
100
AcDbEntity
  8
0
  6
CONTINUOUS
 62
               4
100
AcDbLine
 10
31.099999984764082
 20
75.000000017252574
 30
0.0
 11
31.099999984764082
 21
77.000000017252574
 31
0.0
  0
LINE
  5
570
100
AcDbEntity
  8
0
  6
CONTINUOUS
 62
               7
100
AcDbLine
 10
-5.0000000000018758
 20
0.0
 30
0.0
 11
75.999999999998124
 21
0.0
 31
0.0
  0
LINE
  5
571
100
AcDbEntity
  8
0
  6
CONTINUOUS
 62
               7
100
AcDbLine
 10
0.9999999999982379
 20
60.000000017252574
 30
0.0
 11
75.999999999998039
 21
60.000000017252574
 31
0.0
  0
ENDBLK
  5
572
100
AcDbEntity
  8
0
100
AcDbBlockEnd
  0
BLOCK
  5
592
100
AcDbEntity
  8
0
  6
ByBlock
 62
               0
100
AcDbBlockBegin
  2
_OPEN30
 70
               2
 10
0.0
 20
0.0
 30
0.0
  3
_OPEN30
  1

  0
LINE
  5
593
100
AcDbEntity
  8
0
  6
ByBlock
 62
               0
100
AcDbLine
 10
-1.0
 20
0.267949
 30
0.0
 11
0.0
 21
0.0
 31
0.0
  0
LINE
  5
594
100
AcDbEntity
  8
0
  6
ByBlock
 62
               0
100
AcDbLine
 10
0.0
 20
0.0
 30
0.0
 11
-1.0
 21
-0.267949
 31
0.0
  0
LINE
  5
595
100
AcDbEntity
  8
0
  6
ByBlock
 62
               0
100
AcDbLine
 10
0.0
 20
0.0
 30
0.0
 11
-1.0
 21
0.0
 31
0.0
  0
ENDBLK
  5
596
100
AcDbEntity
  8
0
  6
ByBlock
 62
               0
100
AcDbBlockEnd
  0
ENDSEC
  0
SECTION
  2
ENTITIES
  0
INSERT
  5
573
100
AcDbEntity
  8
0
  6
ByBlock
100
AcDbBlockReference
  2
PB-H-1
 10
-179.67407291318585
 20
111.91408210634033
 30
0.0
 50
359.99999999999864
  0
INSERT
  5
574
100
AcDbEntity
  8
0
  6
ByBlock
100
AcDbBlockReference
  2
PB-H-2
 10
-179.67407291318327
 20
-153.08591789365954
 30
0.0
  0
INSERT
  5
575
100
AcDbEntity
  8
0
  6
ByBlock
100
AcDbBlockReference
  2
PB-H-3
 10
100.32592708681415
 20
111.91408210634033
 30
0.0
 50
359.99999999999864
  0
INSERT
  5
576
100
AcDbEntity
  8
0
  6
ByBlock
100
AcDbBlockReference
  2
PB-H-4
 10
100.32592708681673
 20
-153.08591789365954
 30
0.0
  0
MTEXT
  5
577
100
AcDbEntity
  8
0
  6
CONTINUOUS
 62
               7
100
AcDbMText
 10
-268.28225814435939
 20
160.5
 30
0.0
 40
6.3000001907348633
 41
0.0
 71
               4
 72
               1
  1
\W1.065;\A1;MODEL:PBM2N
  0
MTEXT
  5
578
100
AcDbEntity
  8
0
  6
CONTINUOUS
 62
               7
100
AcDbMText
 10
170.28099805280428
 20
-185.0
 30
0.0
 40
9.0
 41
0.0
 71
               4
 72
               1
  1
\W1.121;\A1;KOGANEI CORP.
  0
MTEXT
  5
579
100
AcDbEntity
  8
0
  6
CONTINUOUS
 62
               7
100
AcDbMText
 10
198.27702406779611
 20
185.5
 30
0.0
 40
6.3000001907348633
 41
0.0
 71
               4
 72
               1
  1
\W1.311;\A1;Ver. 1.0
  0
LINE
  5
57A
100
AcDbEntity
  8
0
  6
CONTINUOUS
 62
               7
100
AcDbLine
 10
-161.25
 20
195.5
 30
0.0
 11
-161.25
 21
175.5
 31
0.0
  0
LINE
  5
57B
100
AcDbEntity
  8
0
  6
CONTINUOUS
 62
               7
100
AcDbLine
 10
162.0999755859375
 20
195.5
 30
0.0
 11
162.0999755859375
 21
175.5
 31
0.0
  0
LINE
  5
57C
100
AcDbEntity
  8
0
  6
CONTINUOUS
 62
               7
100
AcDbLine
 10
-281.25
 20
175.5
 30
0.0
 11
-161.25
 21
175.5
 31
0.0
  0
LINE
  5
57D
100
AcDbEntity
  8
0
  6
CONTINUOUS
 62
               7
100
AcDbLine
 10
162.0999755859375
 20
175.5
 30
0.0
 11
282.099853515625
 21
175.5
 31
0.0
  0
LINE
  5
57E
100
AcDbEntity
  8
0
  6
CONTINUOUS
 62
               7
100
AcDbLine
 10
162.0999755859375
 20
-175.0
 30
0.0
 11
282.099853515625
 21
-175.0
 31
0.0
  0
LINE
  5
57F
100
AcDbEntity
  8
0
  6
CONTINUOUS
 62
               7
100
AcDbLine
 10
162.0999755859375
 20
-175.0
 30
0.0
 11
162.0999755859375
 21
-195.0
 31
0.0
  0
LINE
  5
580
100
AcDbEntity
  8
0
  6
CONTINUOUS
 62
               7
100
AcDbLine
 10
-281.25
 20
-195.0
 30
0.0
 11
282.099853515625
 21
-195.0
 31
0.0
  0
LINE
  5
581
100
AcDbEntity
  8
0
  6
CONTINUOUS
 62
               7
100
AcDbLine
 10
-281.25
 20
195.5
 30
0.0
 11
-281.25
 21
-195.0
 31
0.0
  0
LINE
  5
582
100
AcDbEntity
  8
0
  6
CONTINUOUS
 62
               7
100
AcDbLine
 10
-281.25
 20
195.5
 30
0.0
 11
282.099853515625
 21
195.5
 31
0.0
  0
LINE
  5
583
100
AcDbEntity
  8
0
  6
CONTINUOUS
 62
               7
100
AcDbLine
 10
282.099853515625
 20
195.5
 30
0.0
 11
282.099853515625
 21
-195.0
 31
0.0
  0
MTEXT
  5
584
100
AcDbEntity
  8
0
  6
CONTINUOUS
 62
               7
100
AcDbMText
 10
-257.93165789425552
 20
189.5
 30
0.0
 40
6.3000001907348633
 41
0.0
 71
               4
 72
               1
  1
\W1.065;\A1;PA/PB SERIES
  0
MTEXT
  5
585
100
AcDbEntity
  8
0
  6
CONTINUOUS
 62
               7
100
AcDbMText
 10
-251.65625088414617
 20
181.5
 30
0.0
 40
6.3000001907348633
 41
0.0
 71
               4
 72
               1
  1
\W1.042;\A1;SAFE BLOCK
  0
MTEXT
  5
586
100
AcDbEntity
  8
0
  6
CONTINUOUS
 62
               2
100
AcDbMText
 10
173.29118620066211
 20
-3.3980288302475969
 30
0.0
 40
4.5
 41
0.0
 71
               4
 72
               1
  1
\W1.041;\A1;PB24(H)C7-U3-G2-H
  0
MTEXT
  5
587
100
AcDbEntity
  8
0
  6
CONTINUOUS
 62
               2
100
AcDbMText
 10
204.76057399787999
 20
-11.398028830247597
 30
0.0
 40
4.5
 41
0.0
 71
               4
 72
               1
  1
\A1;C8-U3-G2-H
  0
MTEXT
  5
588
100
AcDbEntity
  8
0
  6
CONTINUOUS
 62
               2
100
AcDbMText
 10
204.76057399787999
 20
-19.398028830247597
 30
0.0
 40
4.5
 41
0.0
 71
               4
 72
               1
  1
\A1;C9-U3-G2-H
  0
MTEXT
  5
589
100
AcDbEntity
  8
0
  6
CONTINUOUS
 62
               2
100
AcDbMText
 10
49.404227260725676
 20
-11.398028830247597
 30
0.0
 40
4.5
 41
0.0
 71
               4
 72
               1
  1
\W1.041;\A1;PB24(H)C5-U3-G2-H
  0
MTEXT
  5
58A
100
AcDbEntity
  8
0
  6
CONTINUOUS
 62
               2
100
AcDbMText
 10
80.873615057943539
 20
-19.398028830247597
 30
0.0
 40
4.5
 41
0.0
 71
               4
 72
               1
  1
\A1;C6-U3-G2-H
  0
MTEXT
  5
58B
100
AcDbEntity
  8
0
  6
CONTINUOUS
 62
               2
100
AcDbMText
 10
-92.482967322956497
 20
3.9938025298303614
 30
0.0
 40
4.5
 41
0.0
 71
               4
 72
               1
  1
\W1.041;\A1;PB24(H)C7-T3-G2-H
  0
MTEXT
  5
58C
100
AcDbEntity
  8
0
  6
CONTINUOUS
 62
               2
100
AcDbMText
 10
-61.013579525738635
 20
-4.0061974701696386
 30
0.0
 40
4.5
 41
0.0
 71
               4
 72
               1
  1
\A1;C8-T3-G2-H
  0
MTEXT
  5
58D
100
AcDbEntity
  8
0
  6
CONTINUOUS
 62
               2
100
AcDbMText
 10
-61.013579525738635
 20
-12.006197470169639
 30
0.0
 40
4.5
 41
0.0
 71
               4
 72
               1
  1
\A1;C9-T3-G2-H
  0
MTEXT
  5
58E
100
AcDbEntity
  8
0
  6
CONTINUOUS
 62
               2
100
AcDbMText
 10
-233.82161921565674
 20
19.99380252983039
 30
0.0
 40
4.5
 41
0.0
 71
               4
 72
               1
  1
\W1.041;\A1;PB24(H)C5-T3-G2-H
  0
MTEXT
  5
58F
100
AcDbEntity
  8
0
  6
CONTINUOUS
 62
               2
100
AcDbMText
 10
-202.35223141843886
 20
11.99380252983039
 30
0.0
 40
4.5
 41
0.0
 71
               4
 72
               1
  1
\A1;C6-T3-G2-H
  0
MTEXT
  5
590
100
AcDbEntity
  8
0
  6
CONTINUOUS
 62
               7
100
AcDbMText
 10
13.392668613453072
 20
160.5
 30
0.0
 40
6.3000001907348633
 41
0.0
 71
               4
 72
               1
  1
\W1.065;\A1;MODEL:PBM2N
  0
LEADER
  5
597
100
AcDbEntity
  8
0
  6
CONTINUOUS
 62
               2
100
AcDbLeader
  3
MXDIMSTYLE
 73
               3
 74
               0
 75
               0
 40
0.0
 76
               3
 10
-115.67407291318582
 20
12.914082128304159
 30
0.0
 10
-98.787972398960051
 20
-16.333501904049911
 30
0.0
 10
-14.652543016635832
 20
-16.333501904049911
 30
0.0
 77
               2
1001
ACAD
1000
DSTYLE
1002
{
1070
               6
1000
_OPEN30
1070
               7
1000
_OPEN30
1070
              41
1040
2.77
1070
             173
1070
               1
1070
             341
1005
591
1002
}
  0
LEADER
  5
598
100
AcDbEntity
  8
0
  6
CONTINUOUS
 62
               2
100
AcDbLeader
  3
MXDIMSTYLE
 73
               3
 74
               0
 75
               0
 40
0.0
 76
               3
 10
140.32592708681418
 20
-39.085917876406981
 30
0.0
 10
131.66567304897137
 20
-24.085917871695898
 30
0.0
 10
43.064080031393246
 20
-24.085917871695898
 30
0.0
 77
               2
1001
ACAD
1000
DSTYLE
1002
{
1070
               6
1000
_OPEN30
1070
               7
1000
_OPEN30
1070
              41
1040
2.77
1070
             173
1070
               1
1070
             341
1005
591
1002
}
  0
LEADER
  5
599
100
AcDbEntity
  8
0
  6
CONTINUOUS
 62
               2
100
AcDbLeader
  3
MXDIMSTYLE
 73
               3
 74
               0
 75
               0
 40
0.0
 76
               3
 10
164.32592708681418
 20
-39.085917871695955
 30
0.0
 10
172.98618112465857
 20
-24.085917871695898
 30
0.0
 10
248.49151407143592
 20
-24.085917871695898
 30
0.0
 77
               2
1001
ACAD
1000
DSTYLE
1002
{
1070
               6
1000
_OPEN30
1070
               7
1000
_OPEN30
1070
              41
1040
2.77
1070
             173
1070
               1
1070
             341
1005
591
1002
}
  0
LEADER
  5
59A
100
AcDbEntity
  8
0
  6
CONTINUOUS
 62
               2
100
AcDbLeader
  3
MXDIMSTYLE
 73
               3
 74
               0
 75
               0
 40
0.0
 76
               3
 10
-139.67407291318526
 20
36.91408212830418
 30
0.0
 10
-156.56017342741103
 20
7.6664980959502387
 30
0.0
 10
-236.93592110807509
 20
7.6664980959502387
 30
0.0
 77
               2
1001
ACAD
1000
DSTYLE
1002
{
1070
               6
1000
_OPEN30
1070
               7
1000
_OPEN30
1070
              41
1040
2.77
1070
             173
1070
               1
1070
             341
1005
591
1002
}
  0
LINE
  5
59B
100
AcDbEntity
  8
0
  6
CONTINUOUS
 62
               7
100
AcDbLine
 10
0.4249267578125
 20
195.5
 30
0.0
 11
0.4249267578125
 21
-195.0
 31
0.0
  0
LINE
  5
59C
100
AcDbEntity
  8
0
  6
CONTINUOUS
 62
               7
100
AcDbLine
 10
0.4249267578125
 20
195.5
 30
0.0
 11
0.4249267578125
 21
-195.0
 31
0.0
  0
ENDSEC
  0
SECTION
  2
OBJECTS
  0
DICTIONARY
  5
19
100
AcDbDictionary
  3
ACAD_GROUP
350
1A
  3
ACAD_MLINESTYLE
350
1B
  0
DICTIONARY
  5
1A
102
{ACAD_REACTORS
330
19
102
}
100
AcDbDictionary
  0
DICTIONARY
  5
1B
102
{ACAD_REACTORS
330
19
102
}
100
AcDbDictionary
  3
STANDARD
350
1C
  0
MLINESTYLE
  5
1C
102
{ACAD_REACTORS
330
1B
102
}
100
AcDbMlineStyle
  2
Standard
 70
               0
  3

 62
               0
 51
90.0
 52
90.0
 71
               2
 49
0.5
 62
             256
  6
ByLayer
 49
-0.5
 62
             256
  6
ByLayer
  0
ENDSEC
  0
EOF
