  0
SECTION
  2
HEADER
  9
$ACADVER
  1
AC1003
  9
$EXTMIN
 10
-1.38399994E+02
 20
-9.48000031E+01
  9
$EXTMAX
 10
1.38350006E+02
 20
9.45000000E+01
  9
$LIMMIN
 10
-1.38400994E+02
 20
-9.48010031E+01
  9
$LIMMAX
 10
1.38351006E+02
 20
9.45010000E+01
  9
$SNAPUNIT
 10
1
 20
1
  9
$SNAPBASE
 10
0
 20
0
  9
$GRIDMODE
 70
0
  9
$GRIDUNIT
 10
0
 20
0
  9
$LTSCALE
 40
4.61250000E+00
  9
$TEXTSIZE
 40
3.2
  9
$DIMTAD
 70
0
  9
$LUNITS
 70
2
  9
$LUPREC
 70
4
  9
$FILLETRAD
 40
0
  9
$AUNITS
 70
0
  9
$AUPREC
 70
0
  0
ENDSEC
  0
SECTION
  2
TABLES
  0
TABLE
  2
LTYPE
 70
2
  0
LTYPE
  2
CONTINUOUS
 70
64
  3
Solid-Line
 72
65
 73
0
 40
0
  0
LTYPE
  2
DASHED
 70
64
  3
DASHED
 72
65
 73
2
 40
.75
 49
.5
 49
-.25
  0
LTYPE
  2
HIDDEN
 70
64
  3
HIDDEN
 72
65
 73
2
 40
.375
 49
.25
 49
-.125
  0
LTYPE
  2
CENTER
 70
64
  3
CENTER
 72
65
 73
4
 40
2
 49
1.25
 49
-.25
 49
.25
 49
-.25
  0
LTYPE
  2
PHANTOM
 70
64
  3
PHANTOM
 72
65
 73
6
 40
2.5
 49
1.25
 49
-.25
 49
.25
 49
-.25
 49
.25
 49
-.25
  0
ENDTAB
  0
TABLE
  2
LAYER
 70
1
  0
LAYER
  2
1
 70
0
 62
7
  6
CONTINUOUS
 0
ENDTAB
  0
TABLE
  2
STYLE
 70
2
  0
STYLE
  2
MONOTXT
 70
0
 40
0
 41
1
 50
0
 71
0
 42
.2
  3
monotxt
  0
STYLE
  2
BIGFONT
 70
0
 40
0
 41
1
 50
0
 71
0
 42
.2
  3
txt
  4
bigfont
  0
ENDTAB
  0
ENDSEC
  0
SECTION
  2
ENTITIES
  0
LINE
  8
0
 62
4
 10
4.07391481E+00
 20
4.79061160E+01
 11
4.07391481E+00
 21
4.74061160E+01
  0
LINE
  8
0
  6
CENTER
 62
6
 10
1.57391481E+00
 20
5.07783748E+01
 11
1.57391481E+00
 21
2.39861160E+01
  0
LINE
  8
0
 62
4
 10
-9.26085187E-01
 20
4.79061160E+01
 11
-9.26085187E-01
 21
4.74061160E+01
  0
LINE
  8
0
  6
CENTER
 62
6
 10
4.15639148E+01
 20
5.07783748E+01
 11
4.15639148E+01
 21
2.39861160E+01
  0
LINE
  8
0
 62
4
 10
4.40639148E+01
 20
4.79061160E+01
 11
4.40639148E+01
 21
4.74061160E+01
  0
LINE
  8
0
 62
4
 10
3.90639148E+01
 20
4.79061160E+01
 11
3.90639148E+01
 21
4.74061160E+01
  0
LINE
  8
0
  6
PHANTOM
 10
2.56429212E+01
 20
1.30886771E+01
 11
2.56429212E+01
 21
5.15612873E+01
  0
TEXT
  8
0
 62
7
 10
6.98797731E+00
 20
2.70061160E+01
 40
1.50000000E+00
  1
PBDAS10
 41
1.00000000E+00
  7
MONOTXT
  0
ARC
  8
0
 62
7
 10
-2.13072664E+01
 20
3.14061160E+01
 40
4.62356726E+00
 50
1.82596937E+02
 51
2.31332268E+02
  0
LINE
  8
0
 62
4
 10
3.70639148E+01
 20
2.57561160E+01
 11
4.60639148E+01
 21
2.57561160E+01
  0
LINE
  8
0
 62
4
 10
5.70639148E+01
 20
3.84061160E+01
 11
5.94009139E+01
 21
3.84061160E+01
  0
LINE
  8
0
 62
4
 10
5.40639148E+01
 20
3.77061160E+01
 11
5.70639148E+01
 21
3.84061160E+01
  0
LINE
  8
0
 62
4
 10
4.85639148E+01
 20
3.77061160E+01
 11
5.40639148E+01
 21
3.77061160E+01
  0
LINE
  8
0
 62
4
 10
4.60639148E+01
 20
3.64061160E+01
 11
4.85639148E+01
 21
3.64061160E+01
  0
LINE
  8
0
 62
4
 10
3.45639148E+01
 20
3.64061160E+01
 11
3.70639148E+01
 21
3.64061160E+01
  0
LINE
  8
0
 62
4
 10
3.00639148E+01
 20
3.77061160E+01
 11
3.45639148E+01
 21
3.77061160E+01
  0
LINE
  8
0
 62
4
 10
2.90639148E+01
 20
4.07061160E+01
 11
2.90639148E+01
 21
3.87061160E+01
  0
LINE
  8
0
 62
4
 10
2.90639148E+01
 20
3.87061160E+01
 11
3.00639148E+01
 21
3.77061160E+01
  0
LINE
  8
0
 62
4
 10
5.40639148E+01
 20
4.17061160E+01
 11
5.70639148E+01
 21
4.10061160E+01
  0
LINE
  8
0
 62
4
 10
3.90639148E+01
 20
4.74061160E+01
 11
4.40639148E+01
 21
4.74061160E+01
  0
LINE
  8
0
 62
4
 10
4.60639148E+01
 20
3.99061160E+01
 11
4.85639148E+01
 21
3.99061160E+01
  0
LINE
  8
0
 62
4
 10
3.70639148E+01
 20
4.64061160E+01
 11
4.60639148E+01
 21
4.64061160E+01
  0
LINE
  8
0
 62
4
 10
3.45639148E+01
 20
4.17061160E+01
 11
3.00639148E+01
 21
4.17061160E+01
  0
LINE
  8
0
 62
4
 10
4.30639148E+01
 20
4.74061160E+01
 11
4.30639148E+01
 21
4.64061160E+01
  0
LINE
  8
0
 62
4
 10
4.00639148E+01
 20
4.74061160E+01
 11
4.00639148E+01
 21
4.64061160E+01
  0
LINE
  8
0
 62
6
 10
4.27939148E+01
 20
4.74061160E+01
 11
4.27939148E+01
 21
4.64061160E+01
  0
LINE
  8
0
 62
6
 10
4.03339148E+01
 20
4.74061160E+01
 11
4.03339148E+01
 21
4.64061160E+01
  0
LINE
  8
0
 62
4
 10
3.45639148E+01
 20
4.27061160E+01
 11
3.70639148E+01
 21
4.27061160E+01
  0
LINE
  8
0
 62
4
 10
4.60639148E+01
 20
4.27061160E+01
 11
4.85639148E+01
 21
4.27061160E+01
  0
LINE
  8
0
 62
4
 10
4.60639148E+01
 20
3.95061160E+01
 11
4.85639148E+01
 21
3.95061160E+01
  0
LINE
  8
0
 62
4
 10
4.85639148E+01
 20
4.17061160E+01
 11
5.40639148E+01
 21
4.17061160E+01
  0
LINE
  8
0
 62
4
 10
3.70639148E+01
 20
3.99061160E+01
 11
4.60639148E+01
 21
3.99061160E+01
  0
LINE
  8
0
 62
4
 10
3.70639148E+01
 20
3.99061160E+01
 11
3.70639148E+01
 21
4.64061160E+01
  0
LINE
  8
0
 62
4
 10
4.60639148E+01
 20
3.99061160E+01
 11
4.60639148E+01
 21
4.64061160E+01
  0
LINE
  8
0
 62
4
 10
3.45639148E+01
 20
3.99061160E+01
 11
3.70639148E+01
 21
3.99061160E+01
  0
LINE
  8
0
 62
4
 10
3.45639148E+01
 20
3.95061160E+01
 11
3.70639148E+01
 21
3.95061160E+01
  0
LINE
  8
0
 62
4
 10
4.85639148E+01
 20
4.27061160E+01
 11
4.85639148E+01
 21
3.99061160E+01
  0
LINE
  8
0
 62
4
 10
3.45639148E+01
 20
4.27061160E+01
 11
3.45639148E+01
 21
3.99061160E+01
  0
LINE
  8
0
 62
6
 10
6.20009139E+01
 20
4.10061160E+01
 11
5.94009139E+01
 21
3.84061160E+01
  0
LINE
  8
0
 62
4
 10
5.70639148E+01
 20
4.10061160E+01
 11
5.70639148E+01
 21
3.84061160E+01
  0
LINE
  8
0
 62
4
 10
5.70639148E+01
 20
4.10061160E+01
 11
6.20009139E+01
 21
4.10061160E+01
  0
LINE
  8
0
 62
4
 10
3.45639148E+01
 20
3.95061160E+01
 11
3.45639148E+01
 21
3.64061160E+01
  0
LINE
  8
0
 62
4
 10
4.85639148E+01
 20
3.95061160E+01
 11
4.85639148E+01
 21
3.64061160E+01
  0
LINE
  8
0
 62
4
 10
4.60639148E+01
 20
3.99061160E+01
 11
4.60639148E+01
 21
2.57561160E+01
  0
LINE
  8
0
 62
4
 10
5.40639148E+01
 20
4.17061160E+01
 11
5.40639148E+01
 21
3.77061160E+01
  0
LINE
  8
0
 62
4
 10
3.70639148E+01
 20
3.99061160E+01
 11
3.70639148E+01
 21
2.57561160E+01
  0
LINE
  8
0
 62
4
 10
3.00639148E+01
 20
4.17061160E+01
 11
3.00639148E+01
 21
3.77061160E+01
  0
LINE
  8
0
 62
4
 10
2.90639148E+01
 20
4.07061160E+01
 11
3.00639148E+01
 21
4.17061160E+01
  0
LINE
  8
0
 62
4
 10
-2.92608519E+00
 20
2.57561160E+01
 11
6.07391481E+00
 21
2.57561160E+01
  0
LINE
  8
0
 62
4
 10
-9.92608519E+00
 20
3.77061160E+01
 11
-5.42608519E+00
 21
3.77061160E+01
  0
LINE
  8
0
 62
4
 10
-5.42608519E+00
 20
3.64061160E+01
 11
-2.92608519E+00
 21
3.64061160E+01
  0
LINE
  8
0
 62
4
 10
6.07391481E+00
 20
3.64061160E+01
 11
8.57391481E+00
 21
3.64061160E+01
  0
LINE
  8
0
 62
4
 10
8.57391481E+00
 20
3.77061160E+01
 11
1.40739148E+01
 21
3.77061160E+01
  0
LINE
  8
0
 62
6
 10
2.20109139E+01
 20
4.10061160E+01
 11
1.94109139E+01
 21
3.84061160E+01
  0
LINE
  8
0
 62
4
 10
1.70739148E+01
 20
4.10061160E+01
 11
1.70739148E+01
 21
3.84061160E+01
  0
LINE
  8
0
 62
4
 10
1.40739148E+01
 20
4.17061160E+01
 11
1.70739148E+01
 21
4.10061160E+01
  0
LINE
  8
0
 62
4
 10
1.70739148E+01
 20
3.84061160E+01
 11
1.94109139E+01
 21
3.84061160E+01
  0
LINE
  8
0
 62
4
 10
1.70739148E+01
 20
4.10061160E+01
 11
2.20109139E+01
 21
4.10061160E+01
  0
LINE
  8
0
 62
4
 10
-5.42608519E+00
 20
4.27061160E+01
 11
-5.42608519E+00
 21
3.99061160E+01
  0
LINE
  8
0
 62
4
 10
8.57391481E+00
 20
4.27061160E+01
 11
8.57391481E+00
 21
3.99061160E+01
  0
LINE
  8
0
 62
4
 10
-1.09260852E+01
 20
4.07061160E+01
 11
-9.92608519E+00
 21
4.17061160E+01
  0
LINE
  8
0
 62
4
 10
-1.09260852E+01
 20
4.07061160E+01
 11
-1.09260852E+01
 21
3.87061160E+01
  0
LINE
  8
0
 62
4
 10
6.07391481E+00
 20
3.99061160E+01
 11
8.57391481E+00
 21
3.99061160E+01
  0
LINE
  8
0
 62
4
 10
-2.92608519E+00
 20
4.64061160E+01
 11
6.07391481E+00
 21
4.64061160E+01
  0
LINE
  8
0
 62
4
 10
-5.42608519E+00
 20
4.17061160E+01
 11
-9.92608519E+00
 21
4.17061160E+01
  0
LINE
  8
0
 62
4
 10
7.39148129E-02
 20
4.74061160E+01
 11
7.39148129E-02
 21
4.64061160E+01
  0
LINE
  8
0
 62
6
 10
3.43914813E-01
 20
4.74061160E+01
 11
3.43914813E-01
 21
4.64061160E+01
  0
LINE
  8
0
 62
4
 10
-5.42608520E+00
 20
3.95061160E+01
 11
-2.92608519E+00
 21
3.95061160E+01
  0
LINE
  8
0
 62
4
 10
-5.42608520E+00
 20
3.99061160E+01
 11
-2.92608519E+00
 21
3.99061160E+01
  0
LINE
  8
0
 62
4
 10
-5.42608520E+00
 20
4.27061160E+01
 11
-2.92608519E+00
 21
4.27061160E+01
  0
LINE
  8
0
 62
4
 10
6.07391481E+00
 20
4.27061160E+01
 11
8.57391480E+00
 21
4.27061160E+01
  0
LINE
  8
0
 62
4
 10
6.07391481E+00
 20
3.95061160E+01
 11
8.57391480E+00
 21
3.95061160E+01
  0
LINE
  8
0
 62
4
 10
-2.92608519E+00
 20
3.99061160E+01
 11
-2.92608519E+00
 21
4.64061160E+01
  0
LINE
  8
0
 62
4
 10
-2.92608519E+00
 20
3.99061160E+01
 11
6.07391481E+00
 21
3.99061160E+01
  0
LINE
  8
0
 62
4
 10
8.57391481E+00
 20
4.17061160E+01
 11
1.40739148E+01
 21
4.17061160E+01
  0
LINE
  8
0
 62
4
 10
-5.42608519E+00
 20
3.95061160E+01
 11
-5.42608519E+00
 21
3.64061160E+01
  0
LINE
  8
0
 62
4
 10
8.57391481E+00
 20
3.95061160E+01
 11
8.57391481E+00
 21
3.64061160E+01
  0
LINE
  8
0
 62
4
 10
6.07391481E+00
 20
3.99061160E+01
 11
6.07391481E+00
 21
2.57561160E+01
  0
LINE
  8
0
 62
4
 10
-2.92608519E+00
 20
3.99061160E+01
 11
-2.92608519E+00
 21
2.57561160E+01
  0
LINE
  8
0
 62
4
 10
-9.92608519E+00
 20
4.17061160E+01
 11
-9.92608519E+00
 21
3.77061160E+01
  0
LINE
  8
0
 62
4
 10
-1.09260852E+01
 20
3.87061160E+01
 11
-9.92608519E+00
 21
3.77061160E+01
  0
LINE
  8
0
 62
4
 10
1.40739148E+01
 20
3.77061160E+01
 11
1.70739148E+01
 21
3.84061160E+01
  0
LINE
  8
0
 62
4
 10
1.40739148E+01
 20
4.17061160E+01
 11
1.40739148E+01
 21
3.77061160E+01
  0
LINE
  8
0
 62
7
 10
6.07391481E+00
 20
2.59061160E+01
 11
3.70639148E+01
 21
2.59061160E+01
  0
LINE
  8
0
 62
7
 10
8.57391481E+00
 20
3.69061160E+01
 11
3.45639148E+01
 21
3.69061160E+01
  0
LINE
  8
0
 62
7
 10
4.60639148E+01
 20
2.59061160E+01
 11
5.10639148E+01
 21
2.59061160E+01
  0
LINE
  8
0
 62
4
 10
5.10639148E+01
 20
3.69061160E+01
 11
5.10639148E+01
 21
2.59061160E+01
  0
LINE
  8
0
 62
4
 10
5.65639148E+01
 20
3.69061160E+01
 11
5.65639148E+01
 21
2.59061160E+01
  0
LINE
  8
0
 62
7
 10
4.85639148E+01
 20
3.69061160E+01
 11
5.10639148E+01
 21
3.69061160E+01
  0
LINE
  8
0
 62
4
 10
6.07391481E+00
 20
3.99061160E+01
 11
6.07391481E+00
 21
4.64061160E+01
  0
LINE
  8
0
 62
4
 10
-2.92608520E+00
 20
2.57600633E+01
 11
6.07391480E+00
 21
2.57600633E+01
  0
LINE
  8
0
 62
6
 10
2.80391481E+00
 20
4.74061160E+01
 11
2.80391481E+00
 21
4.64061160E+01
  0
LINE
  8
0
 62
4
 10
3.07391481E+00
 20
4.74061160E+01
 11
3.07391481E+00
 21
4.64061160E+01
  0
LINE
  8
0
 62
4
 10
-9.26085187E-01
 20
4.74061160E+01
 11
4.07391481E+00
 21
4.74061160E+01
  0
LINE
  8
0
 62
4
 10
5.10639148E+01
 20
2.59061160E+01
 11
5.65639148E+01
 21
2.59061160E+01
  0
LINE
  8
0
 62
4
 10
5.10639148E+01
 20
3.69061160E+01
 11
5.65639148E+01
 21
3.69061160E+01
  0
CIRCLE
  8
0
 62
7
 10
-1.74260852E+01
 20
3.14061160E+01
 40
2.06700000E+00
  0
LINE
  8
0
 62
7
 10
-2.80160852E+01
 20
3.54061160E+01
 11
-2.59260852E+01
 21
3.54061160E+01
  0
LINE
  8
0
 62
7
 10
-2.59260852E+01
 20
3.74061160E+01
 11
-2.59260852E+01
 21
2.54061160E+01
  0
ARC
  8
0
 62
7
 10
-1.75517155E+01
 20
3.14061160E+01
 40
4.62782618E+00
 50
3.08733576E+02
 51
5.12664237E+01
  0
CIRCLE
  8
0
 62
2
 10
-1.74294909E+01
 20
3.14011162E+01
 40
2.50000000E+00
  0
LINE
  8
0
 62
7
 10
-1.46560852E+01
 20
2.77961160E+01
 11
-1.46560852E+01
 21
2.54061160E+01
  0
LINE
  8
0
 62
7
 10
-2.41960852E+01
 20
2.77961160E+01
 11
-2.41960852E+01
 21
2.54061160E+01
  0
LINE
  8
0
 62
7
 10
-1.46560852E+01
 20
3.74061160E+01
 11
-1.46560852E+01
 21
3.50161160E+01
  0
LINE
  8
0
 62
7
 10
-2.41960852E+01
 20
3.74061160E+01
 11
-2.41960852E+01
 21
3.50161160E+01
  0
LINE
  8
0
 62
7
 10
-2.41960852E+01
 20
2.77961160E+01
 11
-1.46560852E+01
 21
2.77961160E+01
  0
LINE
  8
0
 62
7
 10
-2.41960852E+01
 20
3.50161160E+01
 11
-1.46560852E+01
 21
3.50161160E+01
  0
LINE
  8
0
  6
CENTER
 62
2
 10
-1.74260852E+01
 20
3.50161160E+01
 11
-1.74260852E+01
 21
2.77961160E+01
  0
LINE
  8
0
 62
4
 10
5.70639148E+01
 20
2.64061160E+01
 11
5.65639148E+01
 21
2.59061160E+01
  0
LINE
  8
0
 62
4
 10
5.65639148E+01
 20
3.69061160E+01
 11
5.70639148E+01
 21
3.64061160E+01
  0
LINE
  8
0
 62
4
 10
5.70639148E+01
 20
3.64061160E+01
 11
5.70639148E+01
 21
2.64061160E+01
  0
LINE
  8
0
 62
7
 10
-1.29260852E+01
 20
3.74061160E+01
 11
-1.29260852E+01
 21
2.54061160E+01
  0
LINE
  8
0
 62
7
 10
-1.29260852E+01
 20
3.69061160E+01
 11
-5.42608519E+00
 21
3.69061160E+01
  0
LINE
  8
0
 62
7
 10
-1.29260852E+01
 20
2.59061160E+01
 11
-2.92608519E+00
 21
2.59061160E+01
  0
LINE
  8
0
 62
7
 10
-2.59260852E+01
 20
3.74061160E+01
 11
-1.29260852E+01
 21
3.74061160E+01
  0
LINE
  8
0
 62
7
 10
-2.59260852E+01
 20
2.54061160E+01
 11
-1.29260852E+01
 21
2.54061160E+01
  0
ARC
  8
0
 62
7
 10
-2.13072664E+01
 20
3.14061160E+01
 40
4.62356726E+00
 50
1.28667732E+02
 51
1.77403063E+02
  0
LINE
  8
0
 62
2
 10
-3.20160852E+01
 20
2.80926160E+01
 11
-3.38025852E+01
 21
2.80926160E+01
  0
LINE
  8
0
 62
2
 10
-3.20160852E+01
 20
3.47296160E+01
 11
-3.38025852E+01
 21
3.47296160E+01
  0
LINE
  8
0
 62
2
 10
-4.61460852E+01
 20
2.97951160E+01
 11
-3.89260852E+01
 21
2.97951160E+01
  0
LINE
  8
0
 62
2
 10
-4.61460852E+01
 20
3.30271160E+01
 11
-3.89260852E+01
 21
3.30271160E+01
  0
LINE
  8
0
 62
2
 10
-5.36105779E+01
 20
2.97951160E+01
 11
-4.93460852E+01
 21
2.97951160E+01
  0
LINE
  8
0
 62
2
 10
-5.36050852E+01
 20
3.30271160E+01
 11
-4.93460852E+01
 21
3.30271160E+01
  0
LINE
  8
0
 62
2
 10
-2.74260852E+01
 20
3.47296160E+01
 11
-2.80160852E+01
 21
3.47296160E+01
  0
LINE
  8
0
 62
2
 10
-2.74260852E+01
 20
2.80926160E+01
 11
-2.80160852E+01
 21
2.80926160E+01
  0
LINE
  8
0
 62
7
 10
-3.39260852E+01
 20
3.46061160E+01
 11
-3.39260852E+01
 21
2.82161160E+01
  0
LINE
  8
0
 62
7
 10
-3.31260852E+01
 20
3.54061160E+01
 11
-3.20160852E+01
 21
3.54061160E+01
  0
LINE
  8
0
 62
7
 10
-3.31260852E+01
 20
2.74161160E+01
 11
-3.20160852E+01
 21
2.74161160E+01
  0
LINE
  8
0
 62
7
 10
-3.31260852E+01
 20
3.54061160E+01
 11
-3.39260852E+01
 21
3.46061160E+01
  0
LINE
  8
0
 62
7
 10
-3.39260852E+01
 20
2.82161160E+01
 11
-3.31260852E+01
 21
2.74161160E+01
  0
LINE
  8
0
 62
7
 10
-3.31260852E+01
 20
3.54061160E+01
 11
-3.31260852E+01
 21
2.74161160E+01
  0
LINE
  8
0
 62
7
 10
-2.74260852E+01
 20
3.54061160E+01
 11
-2.74260852E+01
 21
2.74161160E+01
  0
LINE
  8
0
 62
7
 10
-5.39260852E+01
 20
3.27061160E+01
 11
-5.39260852E+01
 21
3.01061160E+01
  0
LINE
  8
0
 62
7
 10
-3.89260852E+01
 20
3.34061160E+01
 11
-3.89260852E+01
 21
2.94161160E+01
  0
LINE
  8
0
 62
7
 10
-5.32260852E+01
 20
3.34061160E+01
 11
-4.93460852E+01
 21
3.34061160E+01
  0
LINE
  8
0
 62
7
 10
-5.32260852E+01
 20
2.94161160E+01
 11
-4.93460852E+01
 21
2.94161160E+01
  0
LINE
  8
0
 62
7
 10
-5.32260852E+01
 20
3.34061160E+01
 11
-5.39260852E+01
 21
3.27061160E+01
  0
LINE
  8
0
 62
7
 10
-5.39260852E+01
 20
3.01061160E+01
 11
-5.32260852E+01
 21
2.94161160E+01
  0
LINE
  8
0
 62
7
 10
-5.32260852E+01
 20
3.34061160E+01
 11
-5.32260852E+01
 21
2.94161160E+01
  0
LINE
  8
0
  6
CENTER
 62
2
 10
-5.59260852E+01
 20
3.14061160E+01
 11
5.94521848E+01
 21
3.14061160E+01
  0
LINE
  8
0
 62
4
 10
-4.93460852E+01
 20
3.48061160E+01
 11
-4.93460852E+01
 21
2.80161160E+01
  0
LINE
  8
0
 62
4
 10
-4.61460852E+01
 20
3.48061160E+01
 11
-4.61460852E+01
 21
2.80161160E+01
  0
LINE
  8
0
 62
4
 10
-4.89760852E+01
 20
3.54461160E+01
 11
-4.65160852E+01
 21
3.54461160E+01
  0
LINE
  8
0
 62
4
 10
-4.89760852E+01
 20
2.73761160E+01
 11
-4.65160852E+01
 21
2.73761160E+01
  0
LINE
  8
0
 62
4
 10
-4.89760852E+01
 20
3.34261160E+01
 11
-4.65160852E+01
 21
3.34261160E+01
  0
LINE
  8
0
 62
4
 10
-4.89760852E+01
 20
2.93961160E+01
 11
-4.65160852E+01
 21
2.93961160E+01
  0
LINE
  8
0
 62
7
 10
-4.61460852E+01
 20
3.34061160E+01
 11
-3.39260852E+01
 21
3.34061160E+01
  0
LINE
  8
0
 62
7
 10
-4.61460852E+01
 20
2.94161160E+01
 11
-3.39260852E+01
 21
2.94161160E+01
  0
LINE
  8
0
 62
4
 10
-4.93460852E+01
 20
3.48061160E+01
 11
-4.89760852E+01
 21
3.54461160E+01
  0
LINE
  8
0
 62
4
 10
-4.65160852E+01
 20
3.54461160E+01
 11
-4.61460852E+01
 21
3.48061160E+01
  0
LINE
  8
0
 62
4
 10
-4.93460852E+01
 20
2.80161160E+01
 11
-4.89760852E+01
 21
2.73761160E+01
  0
LINE
  8
0
 62
4
 10
-4.65160852E+01
 20
2.73761160E+01
 11
-4.61460852E+01
 21
2.80161160E+01
  0
LINE
  8
0
 62
4
 10
-3.20160852E+01
 20
3.74061160E+01
 11
-3.20160852E+01
 21
2.54161160E+01
  0
LINE
  8
0
 62
4
 10
-2.80160852E+01
 20
3.74061160E+01
 11
-2.80160852E+01
 21
2.54161160E+01
  0
LINE
  8
0
 62
4
 10
-3.14860852E+01
 20
3.48661160E+01
 11
-2.85560852E+01
 21
3.48661160E+01
  0
LINE
  8
0
 62
4
 10
-3.14860852E+01
 20
2.79561160E+01
 11
-2.85560852E+01
 21
2.79561160E+01
  0
LINE
  8
0
 62
4
 10
-3.14860852E+01
 20
2.44861160E+01
 11
-2.85560852E+01
 21
2.44861160E+01
  0
LINE
  8
0
 62
4
 10
-3.14860852E+01
 20
3.83361160E+01
 11
-2.85560852E+01
 21
3.83361160E+01
  0
LINE
  8
0
 62
4
 10
-3.20160852E+01
 20
3.74061160E+01
 11
-3.14860852E+01
 21
3.83361160E+01
  0
LINE
  8
0
 62
7
 10
-2.80160852E+01
 20
2.74161160E+01
 11
-2.59260852E+01
 21
2.74161160E+01
  0
LINE
  8
0
 62
4
 10
-2.80160852E+01
 20
3.74061160E+01
 11
-2.85560852E+01
 21
3.83361160E+01
  0
LINE
  8
0
 62
4
 10
-3.20160852E+01
 20
2.54161160E+01
 11
-3.14860852E+01
 21
2.44861160E+01
  0
LINE
  8
0
 62
4
 10
-2.80160852E+01
 20
2.54161160E+01
 11
-2.85560852E+01
 21
2.44861160E+01
  0
ARC
  8
0
 62
4
 10
-4.77894062E+01
 20
3.44361160E+01
 40
1.55830260E+00
 50
1.39598403E+02
 51
2.20401597E+02
  0
ARC
  8
0
 62
4
 10
-4.36547259E+01
 20
3.14111160E+01
 40
5.69008693E+00
 50
1.59260195E+02
 51
2.00739805E+02
  0
ARC
  8
0
 62
4
 10
-5.18509082E+01
 20
3.14111160E+01
 40
5.70268020E+00
 50
3.39308098E+02
 51
2.06919019E+01
  0
ARC
  8
0
 62
4
 10
-4.77162279E+01
 20
3.44361160E+01
 40
1.56857978E+00
 50
3.19917156E+02
 51
4.00828446E+01
  0
ARC
  8
0
 62
4
 10
-4.77894062E+01
 20
2.83861160E+01
 40
1.55830260E+00
 50
1.39598403E+02
 51
2.20401597E+02
  0
ARC
  8
0
 62
4
 10
-4.77162279E+01
 20
2.83861160E+01
 40
1.56857978E+00
 50
3.19917156E+02
 51
4.00828446E+01
  0
ARC
  8
0
 62
4
 10
-2.89585844E+01
 20
3.66011160E+01
 40
3.06569493E+00
 50
1.45532394E+02
 51
2.14467606E+02
  0
ARC
  8
0
 62
4
 10
-2.05614642E+01
 20
3.14111160E+01
 40
1.14579391E+01
 50
1.62450019E+02
 51
1.97549981E+02
  0
ARC
  8
0
 62
4
 10
-2.89585844E+01
 20
2.62211160E+01
 40
3.06569493E+00
 50
1.45532394E+02
 51
2.14467606E+02
  0
ARC
  8
0
 62
4
 10
-3.10925667E+01
 20
3.66011160E+01
 40
3.07310324E+00
 50
3.25627155E+02
 51
3.43728456E+01
  0
ARC
  8
0
 62
4
 10
-3.94896716E+01
 20
3.14111160E+01
 40
1.14664876E+01
 50
3.42463527E+02
 51
1.75364728E+01
  0
ARC
  8
0
 62
4
 10
-3.10925667E+01
 20
2.62211160E+01
 40
3.07310324E+00
 50
3.25627155E+02
 51
3.43728456E+01
  0
ARC
  8
0
 62
4
 10
4.30622492E+01
 20
4.79044503E+01
 40
1.00166704E+00
 50
9.52762946E-02
 51
8.99047236E+01
  0
ARC
  8
0
 62
4
 10
4.00647063E+01
 20
4.79053245E+01
 40
1.00079180E+00
 50
9.00000002E+01
 51
1.79954687E+02
  0
LINE
  8
0
 62
4
 10
4.00639148E+01
 20
4.89061160E+01
 11
4.30639148E+01
 21
4.89061160E+01
  0
ARC
  8
0
 62
4
 10
7.47062996E-02
 20
4.79053245E+01
 40
1.00079180E+00
 50
9.00000002E+01
 51
1.79954687E+02
  0
LINE
  8
0
 62
4
 10
7.39148129E-02
 20
4.89061160E+01
 11
3.07391481E+00
 21
4.89061160E+01
  0
ARC
  8
0
 62
4
 10
3.07224916E+00
 20
4.79044503E+01
 40
1.00166704E+00
 50
9.52762946E-02
 51
8.99047236E+01
  0
LINE
  8
0
 62
4
 10
-8.57860852E+01
 20
3.77061160E+01
 11
-8.67860852E+01
 21
3.87061160E+01
  0
LINE
  8
0
 62
4
 10
-8.98860852E+01
 20
3.77061160E+01
 11
-8.88860852E+01
 21
3.87061160E+01
  0
LINE
  8
0
 62
4
 10
-8.57860852E+01
 20
4.17061160E+01
 11
-8.67860852E+01
 21
4.07061160E+01
  0
LINE
  8
0
 62
4
 10
-8.98860852E+01
 20
4.17061160E+01
 11
-8.88860852E+01
 21
4.07061160E+01
  0
LINE
  8
0
 62
4
 10
-8.88860852E+01
 20
3.87061160E+01
 11
-8.67860852E+01
 21
3.87061160E+01
  0
LINE
  8
0
 62
4
 10
-8.88860852E+01
 20
4.07061160E+01
 11
-8.88860852E+01
 21
3.87061160E+01
  0
LINE
  8
0
 62
4
 10
-8.67860852E+01
 20
4.07061160E+01
 11
-8.88860852E+01
 21
4.07061160E+01
  0
LINE
  8
0
 62
4
 10
-8.67860852E+01
 20
4.07061160E+01
 11
-8.67860852E+01
 21
3.87061160E+01
  0
LINE
  8
0
 62
4
 10
-8.89254224E+01
 20
3.77061160E+01
 11
-8.98860852E+01
 21
3.77061160E+01
  0
LINE
  8
0
 62
4
 10
-8.63360852E+01
 20
4.37061160E+01
 11
-8.66360852E+01
 21
4.34061160E+01
  0
LINE
  8
0
 62
4
 10
-8.93360852E+01
 20
4.37061160E+01
 11
-8.90360852E+01
 21
4.34061160E+01
  0
LINE
  8
0
 62
4
 10
-9.21856323E+01
 20
4.50400704E+01
 11
-9.26832801E+01
 21
4.50885125E+01
  0
LINE
  8
0
 62
4
 10
-9.26832801E+01
 20
4.50885125E+01
 11
-9.36327580E+01
 21
3.53344833E+01
  0
LINE
  8
0
 62
4
 10
-9.26660852E+01
 20
3.85561160E+01
 11
-9.28153795E+01
 21
3.85706486E+01
  0
LINE
  8
0
 62
4
 10
-9.21856323E+01
 20
4.50400704E+01
 11
-9.30587172E+01
 21
3.60708298E+01
  0
LINE
  8
0
 62
4
 10
-9.26660852E+01
 20
3.85561160E+01
 11
-9.28902924E+01
 21
3.62528255E+01
  0
LINE
  8
0
 62
4
 10
-8.43360852E+01
 20
3.99061160E+01
 11
-8.34995969E+01
 21
3.68991232E+01
  0
LINE
  8
0
 62
4
 10
-8.44860852E+01
 20
3.99061160E+01
 11
-8.36927087E+01
 21
3.70457674E+01
  0
LINE
  8
0
 62
4
 10
-9.10860852E+01
 20
4.34061160E+01
 11
-9.10860852E+01
 21
3.74061160E+01
  0
LINE
  8
0
 62
4
 10
-8.45860852E+01
 20
4.34061160E+01
 11
-8.45860852E+01
 21
3.99061160E+01
  0
LINE
  8
0
 62
4
 10
-8.45860852E+01
 20
4.34061160E+01
 11
-9.10860852E+01
 21
4.34061160E+01
  0
LINE
  8
0
 62
4
 10
-8.57860852E+01
 20
3.77061160E+01
 11
-8.67467480E+01
 21
3.77061160E+01
  0
LINE
  8
0
 62
4
 10
-8.98860852E+01
 20
4.17061160E+01
 11
-8.98860852E+01
 21
3.77061160E+01
  0
LINE
  8
0
 62
4
 10
-8.57860852E+01
 20
4.17061160E+01
 11
-8.98860852E+01
 21
4.17061160E+01
  0
LINE
  8
0
 62
4
 10
-8.68360852E+01
 20
4.20061160E+01
 11
-8.68360852E+01
 21
4.17061160E+01
  0
LINE
  8
0
 62
4
 10
-8.88360852E+01
 20
4.20061160E+01
 11
-8.88360852E+01
 21
4.17061160E+01
  0
LINE
  8
0
 62
4
 10
-8.68360852E+01
 20
4.20061160E+01
 11
-8.88360852E+01
 21
4.20061160E+01
  0
LINE
  8
0
 62
4
 10
-8.45860852E+01
 20
4.27061160E+01
 11
-9.10860852E+01
 21
4.27061160E+01
  0
LINE
  8
0
 62
4
 10
-8.45860852E+01
 20
3.95061160E+01
 11
-8.57860852E+01
 21
3.95061160E+01
  0
LINE
  8
0
 62
4
 10
-8.45860852E+01
 20
3.99061160E+01
 11
-8.57860852E+01
 21
3.99061160E+01
  0
LINE
  8
0
 62
4
 10
-8.45860852E+01
 20
3.95061160E+01
 11
-8.45860852E+01
 21
3.74061160E+01
  0
LINE
  8
0
 62
4
 10
-8.57860852E+01
 20
4.17061160E+01
 11
-8.57860852E+01
 21
3.77061160E+01
  0
LINE
  8
0
 62
4
 10
-9.13360852E+01
 20
4.51061160E+01
 11
-9.13360852E+01
 21
3.92061160E+01
  0
LINE
  8
0
 62
4
 10
-8.43360852E+01
 20
4.51061160E+01
 11
-8.43360852E+01
 21
3.99061160E+01
  0
LINE
  8
0
 62
4
 10
-8.53360852E+01
 20
4.74061160E+01
 11
-9.03360852E+01
 21
4.74061160E+01
  0
LINE
  8
0
 62
4
 10
-8.43360852E+01
 20
4.64061160E+01
 11
-9.13360852E+01
 21
4.64061160E+01
  0
LINE
  8
0
 62
4
 10
-8.58360852E+01
 20
4.49061160E+01
 11
-8.98360852E+01
 21
4.49061160E+01
  0
LINE
  8
0
 62
4
 10
-8.48360852E+01
 20
4.56061160E+01
 11
-9.08360852E+01
 21
4.56061160E+01
  0
LINE
  8
0
 62
4
 10
-9.21360852E+01
 20
4.56061160E+01
 11
-9.21360852E+01
 21
3.92061160E+01
  0
LINE
  8
0
 62
4
 10
-8.35360852E+01
 20
4.56061160E+01
 11
-8.35360852E+01
 21
3.99061160E+01
  0
LINE
  8
0
 62
4
 10
-8.98960852E+01
 20
4.56061160E+01
 11
-8.98360852E+01
 21
4.49061160E+01
  0
LINE
  8
0
 62
4
 10
-8.57760852E+01
 20
4.56061160E+01
 11
-8.58360852E+01
 21
4.49061160E+01
  0
LINE
  8
0
 62
4
 10
-8.35360852E+01
 20
3.99061160E+01
 11
-8.43360852E+01
 21
3.99061160E+01
  0
LINE
  8
0
 62
4
 10
-9.13360852E+01
 20
3.92061160E+01
 11
-9.21360852E+01
 21
3.92061160E+01
  0
LINE
  8
0
 62
4
 10
-9.21360852E+01
 20
4.14061160E+01
 11
-9.25176999E+01
 21
4.16287246E+01
  0
LINE
  8
0
 62
4
 10
-9.37360852E+01
 20
4.47061160E+01
 11
-9.37360852E+01
 21
4.23361160E+01
  0
LINE
  8
0
 62
4
 10
-9.29360852E+01
 20
4.47061160E+01
 11
-9.37360852E+01
 21
4.47061160E+01
  0
LINE
  8
0
 62
4
 10
-9.29360852E+01
 20
4.47061160E+01
 11
-9.29360852E+01
 21
4.27961160E+01
  0
LINE
  8
0
 62
4
 10
-9.21360852E+01
 20
4.23361160E+01
 11
-9.24327952E+01
 21
4.25009549E+01
  0
LINE
  8
0
 62
4
 10
-8.44860852E+01
 20
4.51061160E+01
 11
-8.44860852E+01
 21
3.99061160E+01
  0
LINE
  8
0
 62
4
 10
-8.43360852E+01
 20
4.51061160E+01
 11
-8.44860852E+01
 21
4.51061160E+01
  0
LINE
  8
0
 62
4
 10
-9.29082343E+01
 20
4.27775487E+01
 11
-9.29360852E+01
 21
4.27961160E+01
  0
LINE
  8
0
 62
4
 10
-9.29939770E+01
 20
4.18967098E+01
 11
-9.37360852E+01
 21
4.23361160E+01
  0
LINE
  8
0
 62
4
 10
-8.63360852E+01
 20
4.74061160E+01
 11
-8.63360852E+01
 21
4.64061160E+01
  0
LINE
  8
0
 62
4
 10
-8.93360852E+01
 20
4.74061160E+01
 11
-8.93360852E+01
 21
4.64061160E+01
  0
LINE
  8
0
 62
6
 10
-8.90660852E+01
 20
4.74061160E+01
 11
-8.90660852E+01
 21
4.64061160E+01
  0
LINE
  8
0
 62
6
 10
-8.66060852E+01
 20
4.74061160E+01
 11
-8.66060852E+01
 21
4.64061160E+01
  0
LINE
  8
0
 62
4
 10
-9.03360852E+01
 20
4.79061160E+01
 11
-9.03360852E+01
 21
4.74061160E+01
  0
LINE
  8
0
 62
4
 10
-8.53360852E+01
 20
4.79061160E+01
 11
-8.53360852E+01
 21
4.74061160E+01
  0
LINE
  8
0
 62
4
 10
-8.63360852E+01
 20
4.89061160E+01
 11
-8.93360852E+01
 21
4.89061160E+01
  0
LINE
  8
0
 62
4
 10
-8.63360852E+01
 20
4.49061160E+01
 11
-8.63360852E+01
 21
4.37061160E+01
  0
LINE
  8
0
 62
6
 10
-8.66060852E+01
 20
4.49061160E+01
 11
-8.66060852E+01
 21
4.34361160E+01
  0
LINE
  8
0
 62
6
 10
-8.90660852E+01
 20
4.49061160E+01
 11
-8.90660852E+01
 21
4.34361160E+01
  0
LINE
  8
0
 62
4
 10
-8.93360852E+01
 20
4.49061160E+01
 11
-8.93360852E+01
 21
4.37061160E+01
  0
ARC
  8
0
 62
4
 10
-8.48362453E+01
 20
4.51059558E+01
 40
5.00160181E-01
 50
1.83465799E-02
 51
9.00000002E+01
  0
ARC
  8
0
 62
4
 10
-9.08437104E+01
 20
4.51137412E+01
 40
4.92433852E-01
 50
8.91127567E+01
 51
1.80887243E+02
  0
ARC
  8
0
 62
4
 10
-8.43362235E+01
 20
4.56059777E+01
 40
8.00138358E-01
 50
9.90662024E-03
 51
9.00000002E+01
  0
ARC
  8
0
 62
4
 10
-9.13437104E+01
 20
4.56137412E+01
 40
7.92411497E-01
 50
8.94486475E+01
 51
1.80551352E+02
  0
ARC
  8
0
 62
4
 10
-8.63362148E+01
 20
4.79059864E+01
 40
1.00012957E+00
 50
7.42247612E-03
 51
9.00000002E+01
  0
ARC
  8
0
 62
4
 10
-8.93437119E+01
 20
4.79137427E+01
 40
9.92402587E-01
 50
8.95596718E+01
 51
1.80440329E+02
  0
LINE
  8
0
 62
7
 10
-9.38360852E+01
 20
2.79561160E+01
 11
-9.38360852E+01
 21
2.78061160E+01
  0
LINE
  8
0
 62
4
 10
-9.38360852E+01
 20
3.48661160E+01
 11
-9.38360852E+01
 21
2.79561160E+01
  0
LINE
  8
0
 62
7
 10
-8.18360852E+01
 20
2.79561160E+01
 11
-8.18360852E+01
 21
2.78061160E+01
  0
LINE
  8
0
 62
4
 10
-8.18360852E+01
 20
3.48661160E+01
 11
-8.18360852E+01
 21
2.79561160E+01
  0
CIRCLE
  8
0
 62
2
 10
-8.78360852E+01
 20
3.14061160E+01
 40
1.62100000E+00
  0
LINE
  8
0
  6
CENTER
 62
2
 10
-9.58360852E+01
 20
3.14061160E+01
 11
-7.98360852E+01
 21
3.14061160E+01
  0
LINE
  8
0
  6
CENTER
 62
2
 10
-8.78360852E+01
 20
5.08637271E+01
 11
-8.78360852E+01
 21
2.34161160E+01
  0
LINE
  8
0
 62
4
 10
-8.78360852E+01
 20
3.54461160E+01
 11
-9.13360852E+01
 21
3.34261160E+01
  0
LINE
  8
0
 62
4
 10
-9.13360852E+01
 20
3.34261160E+01
 11
-9.13360852E+01
 21
2.93961160E+01
  0
LINE
  8
0
 62
4
 10
-9.13360852E+01
 20
2.93961160E+01
 11
-8.78360852E+01
 21
2.73761160E+01
  0
LINE
  8
0
 62
4
 10
-8.78360852E+01
 20
2.73761160E+01
 11
-8.43360852E+01
 21
2.93961160E+01
  0
LINE
  8
0
 62
4
 10
-8.43360852E+01
 20
2.93961160E+01
 11
-8.43360852E+01
 21
3.34261160E+01
  0
LINE
  8
0
 62
4
 10
-8.43360852E+01
 20
3.34261160E+01
 11
-8.78360852E+01
 21
3.54461160E+01
  0
LINE
  8
0
 62
4
 10
-8.78360852E+01
 20
3.83361160E+01
 11
-9.38360852E+01
 21
3.48661160E+01
  0
LINE
  8
0
 62
7
 10
-8.18360852E+01
 20
3.50161160E+01
 11
-8.18360852E+01
 21
3.48661160E+01
  0
LINE
  8
0
 62
7
 10
-9.14460852E+01
 20
2.54161160E+01
 11
-8.94460852E+01
 21
2.54161160E+01
  0
LINE
  8
0
 62
7
 10
-9.14460852E+01
 20
3.74061160E+01
 11
-8.94460852E+01
 21
3.74061160E+01
  0
LINE
  8
0
 62
7
 10
-9.38360852E+01
 20
3.50161160E+01
 11
-9.38360852E+01
 21
3.48661160E+01
  0
LINE
  8
0
 62
4
 10
-9.38360852E+01
 20
2.79561160E+01
 11
-8.78360852E+01
 21
2.44861160E+01
  0
LINE
  8
0
 62
4
 10
-8.78360852E+01
 20
2.44861160E+01
 11
-8.18360852E+01
 21
2.79561160E+01
  0
LINE
  8
0
 62
4
 10
-8.18360852E+01
 20
3.48661160E+01
 11
-8.78360852E+01
 21
3.83361160E+01
  0
LINE
  8
0
 62
7
 10
-8.62360852E+01
 20
2.54161160E+01
 11
-8.42360852E+01
 21
2.54161160E+01
  0
LINE
  8
0
 62
7
 10
-8.62360852E+01
 20
3.74061160E+01
 11
-8.42360852E+01
 21
3.74061160E+01
  0
CIRCLE
  8
0
 62
7
 10
-8.78431262E+01
 20
3.14111171E+01
 40
2.00000000E+00
  0
CIRCLE
  8
0
 62
4
 10
-8.78431262E+01
 20
3.14111171E+01
 40
3.50000000E+00
  0
ARC
  8
0
 62
7
 10
-8.78431262E+01
 20
3.14111160E+01
 40
3.99311751E+00
 50
1.51014793E+02
 51
2.08985207E+02
  0
ARC
  8
0
 62
7
 10
-8.78402554E+01
 20
3.14094561E+01
 40
3.99405996E+00
 50
2.10937213E+02
 51
2.68912138E+02
  0
ARC
  8
0
 62
7
 10
-8.78429395E+01
 20
3.14112253E+01
 40
3.99584842E+00
 50
2.71102069E+02
 51
3.29048580E+02
  0
ARC
  8
0
 62
7
 10
-8.78431262E+01
 20
3.14111160E+01
 40
4.00544151E+00
 50
3.31112406E+02
 51
2.88875940E+01
  0
ARC
  8
0
 62
7
 10
-8.78429385E+01
 20
3.14110084E+01
 40
3.99584669E+00
 50
3.09514064E+01
 51
8.88979451E+01
  0
ARC
  8
0
 62
7
 10
-8.78402564E+01
 20
3.14127777E+01
 40
3.99405823E+00
 50
9.10878482E+01
 51
1.49062800E+02
  0
ARC
  8
0
 62
7
 10
-8.78421050E+01
 20
3.14100962E+01
 40
6.99403112E+00
 50
2.11017088E+02
 51
2.38982912E+02
  0
ARC
  8
0
 62
7
 10
-8.78295678E+01
 20
3.14246550E+01
 40
7.00111833E+00
 50
3.00882066E+02
 51
3.28878703E+02
  0
ARC
  8
0
 62
7
 10
-8.78295666E+01
 20
3.13975782E+01
 40
7.00111676E+00
 50
3.11212937E+01
 51
5.91179366E+01
  0
ARC
  8
0
 62
7
 10
-8.78421062E+01
 20
3.14121370E+01
 40
6.99402955E+00
 50
1.21017085E+02
 51
1.48982915E+02
  0
CIRCLE
  8
0
 62
4
 10
-8.78360852E+01
 20
3.14061160E+01
 40
6.00000000E+00
  0
ARC
  8
0
 62
7
 10
9.31578938E+01
 20
3.14121370E+01
 40
6.99402955E+00
 50
1.28236157E+02
 51
1.48982915E+02
  0
LINE
  8
0
 62
7
 10
9.64139148E+01
 20
3.74061160E+01
 11
9.67639148E+01
 21
3.74061160E+01
  0
ARC
  8
0
 62
7
 10
9.31704334E+01
 20
3.13975782E+01
 40
7.00111676E+00
 50
4.38594028E+01
 51
5.91179366E+01
  0
LINE
  8
0
 62
4
 10
9.16639148E+01
 20
4.37061160E+01
 11
9.19639148E+01
 21
4.34061160E+01
  0
LINE
  8
0
 62
4
 10
9.46639148E+01
 20
4.37061160E+01
 11
9.43639148E+01
 21
4.34061160E+01
  0
LINE
  8
0
 62
4
 10
9.75134619E+01
 20
4.50400704E+01
 11
9.80111098E+01
 21
4.50885125E+01
  0
LINE
  8
0
 62
4
 10
9.80111098E+01
 20
4.50885125E+01
 11
9.90283938E+01
 21
3.46379081E+01
  0
LINE
  8
0
 62
4
 10
9.85307459E+01
 20
3.45894660E+01
 11
9.90283938E+01
 21
3.46379081E+01
  0
LINE
  8
0
 62
4
 10
9.79939148E+01
 20
3.85561160E+01
 11
9.81432092E+01
 21
3.85706486E+01
  0
LINE
  8
0
 62
4
 10
9.75134619E+01
 20
4.50400704E+01
 11
9.87873353E+01
 21
3.19535117E+01
  0
LINE
  8
0
 62
4
 10
9.79939148E+01
 20
3.85561160E+01
 11
9.86380410E+01
 21
3.19389790E+01
  0
LINE
  8
0
 62
4
 10
8.96639148E+01
 20
3.99061160E+01
 11
8.77206050E+01
 21
3.29203414E+01
  0
LINE
  8
0
 62
4
 10
8.98139148E+01
 20
3.99061160E+01
 11
8.78640101E+01
 21
3.28761536E+01
  0
ARC
  8
0
 62
4
 10
9.31639148E+01
 20
3.14061160E+01
 40
5.65000000E+00
 50
1.64454443E+02
 51
5.55977625E+00
  0
CIRCLE
  8
0
 62
4
 10
9.31639148E+01
 20
3.97061160E+01
 40
1.30000000E+00
  0
LINE
  8
0
 62
4
 10
9.64139148E+01
 20
4.34061160E+01
 11
9.64139148E+01
 21
3.69061160E+01
  0
LINE
  8
0
 62
4
 10
8.99139148E+01
 20
4.34061160E+01
 11
8.99139148E+01
 21
3.99061160E+01
  0
LINE
  8
0
 62
4
 10
9.04139148E+01
 20
3.64061160E+01
 11
9.08726270E+01
 21
3.64061160E+01
  0
LINE
  8
0
 62
4
 10
8.99139148E+01
 20
4.34061160E+01
 11
9.64139148E+01
 21
4.34061160E+01
  0
LINE
  8
0
 62
4
 10
9.11139148E+01
 20
3.77061160E+01
 11
9.52139148E+01
 21
3.77061160E+01
  0
LINE
  8
0
 62
4
 10
9.52139148E+01
 20
4.17061160E+01
 11
9.52139148E+01
 21
3.77061160E+01
  0
LINE
  8
0
 62
4
 10
9.11139148E+01
 20
4.17061160E+01
 11
9.52139148E+01
 21
4.17061160E+01
  0
LINE
  8
0
 62
4
 10
9.54552027E+01
 20
3.64061160E+01
 11
9.59139148E+01
 21
3.64061160E+01
  0
LINE
  8
0
 62
4
 10
9.21639148E+01
 20
4.20061160E+01
 11
9.21639148E+01
 21
4.17061160E+01
  0
LINE
  8
0
 62
4
 10
9.41639148E+01
 20
4.20061160E+01
 11
9.41639148E+01
 21
4.17061160E+01
  0
LINE
  8
0
 62
4
 10
9.21639148E+01
 20
4.20061160E+01
 11
9.41639148E+01
 21
4.20061160E+01
  0
LINE
  8
0
 62
4
 10
9.21639148E+01
 20
3.74061160E+01
 11
9.41639148E+01
 21
3.74061160E+01
  0
LINE
  8
0
 62
4
 10
9.21639148E+01
 20
3.77061160E+01
 11
9.21639148E+01
 21
3.74061160E+01
  0
LINE
  8
0
 62
4
 10
9.41639148E+01
 20
3.77061160E+01
 11
9.41639148E+01
 21
3.74061160E+01
  0
LINE
  8
0
 62
4
 10
9.59139148E+01
 20
3.64061160E+01
 11
9.64139148E+01
 21
3.69061160E+01
  0
LINE
  8
0
 62
4
 10
9.04139148E+01
 20
3.64061160E+01
 11
8.99139148E+01
 21
3.69061160E+01
  0
LINE
  8
0
 62
4
 10
8.99139148E+01
 20
4.27061160E+01
 11
9.64139148E+01
 21
4.27061160E+01
  0
LINE
  8
0
 62
4
 10
8.99139148E+01
 20
3.95061160E+01
 11
9.11139148E+01
 21
3.95061160E+01
  0
LINE
  8
0
 62
4
 10
8.99139148E+01
 20
3.99061160E+01
 11
9.11139148E+01
 21
3.99061160E+01
  0
LINE
  8
0
 62
4
 10
8.99139148E+01
 20
3.95061160E+01
 11
8.99139148E+01
 21
3.69061160E+01
  0
LINE
  8
0
 62
4
 10
9.11139148E+01
 20
4.17061160E+01
 11
9.11139148E+01
 21
3.77061160E+01
  0
LINE
  8
0
 62
4
 10
9.66639148E+01
 20
4.51061160E+01
 11
9.66639148E+01
 21
3.92061160E+01
  0
LINE
  8
0
 62
4
 10
8.96639148E+01
 20
4.51061160E+01
 11
8.96639148E+01
 21
3.99061160E+01
  0
LINE
  8
0
 62
4
 10
9.06639148E+01
 20
4.74061160E+01
 11
9.56639148E+01
 21
4.74061160E+01
  0
LINE
  8
0
 62
4
 10
8.96639148E+01
 20
4.64061160E+01
 11
9.66639148E+01
 21
4.64061160E+01
  0
LINE
  8
0
 62
4
 10
9.11639148E+01
 20
4.49061160E+01
 11
9.51639148E+01
 21
4.49061160E+01
  0
LINE
  8
0
 62
4
 10
9.01639148E+01
 20
4.56061160E+01
 11
9.61639148E+01
 21
4.56061160E+01
  0
LINE
  8
0
 62
4
 10
9.74639148E+01
 20
4.56061160E+01
 11
9.74639148E+01
 21
3.92061160E+01
  0
LINE
  8
0
 62
4
 10
8.88639148E+01
 20
4.56061160E+01
 11
8.88639148E+01
 21
3.99061160E+01
  0
LINE
  8
0
 62
4
 10
9.52239148E+01
 20
4.56061160E+01
 11
9.51639148E+01
 21
4.49061160E+01
  0
LINE
  8
0
 62
4
 10
9.11039148E+01
 20
4.56061160E+01
 11
9.11639148E+01
 21
4.49061160E+01
  0
LINE
  8
0
 62
4
 10
8.88639148E+01
 20
3.99061160E+01
 11
8.96639148E+01
 21
3.99061160E+01
  0
LINE
  8
0
 62
4
 10
9.66639148E+01
 20
3.92061160E+01
 11
9.74639148E+01
 21
3.92061160E+01
  0
LINE
  8
0
 62
4
 10
9.74639148E+01
 20
4.14061160E+01
 11
9.78455296E+01
 21
4.16287246E+01
  0
LINE
  8
0
 62
4
 10
9.90639148E+01
 20
4.47061160E+01
 11
9.90639148E+01
 21
4.23361160E+01
  0
LINE
  8
0
 62
4
 10
9.82639148E+01
 20
4.47061160E+01
 11
9.90639148E+01
 21
4.47061160E+01
  0
LINE
  8
0
 62
4
 10
9.82639148E+01
 20
4.47061160E+01
 11
9.82639148E+01
 21
4.27961160E+01
  0
LINE
  8
0
 62
4
 10
9.74639148E+01
 20
4.23361160E+01
 11
9.77606248E+01
 21
4.25009549E+01
  0
LINE
  8
0
 62
4
 10
8.98139148E+01
 20
4.51061160E+01
 11
8.98139148E+01
 21
3.99061160E+01
  0
LINE
  8
0
 62
4
 10
8.96639148E+01
 20
4.51061160E+01
 11
8.98139148E+01
 21
4.51061160E+01
  0
LINE
  8
0
 62
4
 10
9.82360639E+01
 20
4.27775487E+01
 11
9.82639148E+01
 21
4.27961160E+01
  0
LINE
  8
0
 62
4
 10
9.83218066E+01
 20
4.18967098E+01
 11
9.90639148E+01
 21
4.23361160E+01
  0
LINE
  8
0
 62
4
 10
9.16639148E+01
 20
4.74061160E+01
 11
9.16639148E+01
 21
4.64061160E+01
  0
LINE
  8
0
 62
4
 10
9.46639148E+01
 20
4.74061160E+01
 11
9.46639148E+01
 21
4.64061160E+01
  0
LINE
  8
0
 62
6
 10
9.43939148E+01
 20
4.74061160E+01
 11
9.43939148E+01
 21
4.64061160E+01
  0
LINE
  8
0
 62
6
 10
9.19339148E+01
 20
4.74061160E+01
 11
9.19339148E+01
 21
4.64061160E+01
  0
LINE
  8
0
 62
4
 10
9.56639148E+01
 20
4.79061160E+01
 11
9.56639148E+01
 21
4.74061160E+01
  0
LINE
  8
0
 62
4
 10
9.06639148E+01
 20
4.79061160E+01
 11
9.06639148E+01
 21
4.74061160E+01
  0
LINE
  8
0
 62
4
 10
9.16639148E+01
 20
4.89061160E+01
 11
9.46639148E+01
 21
4.89061160E+01
  0
LINE
  8
0
 62
4
 10
9.16639148E+01
 20
4.49061160E+01
 11
9.16639148E+01
 21
4.37061160E+01
  0
LINE
  8
0
 62
6
 10
9.19339148E+01
 20
4.49061160E+01
 11
9.19339148E+01
 21
4.34361160E+01
  0
LINE
  8
0
 62
6
 10
9.43939148E+01
 20
4.49061160E+01
 11
9.43939148E+01
 21
4.34361160E+01
  0
LINE
  8
0
 62
4
 10
9.46639148E+01
 20
4.49061160E+01
 11
9.46639148E+01
 21
4.37061160E+01
  0
LINE
  8
0
 62
4
 10
9.18639148E+01
 20
3.84061160E+01
 11
9.44639148E+01
 21
3.84061160E+01
  0
LINE
  8
0
 62
4
 10
9.18639148E+01
 20
4.10061160E+01
 11
9.44639148E+01
 21
4.10061160E+01
  0
LINE
  8
0
 62
4
 10
9.44639148E+01
 20
4.10061160E+01
 11
9.44639148E+01
 21
3.84061160E+01
  0
LINE
  8
0
 62
4
 10
9.18639148E+01
 20
4.10061160E+01
 11
9.18639148E+01
 21
3.84061160E+01
  0
LINE
  8
0
 62
4
 10
9.11139148E+01
 20
4.17061160E+01
 11
9.18639148E+01
 21
4.10061160E+01
  0
LINE
  8
0
 62
4
 10
9.44639148E+01
 20
4.10061160E+01
 11
9.52139148E+01
 21
4.17061160E+01
  0
LINE
  8
0
 62
4
 10
9.18639148E+01
 20
3.84061160E+01
 11
9.11139148E+01
 21
3.77061160E+01
  0
LINE
  8
0
 62
4
 10
9.44639148E+01
 20
3.84061160E+01
 11
9.52139148E+01
 21
3.77061160E+01
  0
ARC
  8
0
 62
4
 10
9.01640750E+01
 20
4.51059558E+01
 40
5.00160181E-01
 50
9.00000002E+01
 51
1.79981654E+02
  0
ARC
  8
0
 62
4
 10
9.61715400E+01
 20
4.51137412E+01
 40
4.92433852E-01
 50
3.59112757E+02
 51
9.08872431E+01
  0
ARC
  8
0
 62
4
 10
8.96640532E+01
 20
4.56059777E+01
 40
8.00138358E-01
 50
9.00000002E+01
 51
1.79990093E+02
  0
ARC
  8
0
 62
4
 10
9.66715400E+01
 20
4.56137412E+01
 40
7.92411497E-01
 50
3.59448647E+02
 51
9.05513523E+01
  0
ARC
  8
0
 62
4
 10
9.16640444E+01
 20
4.79059864E+01
 40
1.00012957E+00
 50
9.00000002E+01
 51
1.79992578E+02
  0
ARC
  8
0
 62
4
 10
9.46715415E+01
 20
4.79137427E+01
 40
9.92402587E-01
 50
3.59559672E+02
 51
9.04403286E+01
  0
CIRCLE
  8
0
 62
4
 10
9.31639148E+01
 20
3.14061160E+01
 40
5.50000000E+00
  0
CIRCLE
  8
0
 62
4
 10
9.31639148E+01
 20
3.14061160E+01
 40
5.00000000E+00
  0
CIRCLE
  8
0
 62
4
 10
9.31639148E+01
 20
3.14061160E+01
 40
2.06700000E+00
  0
CIRCLE
  8
0
 62
6
 10
9.31639148E+01
 20
3.14061160E+01
 40
2.50000000E+00
  0
ARC
  8
0
 62
7
 10
9.31578938E+01
 20
3.14121370E+01
 40
6.99402955E+00
 50
1.21017085E+02
 51
1.26248332E+02
  0
ARC
  8
0
 62
7
 10
9.31704334E+01
 20
3.13975782E+01
 40
7.00111676E+00
 50
3.11212937E+01
 51
3.42028638E+01
  0
ARC
  8
0
 62
7
 10
9.31704322E+01
 20
3.14246550E+01
 40
7.00111833E+00
 50
3.00882066E+02
 51
3.28878703E+02
  0
ARC
  8
0
 62
7
 10
9.31578950E+01
 20
3.14100962E+01
 40
6.99403112E+00
 50
2.11017088E+02
 51
2.38982912E+02
  0
LINE
  8
0
 62
4
 10
9.31639148E+01
 20
2.44861160E+01
 11
9.47719840E+01
 21
2.54161160E+01
  0
LINE
  8
0
 62
4
 10
9.15558456E+01
 20
2.54161160E+01
 11
9.31639148E+01
 21
2.44861160E+01
  0
LINE
  8
0
 62
7
 10
8.95539148E+01
 20
3.74061160E+01
 11
8.99139148E+01
 21
3.74061160E+01
  0
LINE
  8
0
 62
7
 10
8.95539148E+01
 20
2.54161160E+01
 11
9.67639148E+01
 21
2.54161160E+01
  0
LINE
  8
0
  6
CENTER
 62
2
 10
9.31639148E+01
 20
5.03662649E+01
 11
9.31639148E+01
 21
2.34161160E+01
  0
LINE
  8
0
  6
CENTER
 62
2
 10
8.51639148E+01
 20
3.14061160E+01
 11
1.01163915E+02
 21
3.14061160E+01
  0
LINE
  8
0
 62
7
 10
9.91639148E+01
 20
3.50161160E+01
 11
9.91639148E+01
 21
2.79561160E+01
  0
LINE
  8
0
 62
7
 10
9.91639148E+01
 20
2.79561160E+01
 11
9.91639148E+01
 21
2.78061160E+01
  0
LINE
  8
0
 62
7
 10
8.71639148E+01
 20
3.50161160E+01
 11
8.71639148E+01
 21
2.79561160E+01
  0
LINE
  8
0
 62
7
 10
8.71639148E+01
 20
2.79561160E+01
 11
8.71639148E+01
 21
2.78061160E+01
  0
ARC
  8
0
 62
7
 10
9.31639148E+01
 20
3.14061160E+01
 40
6.00000000E+00
 50
1.44787805E+02
 51
2.52264145E+01
  0
ARC
  8
0
 62
7
 10
9.31639148E+01
 20
3.14061160E+01
 40
6.00000000E+00
 50
1.19623240E+02
 51
1.40941087E+02
  0
ARC
  8
0
 62
7
 10
9.31639148E+01
 20
3.14061160E+01
 40
6.00000000E+00
 50
2.91162406E+01
 51
6.03767598E+01
  0
LINE
  8
0
 62
4
 10
1.70687692E+01
 20
7.40783748E+01
 11
1.70687692E+01
 21
7.14783748E+01
  0
LINE
  8
0
  6
CENTER
 62
6
 10
-1.30653075E+01
 20
7.27783748E+01
 11
2.32403452E+01
 21
7.27783748E+01
  0
LINE
  8
0
  6
CENTER
 62
6
 10
1.56876918E+00
 20
8.00783748E+01
 11
1.56876918E+00
 21
6.53583748E+01
  0
LINE
  8
0
 62
4
 10
3.56876918E+00
 20
7.86428537E+01
 11
3.56876918E+00
 21
7.76255697E+01
  0
LINE
  8
0
 62
4
 10
6.06876918E+00
 20
6.71283748E+01
 11
6.06876918E+00
 21
7.86428537E+01
  0
LINE
  8
0
 62
4
 10
-2.93123082E+00
 20
6.71283748E+01
 11
-2.93123082E+00
 21
7.86428537E+01
  0
LINE
  8
0
 62
4
 10
-2.93123080E+00
 20
7.76255697E+01
 11
6.06876920E+00
 21
7.76255697E+01
  0
LINE
  8
0
 62
6
 10
2.20057683E+01
 20
7.40783748E+01
 11
1.94057683E+01
 21
7.14783748E+01
  0
LINE
  8
0
 62
4
 10
1.40687692E+01
 20
7.07783748E+01
 11
1.70687692E+01
 21
7.14783748E+01
  0
LINE
  8
0
 62
4
 10
1.70687692E+01
 20
7.14783748E+01
 11
1.94057683E+01
 21
7.14783748E+01
  0
LINE
  8
0
 62
4
 10
1.70687692E+01
 20
7.40783748E+01
 11
2.20057683E+01
 21
7.40783748E+01
  0
LINE
  8
0
 62
4
 10
1.40687692E+01
 20
7.47783748E+01
 11
1.70687692E+01
 21
7.40783748E+01
  0
LINE
  8
0
 62
4
 10
-2.93123083E+00
 20
7.70784115E+01
 11
6.06876918E+00
 21
7.70784115E+01
  0
LINE
  8
0
 62
4
 10
-2.93123083E+00
 20
6.84783748E+01
 11
6.06876918E+00
 21
6.84783748E+01
  0
LINE
  8
0
 62
4
 10
-5.43123082E+00
 20
6.95283748E+01
 11
-5.43123082E+00
 21
7.60283748E+01
  0
LINE
  8
0
 62
4
 10
-2.93123082E+00
 20
6.71283748E+01
 11
6.06876918E+00
 21
6.71283748E+01
  0
LINE
  8
0
 62
4
 10
2.67876918E+00
 20
7.16783748E+01
 11
2.62876918E+00
 21
7.17183748E+01
  0
LINE
  8
0
 62
4
 10
5.06202596E-01
 20
7.17158082E+01
 11
2.62620260E+00
 21
7.38358082E+01
  0
LINE
  8
0
 62
4
 10
2.57620260E+00
 20
7.17758082E+01
 11
5.06202596E-01
 21
7.38358082E+01
  0
LINE
  8
0
 62
4
 10
1.40687692E+01
 20
7.47783748E+01
 11
1.40687692E+01
 21
7.07783748E+01
  0
LINE
  8
0
 62
4
 10
-1.09312308E+01
 20
7.37783748E+01
 11
-1.09312308E+01
 21
7.17783748E+01
  0
LINE
  8
0
 62
4
 10
-9.93123082E+00
 20
7.07783748E+01
 11
-5.43123082E+00
 21
7.07783748E+01
  0
LINE
  8
0
 62
4
 10
-9.93123082E+00
 20
7.47783748E+01
 11
-5.43123082E+00
 21
7.47783748E+01
  0
LINE
  8
0
 62
4
 10
-9.93123082E+00
 20
7.47783748E+01
 11
-9.93123082E+00
 21
7.07783748E+01
  0
LINE
  8
0
 62
4
 10
-1.09312308E+01
 20
7.37783748E+01
 11
-9.93123082E+00
 21
7.47783748E+01
  0
LINE
  8
0
 62
4
 10
-1.09312308E+01
 20
7.17783748E+01
 11
-9.93123082E+00
 21
7.07783748E+01
  0
LINE
  8
0
 62
4
 10
-5.43123082E+00
 20
6.95283748E+01
 11
-2.93123082E+00
 21
6.95283748E+01
  0
LINE
  8
0
 62
4
 10
-5.43123082E+00
 20
7.60283748E+01
 11
-2.93123082E+00
 21
7.60283748E+01
  0
LINE
  8
0
 62
4
 10
8.56876918E+00
 20
6.95283748E+01
 11
8.56876918E+00
 21
7.60283748E+01
  0
LINE
  8
0
 62
4
 10
6.06876918E+00
 20
7.60283748E+01
 11
8.56876918E+00
 21
7.60283748E+01
  0
LINE
  8
0
 62
4
 10
6.06876918E+00
 20
6.95283748E+01
 11
8.56876918E+00
 21
6.95283748E+01
  0
LINE
  8
0
 62
4
 10
8.56876918E+00
 20
7.47783748E+01
 11
1.40687692E+01
 21
7.47783748E+01
  0
LINE
  8
0
 62
4
 10
8.56876918E+00
 20
7.07783748E+01
 11
1.40687692E+01
 21
7.07783748E+01
  0
CIRCLE
  8
0
 62
4
 10
1.56789394E+00
 20
7.27759163E+01
 40
2.50000000E+00
  0
LINE
  8
0
 62
4
 10
-4.31230828E-01
 20
7.78783748E+01
 11
3.56876917E+00
 21
7.78783748E+01
  0
LINE
  8
0
 62
4
 10
-2.93123080E+00
 20
7.86428537E+01
 11
6.06876920E+00
 21
7.86428537E+01
  0
LINE
  8
0
 62
4
 10
-4.31230818E-01
 20
7.76255697E+01
 11
-4.31230818E-01
 21
7.86428537E+01
  0
ARC
  8
0
 62
4
 10
-1.07988101E+02
 20
-4.63054166E+01
 40
6.99410138E+00
 50
4.17254003E+01
 51
1.38274600E+02
  0
LINE
  8
0
 62
4
 10
-1.23988101E+02
 20
-5.37104135E+01
 11
-1.23988101E+02
 21
-5.53004135E+01
  0
LINE
  8
0
  6
CENTER
 62
6
 10
-9.68881012E+01
 20
-5.73146146E+01
 11
-9.68881012E+01
 21
-5.14583900E+01
  0
LINE
  8
0
  6
CENTER
 62
6
 10
-1.19088101E+02
 20
-5.73146146E+01
 11
-1.19088101E+02
 21
-5.17569591E+01
  0
LINE
  8
0
 62
4
 10
-9.19881012E+01
 20
-5.37104135E+01
 11
-9.19881012E+01
 21
-5.53004135E+01
  0
LINE
  8
0
 62
4
 10
-1.23988101E+02
 20
-5.53004135E+01
 11
-9.19881012E+01
 21
-5.53004135E+01
  0
LINE
  8
0
 62
4
 10
-1.23988101E+02
 20
-5.37104135E+01
 11
-9.19881012E+01
 21
-5.37104135E+01
  0
LINE
  8
0
  6
CENTER
 62
6
 10
-1.13602046E+02
 20
-4.63104135E+01
 11
-1.02405702E+02
 21
-4.63104135E+01
  0
LINE
  8
0
 62
4
 10
-1.23988101E+02
 20
-5.37104135E+01
 11
-1.13208101E+02
 21
-4.16504135E+01
  0
LINE
  8
0
  6
CENTER
 62
6
 10
-1.07988101E+02
 20
-4.05606154E+01
 11
-1.07988101E+02
 21
-5.23540975E+01
  0
LINE
  8
0
 62
4
 10
-9.19881012E+01
 20
-5.37104135E+01
 11
-1.02768101E+02
 21
-4.16504135E+01
  0
CIRCLE
  8
0
 62
4
 10
-1.07988101E+02
 20
-4.63104135E+01
 40
4.00000000E+00
  0
LINE
  8
0
  6
CENTER
 62
6
 10
-7.69881012E+01
 20
-5.14583900E+01
 11
-7.69881012E+01
 21
-5.73146146E+01
  0
LINE
  8
0
 62
4
 10
-7.90881012E+01
 20
-5.37004135E+01
 11
-7.90881012E+01
 21
-5.53004135E+01
  0
LINE
  8
0
 62
4
 10
-7.48881012E+01
 20
-5.37004135E+01
 11
-7.48881012E+01
 21
-5.53004135E+01
  0
LINE
  8
0
 62
4
 10
-7.15881012E+01
 20
-3.93004135E+01
 11
-6.99881012E+01
 21
-3.93004135E+01
  0
LINE
  8
0
 62
4
 10
-7.15881012E+01
 20
-3.93004135E+01
 11
-7.15881012E+01
 21
-5.27004135E+01
  0
ARC
  8
0
 62
4
 10
-7.25912725E+01
 20
-5.26972422E+01
 40
1.00317633E+00
 50
2.70181129E+02
 51
3.59818872E+02
  0
LINE
  8
0
 62
4
 10
-8.19881012E+01
 20
-5.37004135E+01
 11
-7.25881012E+01
 21
-5.37004135E+01
  0
LINE
  8
0
 62
4
 10
-8.19881012E+01
 20
-5.37004135E+01
 11
-8.19881012E+01
 21
-5.53004135E+01
  0
LINE
  8
0
 62
4
 10
-8.19881012E+01
 20
-5.53004135E+01
 11
-7.25881012E+01
 21
-5.53004135E+01
  0
ARC
  8
0
 62
4
 10
-7.25912735E+01
 20
-5.26972412E+01
 40
2.60317420E+00
 50
2.70069822E+02
 51
3.59930178E+02
  0
LINE
  8
0
 62
4
 10
-6.99881012E+01
 20
-3.93004135E+01
 11
-6.99881012E+01
 21
-5.27004135E+01
  0
LINE
  8
0
  6
CENTER
 62
6
 10
-7.40141479E+01
 20
-4.63104135E+01
 11
-6.80681811E+01
 21
-4.63104135E+01
  0
ARC
  8
0
 62
4
 10
-1.19095148E+02
 20
-1.68004135E+01
 40
2.10001182E+00
 50
2.70192271E+02
 51
8.98077287E+01
  0
ARC
  8
0
 62
4
 10
-9.68951514E+01
 20
-1.68004135E+01
 40
2.10001183E+00
 50
8.98076456E+01
 51
2.70192355E+02
  0
LINE
  8
0
 62
4
 10
-1.23988101E+02
 20
-1.89004135E+01
 11
-1.23988101E+02
 21
-2.18004135E+01
  0
LINE
  8
0
 62
4
 10
-9.19881012E+01
 20
-1.89004135E+01
 11
-9.19881012E+01
 21
-2.18004135E+01
  0
LINE
  8
0
 62
4
 10
-9.68881012E+01
 20
-1.89004135E+01
 11
-9.19881012E+01
 21
-1.89004135E+01
  0
LINE
  8
0
 62
4
 10
-9.68881012E+01
 20
-1.47004135E+01
 11
-9.19881012E+01
 21
-1.47004135E+01
  0
LINE
  8
0
 62
4
 10
-1.23988101E+02
 20
-1.89004135E+01
 11
-1.19088101E+02
 21
-1.89004135E+01
  0
LINE
  8
0
 62
4
 10
-1.23988101E+02
 20
-1.47004135E+01
 11
-1.19088101E+02
 21
-1.47004135E+01
  0
LINE
  8
0
  6
CENTER
 62
6
 10
-1.21961983E+02
 20
-1.68004135E+01
 11
-9.41950501E+01
 21
-1.68004135E+01
  0
LINE
  8
0
  6
CENTER
 62
6
 10
-1.07988101E+02
 20
-8.41041351E+00
 11
-1.07988101E+02
 21
-2.30404135E+01
  0
LINE
  8
0
 62
4
 10
-1.23988101E+02
 20
-2.18004135E+01
 11
-9.19881012E+01
 21
-2.18004135E+01
  0
LINE
  8
0
 62
4
 10
-1.23988101E+02
 20
-9.80041351E+00
 11
-9.19881012E+01
 21
-9.80041351E+00
  0
LINE
  8
0
 62
4
 10
-9.19881012E+01
 20
-9.80041351E+00
 11
-9.19881012E+01
 21
-1.47004135E+01
  0
LINE
  8
0
 62
4
 10
-1.23988101E+02
 20
-9.80041351E+00
 11
-1.23988101E+02
 21
-1.47004135E+01
  0
LINE
  8
0
 62
4
 10
-1.23988101E+02
 20
-1.14004135E+01
 11
-9.19881012E+01
 21
-1.14004135E+01
  0
LINE
  8
0
  6
CENTER
 62
6
 10
-1.19088101E+02
 20
-2.02671334E+01
 11
-1.19088101E+02
 21
-1.38004135E+01
  0
LINE
  8
0
  6
CENTER
 62
6
 10
-9.68881012E+01
 20
-1.99685643E+01
 11
-9.68881012E+01
 21
-1.36986118E+01
  0
ARC
  8
0
 62
4
 10
-2.90881012E+01
 20
-4.63104135E+01
 40
2.10000000E+00
 50
2.70000000E+02
 51
9.00000002E+01
  0
ARC
  8
0
 62
4
 10
-6.88810119E+00
 20
-4.63104135E+01
 40
2.10000000E+00
 50
9.00000002E+01
 51
2.70000000E+02
  0
LINE
  8
0
 62
4
 10
-3.39881012E+01
 20
-4.84104135E+01
 11
-3.39881012E+01
 21
-5.33104135E+01
  0
LINE
  8
0
 62
4
 10
-1.98810119E+00
 20
-4.84104135E+01
 11
-1.98810119E+00
 21
-5.33104135E+01
  0
LINE
  8
0
 62
4
 10
-3.39881012E+01
 20
-3.93104135E+01
 11
-1.98810119E+00
 21
-3.93104135E+01
  0
LINE
  8
0
 62
4
 10
-3.39881012E+01
 20
-5.33104135E+01
 11
-1.98810119E+00
 21
-5.33104135E+01
  0
LINE
  8
0
 62
4
 10
-6.88810119E+00
 20
-4.42104135E+01
 11
-1.98810119E+00
 21
-4.42104135E+01
  0
LINE
  8
0
 62
4
 10
-6.88810119E+00
 20
-4.84104135E+01
 11
-1.98810119E+00
 21
-4.84104135E+01
  0
LINE
  8
0
 62
4
 10
-3.39881012E+01
 20
-4.42104135E+01
 11
-2.90881012E+01
 21
-4.42104135E+01
  0
LINE
  8
0
 62
4
 10
-3.39881012E+01
 20
-4.84104135E+01
 11
-2.90881012E+01
 21
-4.84104135E+01
  0
LINE
  8
0
  6
CENTER
 62
6
 10
-3.11062609E+01
 20
-4.63104135E+01
 11
-4.48768137E+00
 21
-4.63104135E+01
  0
LINE
  8
0
  6
CENTER
 62
6
 10
-1.79881012E+01
 20
-4.11250908E+01
 11
-1.79881012E+01
 21
-5.19524322E+01
  0
CIRCLE
  8
0
 62
4
 10
-1.79881012E+01
 20
-4.63104135E+01
 40
4.00000000E+00
  0
LINE
  8
0
 62
4
 10
-1.98810119E+00
 20
-3.93104135E+01
 11
-1.98810119E+00
 21
-4.42104135E+01
  0
LINE
  8
0
 62
4
 10
-3.39881012E+01
 20
-3.93104135E+01
 11
-3.39881012E+01
 21
-4.42104135E+01
  0
LINE
  8
0
  6
CENTER
 62
6
 10
-2.90881012E+01
 20
-4.35672643E+01
 11
-2.90881012E+01
 21
-4.93270990E+01
  0
LINE
  8
0
  6
CENTER
 62
6
 10
-6.88810119E+00
 20
-4.35672643E+01
 11
-6.88810119E+00
 21
-4.93270990E+01
  0
LINE
  8
0
  6
CENTER
 62
6
 10
2.11016383E+01
 20
-4.63104135E+01
 11
2.65788726E+01
 21
-4.63104135E+01
  0
LINE
  8
0
 62
4
 10
2.30118988E+01
 20
-3.93104135E+01
 11
2.46118988E+01
 21
-3.93104135E+01
  0
LINE
  8
0
 62
4
 10
2.46118988E+01
 20
-3.93104135E+01
 11
2.46118988E+01
 21
-5.33104135E+01
  0
LINE
  8
0
 62
4
 10
2.30118988E+01
 20
-3.93104135E+01
 11
2.30118988E+01
 21
-5.33104135E+01
  0
LINE
  8
0
 62
4
 10
2.30118988E+01
 20
-4.84104135E+01
 11
2.46118988E+01
 21
-4.84104135E+01
  0
LINE
  8
0
 62
4
 10
2.30118988E+01
 20
-5.33104135E+01
 11
2.46118988E+01
 21
-5.33104135E+01
  0
LINE
  8
0
 62
4
 10
2.30118988E+01
 20
-4.42104135E+01
 11
2.46118988E+01
 21
-4.42104135E+01
  0
LINE
  8
0
  6
CENTER
 62
6
 10
-6.88810119E+00
 20
-2.06338586E+01
 11
-6.88810119E+00
 21
-1.56786383E+01
  0
LINE
  8
0
  6
CENTER
 62
6
 10
-2.90881012E+01
 20
-2.05261364E+01
 11
-2.90881012E+01
 21
-1.55709161E+01
  0
LINE
  8
0
  6
CENTER
 62
6
 10
-1.79881012E+01
 20
-2.05261364E+01
 11
-1.79881012E+01
 21
-1.55709161E+01
  0
LINE
  8
0
 62
4
 10
-3.39881012E+01
 20
-1.72104135E+01
 11
-3.39881012E+01
 21
-1.88104135E+01
  0
LINE
  8
0
 62
4
 10
-3.39881012E+01
 20
-1.88104135E+01
 11
-1.98810119E+00
 21
-1.88104135E+01
  0
LINE
  8
0
 62
4
 10
-3.39881012E+01
 20
-1.72104135E+01
 11
-1.98810119E+00
 21
-1.72104135E+01
  0
LINE
  8
0
 62
4
 10
-1.98810119E+00
 20
-1.72104135E+01
 11
-1.98810119E+00
 21
-1.88104135E+01
  0
LINE
  8
0
 62
4
 10
7.74604514E+01
 20
-1.95913787E+01
 11
8.64604514E+01
 21
-1.95913787E+01
  0
LINE
  8
0
 62
4
 10
7.74604514E+01
 20
-7.59137869E+00
 11
8.64604514E+01
 21
-7.59137869E+00
  0
LINE
  8
0
  6
CENTER
 62
6
 10
6.04604514E+01
 20
-1.35913787E+01
 11
8.84604514E+01
 21
-1.35913787E+01
  0
CIRCLE
  8
0
 62
4
 10
8.19604514E+01
 20
-1.35913787E+01
 40
2.06700000E+00
  0
LINE
  8
0
 62
4
 10
8.64604514E+01
 20
-7.59137869E+00
 11
8.64604514E+01
 21
-1.95913787E+01
  0
LINE
  8
0
  6
CENTER
 62
6
 10
8.19604514E+01
 20
-9.98137869E+00
 11
8.19604514E+01
 21
-1.71913787E+01
  0
LINE
  8
0
 62
4
 10
7.91904514E+01
 20
-1.71913787E+01
 11
8.47304514E+01
 21
-1.71913787E+01
  0
LINE
  8
0
 62
4
 10
7.91904514E+01
 20
-7.59137869E+00
 11
7.91904514E+01
 21
-9.99137869E+00
  0
LINE
  8
0
 62
4
 10
8.47304514E+01
 20
-7.59137869E+00
 11
8.47304514E+01
 21
-9.99137869E+00
  0
LINE
  8
0
 62
4
 10
8.47304514E+01
 20
-1.71913787E+01
 11
8.47304514E+01
 21
-1.95913787E+01
  0
LINE
  8
0
 62
4
 10
7.91904514E+01
 20
-1.71913787E+01
 11
7.91904514E+01
 21
-1.95913787E+01
  0
CIRCLE
  8
0
 62
6
 10
8.19572849E+01
 20
-1.35830730E+01
 40
2.50000000E+00
  0
LINE
  8
0
 62
4
 10
7.74604514E+01
 20
-7.59137869E+00
 11
7.74604514E+01
 21
-1.95913787E+01
  0
LINE
  8
0
 62
4
 10
7.91904514E+01
 20
-9.99137869E+00
 11
8.47304514E+01
 21
-9.99137869E+00
  0
ARC
  8
0
 62
4
 10
8.20711162E+01
 20
-1.35913787E+01
 40
4.61066474E+00
 50
1.28666259E+02
 51
2.31333741E+02
  0
ARC
  8
0
 62
4
 10
8.18497867E+01
 20
-1.35913787E+01
 40
4.61066474E+00
 50
3.08666258E+02
 51
5.13337413E+01
  0
LINE
  8
0
  6
CENTER
 62
6
 10
9.81104514E+01
 20
-1.35913787E+01
 11
1.14110451E+02
 21
-1.35913787E+01
  0
LINE
  8
0
  6
CENTER
 62
6
 10
1.06110451E+02
 20
-5.59137869E+00
 11
1.06110451E+02
 21
-2.15913787E+01
  0
LINE
  8
0
 62
4
 10
1.00110451E+02
 20
-9.98582742E+00
 11
1.00110451E+02
 21
-1.71969300E+01
  0
LINE
  8
0
 62
4
 10
1.12110451E+02
 20
-9.98582742E+00
 11
1.12110451E+02
 21
-1.71969300E+01
  0
LINE
  8
0
 62
4
 10
1.02504900E+02
 20
-7.59137869E+00
 11
1.09716003E+02
 21
-7.59137869E+00
  0
LINE
  8
0
 62
4
 10
1.02504900E+02
 20
-1.95913787E+01
 11
1.09716003E+02
 21
-1.95913787E+01
  0
CIRCLE
  8
0
 62
4
 10
1.06110451E+02
 20
-1.35913787E+01
 40
6.00000000E+00
  0
ARC
  8
0
 62
4
 10
1.06110451E+02
 20
-1.35913787E+01
 40
7.00000000E+00
 50
1.21002719E+02
 51
1.48997281E+02
  0
ARC
  8
0
 62
4
 10
1.06110451E+02
 20
-1.35913787E+01
 40
7.00000000E+00
 50
2.11002719E+02
 51
2.38997281E+02
  0
ARC
  8
0
 62
4
 10
1.06110451E+02
 20
-1.35913787E+01
 40
7.00000000E+00
 50
3.10027191E+01
 51
5.89972808E+01
  0
ARC
  8
0
 62
4
 10
1.06110451E+02
 20
-1.35913787E+01
 40
7.00000000E+00
 50
3.01002719E+02
 51
3.28997281E+02
  0
LINE
  8
0
  6
CENTER
 62
6
 10
6.04704514E+01
 20
-4.65913787E+01
 11
9.56704514E+01
 21
-4.65913787E+01
  0
LINE
  8
0
 62
6
 10
9.25604514E+01
 20
-4.99148787E+01
 11
9.44704514E+01
 21
-4.99148787E+01
  0
LINE
  8
0
 62
6
 10
9.25604514E+01
 20
-4.32678787E+01
 11
9.44704514E+01
 21
-4.32678787E+01
  0
LINE
  8
0
 62
6
 10
8.79704514E+01
 20
-4.99148787E+01
 11
8.85604514E+01
 21
-4.99148787E+01
  0
LINE
  8
0
 62
6
 10
8.79704514E+01
 20
-4.32678787E+01
 11
8.85604514E+01
 21
-4.32678787E+01
  0
CIRCLE
  8
0
 62
4
 10
8.19704514E+01
 20
-4.65913787E+01
 40
2.06700000E+00
  0
LINE
  8
0
 62
4
 10
7.74704514E+01
 20
-4.05913787E+01
 11
7.74704514E+01
 21
-5.25913787E+01
  0
LINE
  8
0
 62
4
 10
8.64704514E+01
 20
-4.05913787E+01
 11
8.64704514E+01
 21
-5.25913787E+01
  0
LINE
  8
0
 62
4
 10
7.74704514E+01
 20
-4.05913787E+01
 11
8.64704514E+01
 21
-4.05913787E+01
  0
LINE
  8
0
 62
4
 10
7.74704514E+01
 20
-5.25913787E+01
 11
8.64704514E+01
 21
-5.25913787E+01
  0
LINE
  8
0
  6
CENTER
 62
6
 10
8.19704514E+01
 20
-4.29813787E+01
 11
8.19704514E+01
 21
-5.01913787E+01
  0
LINE
  8
0
 62
4
 10
8.91604514E+01
 20
-3.96613787E+01
 11
9.19604514E+01
 21
-3.96613787E+01
  0
LINE
  8
0
 62
4
 10
8.91604514E+01
 20
-4.31213787E+01
 11
9.19604514E+01
 21
-4.31213787E+01
  0
LINE
  8
0
 62
4
 10
8.91604514E+01
 20
-5.00513787E+01
 11
9.19604514E+01
 21
-5.00513787E+01
  0
LINE
  8
0
 62
4
 10
8.91604514E+01
 20
-5.35113787E+01
 11
9.19604514E+01
 21
-5.35113787E+01
  0
LINE
  8
0
 62
4
 10
9.44704514E+01
 20
-4.31913787E+01
 11
9.44704514E+01
 21
-4.99913787E+01
  0
LINE
  8
0
 62
4
 10
8.64704514E+01
 20
-5.05913787E+01
 11
8.85604514E+01
 21
-5.05913787E+01
  0
LINE
  8
0
 62
4
 10
8.64704514E+01
 20
-4.25913787E+01
 11
8.85604514E+01
 21
-4.25913787E+01
  0
LINE
  8
0
 62
4
 10
9.38704514E+01
 20
-4.25913787E+01
 11
9.44704514E+01
 21
-4.31913787E+01
  0
LINE
  8
0
 62
4
 10
9.38704514E+01
 20
-5.05913787E+01
 11
9.44704514E+01
 21
-4.99913787E+01
  0
LINE
  8
0
 62
4
 10
8.79704514E+01
 20
-4.25913787E+01
 11
8.79704514E+01
 21
-5.05913787E+01
  0
LINE
  8
0
 62
4
 10
9.38704514E+01
 20
-4.25913787E+01
 11
9.38704514E+01
 21
-5.05913787E+01
  0
LINE
  8
0
 62
4
 10
9.25604514E+01
 20
-4.13913787E+01
 11
9.25604514E+01
 21
-5.17813787E+01
  0
LINE
  8
0
 62
4
 10
8.85604514E+01
 20
-4.13913787E+01
 11
8.85604514E+01
 21
-5.17813787E+01
  0
LINE
  8
0
 62
4
 10
9.25604514E+01
 20
-4.25913787E+01
 11
9.38704514E+01
 21
-4.25913787E+01
  0
LINE
  8
0
 62
4
 10
9.25604514E+01
 20
-5.05913787E+01
 11
9.38704514E+01
 21
-5.05913787E+01
  0
LINE
  8
0
 62
4
 10
7.92004514E+01
 20
-4.05913787E+01
 11
7.92004514E+01
 21
-4.29858274E+01
  0
LINE
  8
0
 62
4
 10
8.47404514E+01
 20
-4.05913787E+01
 11
8.47404514E+01
 21
-4.29858274E+01
  0
LINE
  8
0
 62
4
 10
7.92004514E+01
 20
-5.01969300E+01
 11
7.92004514E+01
 21
-5.25913787E+01
  0
LINE
  8
0
 62
4
 10
8.47404514E+01
 20
-5.01969300E+01
 11
8.47404514E+01
 21
-5.25913787E+01
  0
CIRCLE
  8
0
 62
6
 10
8.19623435E+01
 20
-4.65830730E+01
 40
2.50000000E+00
  0
ARC
  8
0
 62
4
 10
9.13538643E+01
 20
-4.13911462E+01
 40
2.79341289E+00
 50
1.41740010E+02
 51
1.80004770E+02
  0
ARC
  8
0
 62
4
 10
9.88550773E+01
 20
-4.65845561E+01
 40
1.02946281E+01
 50
1.60341925E+02
 51
1.80037972E+02
  0
ARC
  8
0
 62
4
 10
9.13566235E+01
 20
-4.13906543E+01
 40
2.79617214E+00
 50
1.80014844E+02
 51
2.18240376E+02
  0
ARC
  8
0
 62
4
 10
9.88561916E+01
 20
-4.65880134E+01
 40
1.02957407E+01
 50
1.80018728E+02
 51
1.99656974E+02
  0
ARC
  8
0
 62
4
 10
9.13545751E+01
 20
-5.17813927E+01
 40
2.79412364E+00
 50
1.41745067E+02
 51
1.79999713E+02
  0
ARC
  8
0
 62
4
 10
9.13559084E+01
 20
-5.17809023E+01
 40
2.79545698E+00
 50
1.80009764E+02
 51
2.18245456E+02
  0
ARC
  8
0
 62
4
 10
8.97551126E+01
 20
-4.13874750E+01
 40
2.80534161E+00
 50
3.21824508E+02
 51
3.59920273E+02
  0
ARC
  8
0
 62
4
 10
8.97578627E+01
 20
-4.13943286E+01
 40
2.80259031E+00
 50
6.03065249E-02
 51
3.81949138E+01
  0
ARC
  8
0
 62
4
 10
8.22558512E+01
 20
-4.65862808E+01
 40
1.03046015E+01
 50
3.59971654E+02
 51
1.96484484E+01
  0
ARC
  8
0
 62
4
 10
8.22547397E+01
 20
-4.65862842E+01
 40
1.03057130E+01
 50
3.40352622E+02
 51
3.59971677E+02
  0
ARC
  8
0
 62
4
 10
8.97571543E+01
 20
-5.17845743E+01
 40
2.80329901E+00
 50
6.53130559E-02
 51
3.81899073E+01
  0
ARC
  8
0
 62
4
 10
8.97558253E+01
 20
-5.17777222E+01
 40
2.80462852E+00
 50
3.21819478E+02
 51
3.59925302E+02
  0
LINE
  8
0
 62
4
 10
7.92004514E+01
 20
-4.29858274E+01
 11
8.47404514E+01
 21
-4.29858274E+01
  0
LINE
  8
0
 62
4
 10
7.92004514E+01
 20
-5.01969300E+01
 11
8.47404514E+01
 21
-5.01969300E+01
  0
ARC
  8
0
 62
4
 10
8.20926769E+01
 20
-4.65913787E+01
 40
4.62222543E+00
 50
1.28735157E+02
 51
2.31264843E+02
  0
ARC
  8
0
 62
4
 10
8.18482260E+01
 20
-4.65913787E+01
 40
4.62222543E+00
 50
3.08735157E+02
 51
5.12648431E+01
  0
LINE
  8
0
  6
CENTER
 62
6
 10
1.06100451E+02
 20
-3.85913787E+01
 11
1.06100451E+02
 21
-5.45913787E+01
  0
LINE
  8
0
  6
CENTER
 62
6
 10
9.81104514E+01
 20
-4.65913787E+01
 11
1.14100451E+02
 21
-4.65913787E+01
  0
CIRCLE
  8
0
 62
6
 10
1.06100451E+02
 20
-4.65913787E+01
 40
3.32350000E+00
  0
LINE
  8
0
 62
4
 10
1.02494900E+02
 20
-4.05913787E+01
 11
1.04500451E+02
 21
-4.05913787E+01
  0
LINE
  8
0
 62
4
 10
1.02494900E+02
 20
-5.25913787E+01
 11
1.04500451E+02
 21
-5.25913787E+01
  0
LINE
  8
0
 62
4
 10
1.07710451E+02
 20
-4.05913787E+01
 11
1.09706003E+02
 21
-4.05913787E+01
  0
LINE
  8
0
 62
4
 10
1.07710451E+02
 20
-5.25913787E+01
 11
1.09706003E+02
 21
-5.25913787E+01
  0
CIRCLE
  8
0
 62
4
 10
1.06100451E+02
 20
-4.65913787E+01
 40
4.00000000E+00
  0
LINE
  8
0
 62
4
 10
1.12100451E+02
 20
-4.29858274E+01
 11
1.12100451E+02
 21
-5.01969300E+01
  0
LINE
  8
0
 62
4
 10
1.00100451E+02
 20
-4.29858274E+01
 11
1.00100451E+02
 21
-5.01969300E+01
  0
LINE
  8
0
 62
4
 10
1.06100451E+02
 20
-3.96631755E+01
 11
1.12100451E+02
 21
-4.31272771E+01
  0
LINE
  8
0
 62
4
 10
1.00100451E+02
 20
-5.00554803E+01
 11
1.06100451E+02
 21
-5.35195819E+01
  0
LINE
  8
0
 62
4
 10
1.00100451E+02
 20
-4.31272771E+01
 11
1.06100451E+02
 21
-3.96631755E+01
  0
LINE
  8
0
 62
4
 10
1.06100451E+02
 20
-5.35195819E+01
 11
1.12100451E+02
 21
-5.00554803E+01
  0
CIRCLE
  8
0
 62
4
 10
1.06100451E+02
 20
-4.65913787E+01
 40
6.00000000E+00
  0
ARC
  8
0
 62
4
 10
1.06100451E+02
 20
-4.65913787E+01
 40
7.00000000E+00
 50
1.21002719E+02
 51
1.48997281E+02
  0
ARC
  8
0
 62
4
 10
1.06100451E+02
 20
-4.65913787E+01
 40
7.00000000E+00
 50
2.11002719E+02
 51
2.38997281E+02
  0
ARC
  8
0
 62
4
 10
1.06100451E+02
 20
-4.65913787E+01
 40
7.00000000E+00
 50
3.10027191E+01
 51
5.89972808E+01
  0
ARC
  8
0
 62
4
 10
1.06100451E+02
 20
-4.65913787E+01
 40
7.00000000E+00
 50
3.01002719E+02
 51
3.28997281E+02
  0
LINE
  8
0
 62
7
 10
5.86204514E+01
 20
-5.20913787E+01
 11
7.74704514E+01
 21
-5.20913787E+01
  0
LINE
  8
0
 62
7
 10
6.49704514E+01
 20
-4.10913787E+01
 11
7.74704514E+01
 21
-4.10913787E+01
  0
LINE
  8
0
 62
2
 10
5.86151181E+01
 20
-5.20913787E+01
 11
6.49657848E+01
 21
-4.10913787E+01
  0
LINE
  8
0
 62
7
 10
5.86112222E+01
 20
-1.90913787E+01
 11
7.74612222E+01
 21
-1.90913787E+01
  0
LINE
  8
0
 62
7
 10
6.49612222E+01
 20
-8.09137869E+00
 11
7.74612222E+01
 21
-8.09137869E+00
  0
LINE
  8
0
 62
2
 10
5.86158889E+01
 20
-1.90913787E+01
 11
6.49665555E+01
 21
-8.09137869E+00
  0
TEXT
  8
0
 10
6.74514075E+00
 20
5.50246225E+01
 40
3.20000005E+00
  1
STRETCH LINE
 41
1.05263158E+00
  7
MONOTXT
  0
TEXT
  8
0
 62
7
 10
3.69500060E+01
 20
-8.84000031E+01
 40
3.20000005E+00
  1
110
 41
1.00000000E+00
  7
MONOTXT
  0
TEXT
  8
0
 62
7
 10
2.89500061E+01
 20
-8.84000031E+01
 40
3.20000005E+00
  1
85
 41
1.00000000E+00
  7
MONOTXT
  0
TEXT
  8
0
 62
7
 10
1.93500061E+01
 20
-8.84000031E+01
 40
3.20000005E+00
  1
60
 41
1.00000000E+00
  7
MONOTXT
  0
TEXT
  8
0
 62
7
 10
9.75000609E+00
 20
-8.84000031E+01
 40
3.20000005E+00
  1
35
 41
1.00000000E+00
  7
MONOTXT
  0
TEXT
  8
0
 62
7
 10
1.50006081E-01
 20
-8.84000031E+01
 40
3.20000005E+00
  1
20
 41
1.00000000E+00
  7
MONOTXT
  0
TEXT
  8
0
 62
7
 10
-9.44999392E+00
 20
-8.84000031E+01
 40
3.20000005E+00
  1
15
 41
1.00000000E+00
  7
MONOTXT
  0
TEXT
  8
0
 62
7
 10
-1.90499939E+01
 20
-8.84000031E+01
 40
3.20000005E+00
  1
10
 41
1.00000000E+00
  7
MONOTXT
  0
TEXT
  8
0
 62
7
 10
-2.70499939E+01
 20
-8.84000031E+01
 40
3.20000005E+00
  1
5
 41
1.00000000E+00
  7
MONOTXT
  0
TEXT
  8
0
 62
7
 10
-3.66499939E+01
 20
-8.84000031E+01
 40
3.20000005E+00
  1
0
 41
1.00000000E+00
  7
MONOTXT
  0
TEXT
  8
0
 62
7
 10
-4.78499939E+01
 20
-8.84000031E+01
 40
3.20000005E+00
  1
-5
 41
1.00000000E+00
  7
MONOTXT
  0
TEXT
  8
0
 62
7
 10
-5.90499940E+01
 20
-8.84000031E+01
 40
3.20000005E+00
  1
-10
 41
1.00000000E+00
  7
MONOTXT
  0
TEXT
  8
0
 62
7
 10
-6.86499940E+01
 20
-8.84000031E+01
 40
3.20000005E+00
  1
-15
 41
1.00000000E+00
  7
MONOTXT
  0
TEXT
  8
0
 62
7
 10
-7.82499940E+01
 20
-8.84000031E+01
 40
3.20000005E+00
  1
-20
 41
1.00000000E+00
  7
MONOTXT
  0
TEXT
  8
0
 62
7
 10
-8.78499940E+01
 20
-8.84000031E+01
 40
3.20000005E+00
  1
-25
 41
1.00000000E+00
  7
MONOTXT
  0
TEXT
  8
0
 62
7
 10
-9.74499940E+01
 20
-8.84000031E+01
 40
3.20000005E+00
  1
-30
 41
1.00000000E+00
  7
MONOTXT
  0
TEXT
  8
0
 62
7
 10
-1.07049994E+02
 20
-8.84000031E+01
 40
3.20000005E+00
  1
-35
 41
1.00000000E+00
  7
MONOTXT
  0
LINE
  8
0
 62
7
 10
1.74000061E+01
 20
-8.98000031E+01
 11
1.74000061E+01
 21
-7.78000031E+01
  0
LINE
  8
0
 62
7
 10
2.70000061E+01
 20
-8.98000031E+01
 11
2.70000061E+01
 21
-7.78000031E+01
  0
LINE
  8
0
 62
7
 10
3.66000061E+01
 20
-8.98000031E+01
 11
3.66000061E+01
 21
-7.78000031E+01
  0
LINE
  8
0
 62
7
 10
4.62000061E+01
 20
-8.98000031E+01
 11
4.62000061E+01
 21
-7.78000031E+01
  0
TEXT
  8
0
 62
7
 10
3.69500060E+01
 20
-8.24000031E+01
 40
3.20000005E+00
  1
150
 41
1.00000000E+00
  7
MONOTXT
  0
TEXT
  8
0
 62
7
 10
2.73500060E+01
 20
-8.24000031E+01
 40
3.20000005E+00
  1
125
 41
1.00000000E+00
  7
MONOTXT
  0
TEXT
  8
0
 62
7
 10
1.77500060E+01
 20
-8.24000031E+01
 40
3.20000005E+00
  1
100
 41
1.00000000E+00
  7
MONOTXT
  0
TEXT
  8
0
 62
7
 10
9.75000609E+00
 20
-8.24000031E+01
 40
3.20000005E+00
  1
75
 41
1.00000000E+00
  7
MONOTXT
  0
TEXT
  8
0
 62
7
 10
3.51562661E+01
 20
-7.60119966E+01
 40
3.20000005E+00
  1
(mm)
 41
1.00000000E+00
  7
MONOTXT
  0
TEXT
  8
0
 62
7
 10
-1.31249994E+02
 20
-8.84000031E+01
 40
3.20000005E+00
  1
STRETCH
 41
1.00000000E+00
  7
MONOTXT
  0
TEXT
  8
0
 62
7
 10
-1.29649994E+02
 20
-8.24000031E+01
 40
3.20000005E+00
  1
STROKE
 41
1.00000000E+00
  7
MONOTXT
  0
TEXT
  8
0
 62
7
 10
-6.29382017E+01
 20
-7.57696827E+01
 40
3.20000005E+00
  1
STRETCH LIST
 41
1.05263158E+00
  7
MONOTXT
  0
TEXT
  8
0
 62
7
 10
1.50006081E-01
 20
-8.24000031E+01
 40
3.20000005E+00
  1
60
 41
1.00000000E+00
  7
MONOTXT
  0
LINE
  8
0
 62
7
 10
7.80000610E+00
 20
-8.98000031E+01
 11
7.80000610E+00
 21
-7.78000031E+01
  0
TEXT
  8
0
 62
7
 10
-9.44999392E+00
 20
-8.24000031E+01
 40
3.20000005E+00
  1
55
 41
1.00000000E+00
  7
MONOTXT
  0
LINE
  8
0
 62
7
 10
-1.79999390E+00
 20
-8.98000031E+01
 11
-1.79999390E+00
 21
-7.78000031E+01
  0
TEXT
  8
0
 62
7
 10
-1.90499939E+01
 20
-8.24000031E+01
 40
3.20000005E+00
  1
50
 41
1.00000000E+00
  7
MONOTXT
  0
LINE
  8
0
 62
7
 10
-1.13999939E+01
 20
-8.98000031E+01
 11
-1.13999939E+01
 21
-7.78000031E+01
  0
TEXT
  8
0
 62
7
 10
-2.86499939E+01
 20
-8.24000031E+01
 40
3.20000005E+00
  1
45
 41
1.00000000E+00
  7
MONOTXT
  0
LINE
  8
0
 62
7
 10
-2.09999939E+01
 20
-8.98000031E+01
 11
-2.09999939E+01
 21
-7.78000031E+01
  0
TEXT
  8
0
 62
7
 10
-3.82499939E+01
 20
-8.24000031E+01
 40
3.20000005E+00
  1
40
 41
1.00000000E+00
  7
MONOTXT
  0
LINE
  8
0
 62
7
 10
-3.05999939E+01
 20
-8.98000031E+01
 11
-3.05999939E+01
 21
-7.78000031E+01
  0
TEXT
  8
0
 62
7
 10
-4.78499939E+01
 20
-8.24000031E+01
 40
3.20000005E+00
  1
35
 41
1.00000000E+00
  7
MONOTXT
  0
LINE
  8
0
 62
7
 10
-4.01999939E+01
 20
-8.98000031E+01
 11
-4.01999939E+01
 21
-7.78000031E+01
  0
TEXT
  8
0
 62
7
 10
-5.74499939E+01
 20
-8.24000031E+01
 40
3.20000005E+00
  1
30
 41
1.00000000E+00
  7
MONOTXT
  0
LINE
  8
0
 62
7
 10
-4.97999939E+01
 20
-8.98000031E+01
 11
-4.97999939E+01
 21
-7.78000031E+01
  0
TEXT
  8
0
 62
7
 10
-6.70499939E+01
 20
-8.24000031E+01
 40
3.20000005E+00
  1
25
 41
1.00000000E+00
  7
MONOTXT
  0
LINE
  8
0
 62
7
 10
-5.93999939E+01
 20
-8.98000031E+01
 11
-5.93999939E+01
 21
-7.78000031E+01
  0
TEXT
  8
0
 62
7
 10
-7.66499939E+01
 20
-8.24000031E+01
 40
3.20000005E+00
  1
20
 41
1.00000000E+00
  7
MONOTXT
  0
LINE
  8
0
 62
7
 10
-6.89999939E+01
 20
-8.98000031E+01
 11
-6.89999939E+01
 21
-7.78000031E+01
  0
TEXT
  8
0
 62
7
 10
-8.62499939E+01
 20
-8.24000031E+01
 40
3.20000005E+00
  1
15
 41
1.00000000E+00
  7
MONOTXT
  0
LINE
  8
0
 62
7
 10
-7.85999939E+01
 20
-8.98000031E+01
 11
-7.85999939E+01
 21
-7.78000031E+01
  0
TEXT
  8
0
 62
7
 10
-9.58499939E+01
 20
-8.24000031E+01
 40
3.20000005E+00
  1
10
 41
1.00000000E+00
  7
MONOTXT
  0
LINE
  8
0
 62
7
 10
-8.81999939E+01
 20
-8.98000031E+01
 11
-8.81999939E+01
 21
-7.78000031E+01
  0
TEXT
  8
0
 62
7
 10
-1.03849994E+02
 20
-8.24000031E+01
 40
3.20000005E+00
  1
5
 41
1.00000000E+00
  7
MONOTXT
  0
LINE
  8
0
 62
7
 10
-1.33399994E+02
 20
-7.78000031E+01
 11
4.62000061E+01
 21
-7.78000031E+01
  0
LINE
  8
0
 62
7
 10
-9.77999939E+01
 20
-8.98000031E+01
 11
-9.77999939E+01
 21
-7.78000031E+01
  0
LINE
  8
0
 62
7
 10
-1.07399994E+02
 20
-8.98000031E+01
 11
-1.07399994E+02
 21
-7.78000031E+01
  0
LINE
  8
0
 62
7
 10
-1.33399994E+02
 20
-8.38000031E+01
 11
4.62000061E+01
 21
-8.38000031E+01
  0
LINE
  8
0
 62
7
 10
-1.33399994E+02
 20
-8.98000031E+01
 11
-1.33399994E+02
 21
-7.78000031E+01
  0
LINE
  8
0
 62
7
 10
-1.33399994E+02
 20
-8.98000031E+01
 11
4.62000061E+01
 21
-8.98000031E+01
  0
LINE
  8
0
 62
7
 10
-1.38399994E+02
 20
9.45000000E+01
 11
1.38350006E+02
 21
9.45000000E+01
  0
LINE
  8
0
 62
7
 10
1.38350006E+02
 20
9.45000000E+01
 11
1.38350006E+02
 21
-9.48000031E+01
  0
LINE
  8
0
 62
7
 10
-1.38399994E+02
 20
-9.48000031E+01
 11
1.38350006E+02
 21
-9.48000031E+01
  0
LINE
  8
0
 62
7
 10
-1.38399994E+02
 20
9.45000000E+01
 11
-1.38399994E+02
 21
-9.48000031E+01
  0
LINE
  8
0
 62
7
 10
7.33500061E+01
 20
-8.48000031E+01
 11
1.38350006E+02
 21
-8.48000031E+01
  0
LINE
  8
0
 62
7
 10
-1.38399994E+02
 20
8.45000000E+01
 11
-7.33999939E+01
 21
8.45000000E+01
  0
LINE
  8
0
 62
7
 10
7.33500061E+01
 20
8.45000000E+01
 11
1.38350006E+02
 21
8.45000000E+01
  0
LINE
  8
0
 62
7
 10
7.33500061E+01
 20
-8.48000031E+01
 11
7.33500061E+01
 21
-9.48000031E+01
  0
LINE
  8
0
 62
7
 10
7.33500061E+01
 20
9.45000000E+01
 11
7.33500061E+01
 21
8.45000000E+01
  0
LINE
  8
0
 62
7
 10
-7.33999939E+01
 20
9.45000000E+01
 11
-7.33999939E+01
 21
8.45000000E+01
  0
TEXT
  8
0
 62
7
 10
7.72426624E+01
 20
-9.20500031E+01
 40
4.50000000E+00
  1
KOGANEI CORP.
 41
1.04838710E+00
  7
MONOTXT
  0
TEXT
  8
0
 62
7
 10
9.35071483E+01
 20
8.79000000E+01
 40
3.20000005E+00
  1
Ver. 1.1
 41
1.08108108E+00
  7
MONOTXT
  0
TEXT
  8
0
 62
7
 10
-1.31042852E+02
 20
8.79000000E+01
 40
3.20000005E+00
  1
NEW PEN CYLINDER
 41
1.08108108E+00
  7
MONOTXT
  0
TEXT
  8
0
 62
7
 10
-1.29085994E+02
 20
7.29000000E+01
 40
3.20000005E+00
  1
MODEL:PBDAS10*ST(40)-ZC230
 41
1.00000000E+00
  7
MONOTXT
  0
ENDSEC
  0
EOF
