  0
SECTION
  2
HEADER
  9
$ACADVER
  1
AC1003
  9
$EXTMIN
 10
-1.38399994E+02
 20
-9.48000031E+01
  9
$EXTMAX
 10
1.38350006E+02
 20
9.45000000E+01
  9
$LIMMIN
 10
-1.38400994E+02
 20
-9.48010031E+01
  9
$LIMMAX
 10
1.38351006E+02
 20
9.45010000E+01
  9
$SNAPUNIT
 10
1
 20
1
  9
$SNAPBASE
 10
0
 20
0
  9
$GRIDMODE
 70
0
  9
$GRIDUNIT
 10
0
 20
0
  9
$LTSCALE
 40
4.61250000E+00
  9
$TEXTSIZE
 40
3.2
  9
$DIMTAD
 70
0
  9
$LUNITS
 70
2
  9
$LUPREC
 70
4
  9
$FILLETRAD
 40
0
  9
$AUNITS
 70
0
  9
$AUPREC
 70
0
  0
ENDSEC
  0
SECTION
  2
TABLES
  0
TABLE
  2
LTYPE
 70
2
  0
LTYPE
  2
CONTINUOUS
 70
64
  3
Solid-Line
 72
65
 73
0
 40
0
  0
LTYPE
  2
DASHED
 70
64
  3
DASHED
 72
65
 73
2
 40
.75
 49
.5
 49
-.25
  0
LTYPE
  2
HIDDEN
 70
64
  3
HIDDEN
 72
65
 73
2
 40
.375
 49
.25
 49
-.125
  0
LTYPE
  2
CENTER
 70
64
  3
CENTER
 72
65
 73
4
 40
2
 49
1.25
 49
-.25
 49
.25
 49
-.25
  0
LTYPE
  2
PHANTOM
 70
64
  3
PHANTOM
 72
65
 73
6
 40
2.5
 49
1.25
 49
-.25
 49
.25
 49
-.25
 49
.25
 49
-.25
  0
ENDTAB
  0
TABLE
  2
LAYER
 70
1
  0
LAYER
  2
1
 70
0
 62
7
  6
CONTINUOUS
 0
ENDTAB
  0
TABLE
  2
STYLE
 70
2
  0
STYLE
  2
MONOTXT
 70
0
 40
0
 41
1
 50
0
 71
0
 42
.2
  3
monotxt
  0
STYLE
  2
BIGFONT
 70
0
 40
0
 41
1
 50
0
 71
0
 42
.2
  3
txt
  4
bigfont
  0
ENDTAB
  0
ENDSEC
  0
SECTION
  2
ENTITIES
  0
LINE
  8
0
  6
CENTER
 62
6
 10
-1.50546270E+00
 20
4.64950315E+01
 11
-1.50546270E+00
 21
1.22509746E+01
  0
ARC
  8
0
 62
4
 10
-3.00467121E+00
 20
4.26842400E+01
 40
1.00079180E+00
 50
9.00000002E+01
 51
1.79954687E+02
  0
ARC
  8
0
 62
4
 10
-7.12835511E-03
 20
4.26833658E+01
 40
1.00166704E+00
 50
9.52762946E-02
 51
8.99047236E+01
  0
LINE
  8
0
  6
CENTER
 62
6
 10
3.79945373E+01
 20
4.64950315E+01
 11
3.79945373E+01
 21
1.15288111E+01
  0
ARC
  8
0
 62
4
 10
3.64953288E+01
 20
4.26842400E+01
 40
1.00079180E+00
 50
9.00000002E+01
 51
1.79954687E+02
  0
ARC
  8
0
 62
4
 10
3.94928716E+01
 20
4.26833658E+01
 40
1.00166704E+00
 50
9.52762946E-02
 51
8.99047236E+01
  0
LINE
  8
0
  6
PHANTOM
 10
2.13467851E+01
 20
8.46903310E+00
 11
2.13467851E+01
 21
4.64950315E+01
  0
TEXT
  8
0
 62
7
 10
3.90859980E+00
 20
1.57850468E+01
 40
1.50000000E+00
  1
PBDAS16
 41
1.00000000E+00
  7
MONOTXT
  0
LINE
  8
0
 62
7
 10
4.24945373E+01
 20
1.46850315E+01
 11
4.84945373E+01
 21
1.46850315E+01
  0
LINE
  8
0
 62
7
 10
4.49945373E+01
 20
3.16850315E+01
 11
4.84945373E+01
 21
3.16850315E+01
  0
LINE
  8
0
 62
7
 10
2.99453730E+00
 20
1.46850315E+01
 11
3.34945373E+01
 21
1.46850315E+01
  0
LINE
  8
0
 62
7
 10
5.49453730E+00
 20
3.16850315E+01
 11
3.09945373E+01
 21
3.16850315E+01
  0
LINE
  8
0
 62
4
 10
4.49945373E+01
 20
3.64850315E+01
 11
5.04945373E+01
 21
3.64850315E+01
  0
LINE
  8
0
 62
4
 10
4.49945373E+01
 20
3.24850315E+01
 11
5.04945373E+01
 21
3.24850315E+01
  0
LINE
  8
0
 62
4
 10
3.09945373E+01
 20
3.42850315E+01
 11
3.09945373E+01
 21
3.12169136E+01
  0
LINE
  8
0
 62
4
 10
4.49945373E+01
 20
3.42850315E+01
 11
4.49945373E+01
 21
3.12169136E+01
  0
LINE
  8
0
 62
4
 10
3.34945373E+01
 20
3.46850315E+01
 11
4.24945373E+01
 21
3.46850315E+01
  0
LINE
  8
0
 62
4
 10
3.09945373E+01
 20
3.12169136E+01
 11
3.34945373E+01
 21
3.12169136E+01
  0
LINE
  8
0
 62
4
 10
4.49945373E+01
 20
3.12169136E+01
 11
4.24945373E+01
 21
3.12169136E+01
  0
LINE
  8
0
 62
4
 10
4.24945373E+01
 20
3.43850315E+01
 11
4.24945373E+01
 21
4.11850315E+01
  0
LINE
  8
0
 62
4
 10
3.34945373E+01
 20
3.43850315E+01
 11
3.34945373E+01
 21
4.11850315E+01
  0
LINE
  8
0
 62
4
 10
4.24945373E+01
 20
3.42850315E+01
 11
4.49945373E+01
 21
3.42850315E+01
  0
LINE
  8
0
 62
4
 10
4.24945373E+01
 20
3.46850315E+01
 11
4.49945373E+01
 21
3.46850315E+01
  0
LINE
  8
0
 62
4
 10
4.24945373E+01
 20
3.74850315E+01
 11
4.49945373E+01
 21
3.74850315E+01
  0
LINE
  8
0
 62
4
 10
3.09945373E+01
 20
3.42850315E+01
 11
3.34945373E+01
 21
3.42850315E+01
  0
LINE
  8
0
 62
4
 10
3.09945373E+01
 20
3.46850315E+01
 11
3.34945373E+01
 21
3.46850315E+01
  0
LINE
  8
0
 62
4
 10
3.09945373E+01
 20
3.74850315E+01
 11
3.34945373E+01
 21
3.74850315E+01
  0
LINE
  8
0
 62
4
 10
3.34945373E+01
 20
1.45350468E+01
 11
4.24945373E+01
 21
1.45350468E+01
  0
LINE
  8
0
 62
4
 10
4.49945373E+01
 20
3.74850315E+01
 11
4.49945373E+01
 21
3.46850315E+01
  0
LINE
  8
0
 62
4
 10
3.09945373E+01
 20
3.74850315E+01
 11
3.09945373E+01
 21
3.46850315E+01
  0
LINE
  8
0
 62
4
 10
2.54945373E+01
 20
3.54850315E+01
 11
2.64945373E+01
 21
3.64850315E+01
  0
LINE
  8
0
 62
6
 10
3.67645373E+01
 20
4.21850315E+01
 11
3.67645373E+01
 21
4.11850315E+01
  0
LINE
  8
0
 62
6
 10
3.92245373E+01
 20
4.21850315E+01
 11
3.92245373E+01
 21
4.11850315E+01
  0
LINE
  8
0
 62
4
 10
3.64945373E+01
 20
4.21850315E+01
 11
3.64945373E+01
 21
4.11850315E+01
  0
LINE
  8
0
 62
4
 10
3.94945373E+01
 20
4.21850315E+01
 11
3.94945373E+01
 21
4.11850315E+01
  0
LINE
  8
0
 62
4
 10
3.54945373E+01
 20
4.21850315E+01
 11
4.04945373E+01
 21
4.21850315E+01
  0
LINE
  8
0
 62
4
 10
2.54945373E+01
 20
3.54850315E+01
 11
2.54945373E+01
 21
3.34850315E+01
  0
LINE
  8
0
 62
4
 10
3.34945373E+01
 20
4.11850315E+01
 11
4.24945373E+01
 21
4.11850315E+01
  0
LINE
  8
0
 62
4
 10
2.64945373E+01
 20
3.24850315E+01
 11
3.09945373E+01
 21
3.24850315E+01
  0
LINE
  8
0
 62
4
 10
2.64945373E+01
 20
3.64850315E+01
 11
3.09945373E+01
 21
3.64850315E+01
  0
LINE
  8
0
 62
4
 10
4.04945373E+01
 20
4.26850315E+01
 11
4.04945373E+01
 21
4.21850315E+01
  0
LINE
  8
0
 62
4
 10
3.54945373E+01
 20
4.26850315E+01
 11
3.54945373E+01
 21
4.21850315E+01
  0
LINE
  8
0
 62
4
 10
2.54945373E+01
 20
3.34850315E+01
 11
2.64945373E+01
 21
3.24850315E+01
  0
LINE
  8
0
 62
4
 10
2.64945373E+01
 20
3.64850315E+01
 11
2.64945373E+01
 21
3.24850315E+01
  0
LINE
  8
0
 62
4
 10
4.24945373E+01
 20
3.43850315E+01
 11
4.24945373E+01
 21
1.45350468E+01
  0
LINE
  8
0
 62
4
 10
3.34945373E+01
 20
3.43850315E+01
 11
3.34945373E+01
 21
1.45350468E+01
  0
LINE
  8
0
 62
4
 10
5.04945373E+01
 20
3.64850315E+01
 11
5.34945373E+01
 21
3.57850315E+01
  0
LINE
  8
0
 62
4
 10
5.04945373E+01
 20
3.24850315E+01
 11
5.34945373E+01
 21
3.31850315E+01
  0
LINE
  8
0
 62
4
 10
5.04945373E+01
 20
3.64850315E+01
 11
5.04945373E+01
 21
3.24850315E+01
  0
LINE
  8
0
 62
6
 10
5.84315364E+01
 20
3.57850315E+01
 11
5.58315364E+01
 21
3.31850315E+01
  0
LINE
  8
0
 62
4
 10
5.34945373E+01
 20
3.31850315E+01
 11
5.58315364E+01
 21
3.31850315E+01
  0
LINE
  8
0
 62
4
 10
5.34945373E+01
 20
3.57850315E+01
 11
5.34945373E+01
 21
3.31850315E+01
  0
LINE
  8
0
 62
4
 10
5.34945373E+01
 20
3.57850315E+01
 11
5.84315364E+01
 21
3.57850315E+01
  0
LINE
  8
0
 62
4
 10
5.49453730E+00
 20
3.64850315E+01
 11
1.09945373E+01
 21
3.64850315E+01
  0
LINE
  8
0
 62
4
 10
5.49453730E+00
 20
3.24850315E+01
 11
1.09945373E+01
 21
3.24850315E+01
  0
LINE
  8
0
 62
4
 10
-8.50546270E+00
 20
3.42850315E+01
 11
-8.50546270E+00
 21
3.12169136E+01
  0
LINE
  8
0
 62
4
 10
5.49453730E+00
 20
3.42850315E+01
 11
5.49453730E+00
 21
3.12169136E+01
  0
LINE
  8
0
 62
4
 10
-6.00546270E+00
 20
3.46850315E+01
 11
2.99453730E+00
 21
3.46850315E+01
  0
LINE
  8
0
 62
4
 10
-8.50546268E+00
 20
3.12169136E+01
 11
-6.00546268E+00
 21
3.12169136E+01
  0
LINE
  8
0
 62
4
 10
5.49453728E+00
 20
3.12169136E+01
 11
2.99453728E+00
 21
3.12169136E+01
  0
LINE
  8
0
 62
4
 10
2.99453730E+00
 20
3.43850315E+01
 11
2.99453730E+00
 21
4.11850315E+01
  0
LINE
  8
0
 62
4
 10
-6.00546270E+00
 20
3.43850315E+01
 11
-6.00546270E+00
 21
4.11850315E+01
  0
LINE
  8
0
 62
4
 10
2.99453730E+00
 20
3.42850315E+01
 11
5.49453730E+00
 21
3.42850315E+01
  0
LINE
  8
0
 62
4
 10
2.99453730E+00
 20
3.46850315E+01
 11
5.49453730E+00
 21
3.46850315E+01
  0
LINE
  8
0
 62
4
 10
2.99453730E+00
 20
3.74850315E+01
 11
5.49453730E+00
 21
3.74850315E+01
  0
LINE
  8
0
 62
4
 10
-8.50546271E+00
 20
3.42850315E+01
 11
-6.00546270E+00
 21
3.42850315E+01
  0
LINE
  8
0
 62
4
 10
-8.50546271E+00
 20
3.46850315E+01
 11
-6.00546270E+00
 21
3.46850315E+01
  0
LINE
  8
0
 62
4
 10
-8.50546271E+00
 20
3.74850315E+01
 11
-6.00546270E+00
 21
3.74850315E+01
  0
LINE
  8
0
 62
4
 10
-6.00546271E+00
 20
1.45350468E+01
 11
2.99453730E+00
 21
1.45350468E+01
  0
LINE
  8
0
 62
4
 10
5.49453730E+00
 20
3.74850315E+01
 11
5.49453730E+00
 21
3.46850315E+01
  0
LINE
  8
0
 62
4
 10
-8.50546270E+00
 20
3.74850315E+01
 11
-8.50546270E+00
 21
3.46850315E+01
  0
LINE
  8
0
 62
4
 10
-1.40054627E+01
 20
3.54850315E+01
 11
-1.30054627E+01
 21
3.64850315E+01
  0
LINE
  8
0
 62
6
 10
-2.73546270E+00
 20
4.21850315E+01
 11
-2.73546270E+00
 21
4.11850315E+01
  0
LINE
  8
0
 62
6
 10
-2.75462699E-01
 20
4.21850315E+01
 11
-2.75462699E-01
 21
4.11850315E+01
  0
LINE
  8
0
 62
4
 10
-3.00546270E+00
 20
4.21850315E+01
 11
-3.00546270E+00
 21
4.11850315E+01
  0
LINE
  8
0
 62
4
 10
-5.46269875E-03
 20
4.21850315E+01
 11
-5.46269875E-03
 21
4.11850315E+01
  0
LINE
  8
0
 62
4
 10
-4.00546270E+00
 20
4.21850315E+01
 11
9.94537301E-01
 21
4.21850315E+01
  0
LINE
  8
0
 62
4
 10
-1.40054627E+01
 20
3.54850315E+01
 11
-1.40054627E+01
 21
3.34850315E+01
  0
LINE
  8
0
 62
4
 10
-6.00546270E+00
 20
4.11850315E+01
 11
2.99453730E+00
 21
4.11850315E+01
  0
LINE
  8
0
 62
4
 10
-1.30054627E+01
 20
3.24850315E+01
 11
-8.50546270E+00
 21
3.24850315E+01
  0
LINE
  8
0
 62
4
 10
-1.30054627E+01
 20
3.64850315E+01
 11
-8.50546270E+00
 21
3.64850315E+01
  0
LINE
  8
0
 62
4
 10
9.94537301E-01
 20
4.26850315E+01
 11
9.94537301E-01
 21
4.21850315E+01
  0
LINE
  8
0
 62
4
 10
-4.00546270E+00
 20
4.26850315E+01
 11
-4.00546270E+00
 21
4.21850315E+01
  0
LINE
  8
0
 62
4
 10
-1.40054627E+01
 20
3.34850315E+01
 11
-1.30054627E+01
 21
3.24850315E+01
  0
LINE
  8
0
 62
4
 10
-1.30054627E+01
 20
3.64850315E+01
 11
-1.30054627E+01
 21
3.24850315E+01
  0
LINE
  8
0
 62
4
 10
2.99453730E+00
 20
3.43850315E+01
 11
2.99453730E+00
 21
1.45350468E+01
  0
LINE
  8
0
 62
4
 10
-6.00546270E+00
 20
3.43850315E+01
 11
-6.00546270E+00
 21
1.45350468E+01
  0
LINE
  8
0
 62
4
 10
1.09945373E+01
 20
3.64850315E+01
 11
1.39945373E+01
 21
3.57850315E+01
  0
LINE
  8
0
 62
4
 10
1.09945373E+01
 20
3.24850315E+01
 11
1.39945373E+01
 21
3.31850315E+01
  0
LINE
  8
0
 62
4
 10
1.09945373E+01
 20
3.64850315E+01
 11
1.09945373E+01
 21
3.24850315E+01
  0
LINE
  8
0
 62
6
 10
1.89315364E+01
 20
3.57850315E+01
 11
1.63315364E+01
 21
3.31850315E+01
  0
LINE
  8
0
 62
4
 10
1.39945373E+01
 20
3.31850315E+01
 11
1.63315364E+01
 21
3.31850315E+01
  0
LINE
  8
0
 62
4
 10
1.39945373E+01
 20
3.57850315E+01
 11
1.39945373E+01
 21
3.31850315E+01
  0
LINE
  8
0
 62
4
 10
1.39945373E+01
 20
3.57850315E+01
 11
1.89315364E+01
 21
3.57850315E+01
  0
CIRCLE
  8
0
 62
7
 10
-2.20054627E+01
 20
2.31850315E+01
 40
2.06700000E+00
  0
LINE
  8
0
 62
2
 10
-3.09754627E+01
 20
1.89970315E+01
 11
-3.05054627E+01
 21
1.89970315E+01
  0
LINE
  8
0
 62
2
 10
-3.09754627E+01
 20
2.73730315E+01
 11
-3.05054627E+01
 21
2.73730315E+01
  0
LINE
  8
0
 62
2
 10
-3.68174627E+01
 20
1.89970315E+01
 11
-3.49754627E+01
 21
1.89970315E+01
  0
LINE
  8
0
 62
2
 10
-3.68174627E+01
 20
2.73730315E+01
 11
-3.49754627E+01
 21
2.73730315E+01
  0
LINE
  8
0
 62
2
 10
-4.90354627E+01
 20
2.11180315E+01
 11
-4.20054627E+01
 21
2.11180315E+01
  0
LINE
  8
0
 62
2
 10
-4.90354627E+01
 20
2.52520315E+01
 11
-4.20054627E+01
 21
2.52520315E+01
  0
LINE
  8
0
 62
2
 10
-5.69384627E+01
 20
2.52520315E+01
 11
-5.30354627E+01
 21
2.52520315E+01
  0
LINE
  8
0
 62
2
 10
-5.69384627E+01
 20
2.11180315E+01
 11
-5.30354627E+01
 21
2.11180315E+01
  0
LINE
  8
0
 62
7
 10
-3.70054627E+01
 20
2.71850315E+01
 11
-3.70054627E+01
 21
1.91850315E+01
  0
LINE
  8
0
 62
7
 10
-2.90054627E+01
 20
3.16850315E+01
 11
-2.90054627E+01
 21
1.46850315E+01
  0
LINE
  8
0
 62
7
 10
-3.60054627E+01
 20
1.81850315E+01
 11
-3.49754627E+01
 21
1.81850315E+01
  0
LINE
  8
0
 62
7
 10
-3.60054627E+01
 20
2.81850315E+01
 11
-3.49754627E+01
 21
2.81850315E+01
  0
LINE
  8
0
 62
7
 10
-1.70054627E+01
 20
3.16850315E+01
 11
-1.70054627E+01
 21
1.46850315E+01
  0
LINE
  8
0
 62
7
 10
-3.70054627E+01
 20
2.71850315E+01
 11
-3.60054627E+01
 21
2.81850315E+01
  0
LINE
  8
0
 62
7
 10
-3.70054627E+01
 20
1.91850315E+01
 11
-3.60054627E+01
 21
1.81850315E+01
  0
LINE
  8
0
  6
CENTER
 62
2
 10
-2.20054627E+01
 20
2.68450315E+01
 11
-2.20054627E+01
 21
1.95050315E+01
  0
LINE
  8
0
  6
CENTER
 62
2
 10
-6.04154627E+01
 20
2.31850315E+01
 11
5.56545373E+01
 21
2.31850315E+01
  0
LINE
  8
0
 62
7
 10
-3.05054627E+01
 20
2.81850315E+01
 11
-3.05054627E+01
 21
1.81850315E+01
  0
LINE
  8
0
 62
7
 10
-2.90054627E+01
 20
3.16850315E+01
 11
-8.50546270E+00
 21
3.16850315E+01
  0
LINE
  8
0
 62
4
 10
4.84945373E+01
 20
3.16850315E+01
 11
4.84945373E+01
 21
1.46850315E+01
  0
LINE
  8
0
 62
4
 10
5.44845373E+01
 20
3.11850315E+01
 11
5.44845373E+01
 21
1.51850315E+01
  0
LINE
  8
0
 62
7
 10
-2.90054627E+01
 20
1.46850315E+01
 11
-6.00546270E+00
 21
1.46850315E+01
  0
LINE
  8
0
 62
4
 10
4.84945373E+01
 20
3.16850315E+01
 11
5.39845373E+01
 21
3.16850315E+01
  0
LINE
  8
0
 62
4
 10
4.84945373E+01
 20
1.46850315E+01
 11
5.39845373E+01
 21
1.46850315E+01
  0
LINE
  8
0
 62
7
 10
-3.60054627E+01
 20
2.81850315E+01
 11
-3.60054627E+01
 21
1.81850315E+01
  0
LINE
  8
0
 62
7
 10
-2.72554627E+01
 20
2.74350315E+01
 11
-1.87554627E+01
 21
2.74350315E+01
  0
LINE
  8
0
 62
7
 10
-2.72554627E+01
 20
1.89450315E+01
 11
-1.87554627E+01
 21
1.89450315E+01
  0
LINE
  8
0
 62
7
 10
-5.65054627E+01
 20
2.56850315E+01
 11
-5.30354627E+01
 21
2.56850315E+01
  0
LINE
  8
0
 62
7
 10
-5.65054627E+01
 20
2.06850315E+01
 11
-5.30354627E+01
 21
2.06850315E+01
  0
LINE
  8
0
 62
7
 10
-5.70054627E+01
 20
2.51850315E+01
 11
-5.70054627E+01
 21
2.11850315E+01
  0
LINE
  8
0
 62
7
 10
-4.20054627E+01
 20
2.56850315E+01
 11
-4.20054627E+01
 21
2.06850315E+01
  0
LINE
  8
0
 62
7
 10
-5.70054627E+01
 20
2.51850315E+01
 11
-5.65054627E+01
 21
2.56850315E+01
  0
LINE
  8
0
 62
7
 10
-5.70054627E+01
 20
2.11850315E+01
 11
-5.65054627E+01
 21
2.06850315E+01
  0
LINE
  8
0
 62
7
 10
-5.65054627E+01
 20
2.56850315E+01
 11
-5.65054627E+01
 21
2.06850315E+01
  0
LINE
  8
0
 62
4
 10
-5.30354627E+01
 20
2.65750315E+01
 11
-5.30354627E+01
 21
1.98050315E+01
  0
LINE
  8
0
 62
4
 10
-4.90354627E+01
 20
2.65750315E+01
 11
-4.90354627E+01
 21
1.98050315E+01
  0
LINE
  8
0
 62
4
 10
-5.25354627E+01
 20
1.86850315E+01
 11
-4.95354627E+01
 21
1.86850315E+01
  0
LINE
  8
0
 62
4
 10
-5.25354627E+01
 20
2.76850315E+01
 11
-4.95354627E+01
 21
2.76850315E+01
  0
LINE
  8
0
 62
7
 10
-4.90354627E+01
 20
2.06850315E+01
 11
-3.70054627E+01
 21
2.06850315E+01
  0
LINE
  8
0
 62
7
 10
-4.90354627E+01
 20
2.56850315E+01
 11
-3.70054627E+01
 21
2.56850315E+01
  0
LINE
  8
0
 62
7
 10
-3.09754627E+01
 20
2.81850315E+01
 11
-2.90054627E+01
 21
2.81850315E+01
  0
LINE
  8
0
 62
7
 10
-3.09754627E+01
 20
1.81850315E+01
 11
-2.90054627E+01
 21
1.81850315E+01
  0
LINE
  8
0
 62
4
 10
-5.25354627E+01
 20
2.54650315E+01
 11
-4.95354627E+01
 21
2.54650315E+01
  0
LINE
  8
0
 62
4
 10
-5.25354627E+01
 20
2.09150315E+01
 11
-4.95354627E+01
 21
2.09150315E+01
  0
LINE
  8
0
 62
4
 10
-3.45754627E+01
 20
3.11850315E+01
 11
-3.13754627E+01
 21
3.11850315E+01
  0
LINE
  8
0
 62
4
 10
-3.45754627E+01
 20
2.71650315E+01
 11
-3.13754627E+01
 21
2.71650315E+01
  0
LINE
  8
0
 62
4
 10
-3.49754627E+01
 20
2.91750315E+01
 11
-3.49754627E+01
 21
1.72050315E+01
  0
LINE
  8
0
 62
4
 10
-3.45754627E+01
 20
1.92150315E+01
 11
-3.13754627E+01
 21
1.92150315E+01
  0
LINE
  8
0
 62
4
 10
-3.45754627E+01
 20
1.51850315E+01
 11
-3.13754627E+01
 21
1.51850315E+01
  0
LINE
  8
0
 62
4
 10
-3.09754627E+01
 20
2.91750315E+01
 11
-3.09754627E+01
 21
1.72050315E+01
  0
LINE
  8
0
 62
4
 10
5.39845373E+01
 20
3.16850315E+01
 11
5.44845373E+01
 21
3.11850315E+01
  0
LINE
  8
0
 62
4
 10
5.44845373E+01
 20
1.51850315E+01
 11
5.39845373E+01
 21
1.46850315E+01
  0
LINE
  8
0
 62
4
 10
5.39845373E+01
 20
3.16850315E+01
 11
5.39845373E+01
 21
1.46850315E+01
  0
LINE
  8
0
 62
7
 10
-2.72554627E+01
 20
3.16850315E+01
 11
-2.72554627E+01
 21
2.74350315E+01
  0
LINE
  8
0
 62
7
 10
-1.87554627E+01
 20
3.16850315E+01
 11
-1.87554627E+01
 21
2.74350315E+01
  0
LINE
  8
0
 62
7
 10
-2.72554627E+01
 20
1.89450315E+01
 11
-2.72554627E+01
 21
1.46850315E+01
  0
LINE
  8
0
 62
7
 10
-1.87554627E+01
 20
1.89450315E+01
 11
-1.87554627E+01
 21
1.46850315E+01
  0
CIRCLE
  8
0
 62
2
 10
-2.20112909E+01
 20
2.31850330E+01
 40
2.50000000E+00
  0
ARC
  8
0
 62
4
 10
-4.76321744E+01
 20
2.31949244E+01
 40
5.40329733E+00
 50
1.55156974E+02
 51
1.80104903E+02
  0
ARC
  8
0
 62
4
 10
-4.76342699E+01
 20
2.31846554E+01
 40
5.40119281E+00
 50
1.79996011E+02
 51
2.04847715E+02
  0
ARC
  8
0
 62
4
 10
-5.15507688E+01
 20
1.98038630E+01
 40
1.48469438E+00
 50
1.31546682E+02
 51
1.79954909E+02
  0
ARC
  8
0
 62
4
 10
-5.15513832E+01
 20
1.97959598E+01
 40
1.48410722E+00
 50
1.79649775E+02
 51
2.28464923E+02
  0
ARC
  8
0
 62
4
 10
-5.15545163E+01
 20
2.65745118E+01
 40
1.48094647E+00
 50
1.79979895E+02
 51
2.28518513E+02
  0
ARC
  8
0
 62
4
 10
-5.15513581E+01
 20
2.65741285E+01
 40
1.48410487E+00
 50
1.31536451E+02
 51
1.79965140E+02
  0
ARC
  8
0
 62
4
 10
-5.44557028E+01
 20
2.31912069E+01
 40
5.42024357E+00
 50
3.59934721E+02
 51
2.48034017E+01
  0
ARC
  8
0
 62
4
 10
-5.05312025E+01
 20
2.65811755E+01
 40
1.49575246E+00
 50
3.11736944E+02
 51
3.59764647E+02
  0
ARC
  8
0
 62
4
 10
-5.44536070E+01
 20
2.31883892E+01
 40
5.41814532E+00
 50
3.35191782E+02
 51
3.59964492E+02
  0
ARC
  8
0
 62
4
 10
-5.05349130E+01
 20
1.97972160E+01
 40
1.49947071E+00
 50
2.98635695E-01
 51
4.81997731E+01
  0
ARC
  8
0
 62
4
 10
-5.05343489E+01
 20
1.98025699E+01
 40
1.49888818E+00
 50
3.11791208E+02
 51
9.40935745E-02
  0
ARC
  8
0
 62
4
 10
-5.05343295E+01
 20
2.65674788E+01
 40
1.49888586E+00
 50
2.88704672E-01
 51
4.82097042E+01
  0
ARC
  8
0
 62
4
 10
-3.62426913E+01
 20
1.72016278E+01
 40
5.26722966E+00
 50
3.70246508E-02
 51
2.24731834E+01
  0
ARC
  8
0
 62
4
 10
-1.50261844E+01
 20
2.31901794E+01
 40
1.99492789E+01
 50
1.68507018E+02
 51
1.80014785E+02
  0
ARC
  8
0
 62
4
 10
-2.97184274E+01
 20
2.91764066E+01
 40
5.25703545E+00
 50
1.80014988E+02
 51
2.02495220E+02
  0
ARC
  8
0
 62
4
 10
-2.97175164E+01
 20
2.91734750E+01
 40
5.25794651E+00
 50
1.57506753E+02
 51
1.79983039E+02
  0
ARC
  8
0
 62
4
 10
-3.62416883E+01
 20
2.91718274E+01
 40
5.26622655E+00
 50
3.48600779E-02
 51
2.24753479E+01
  0
ARC
  8
0
 62
4
 10
-3.62407787E+01
 20
2.91780545E+01
 40
5.26531686E+00
 50
3.37522688E+02
 51
3.59967104E+02
  0
ARC
  8
0
 62
4
 10
-2.97175206E+01
 20
1.71966042E+01
 40
5.25794885E+00
 50
1.79908168E+02
 51
2.02493428E+02
  0
ARC
  8
0
 62
4
 10
-3.62416872E+01
 20
1.71982442E+01
 40
5.26622888E+00
 50
3.37524561E+02
 51
7.38440165E-02
  0
ARC
  8
0
 62
4
 10
-2.97165118E+01
 20
1.72032751E+01
 40
5.25895115E+00
 50
1.57508928E+02
 51
1.79980864E+02
  0
ARC
  8
0
 62
4
 10
-1.50271803E+01
 20
2.31897828E+01
 40
1.99482829E+01
 50
1.80013647E+02
 51
1.91493268E+02
  0
ARC
  8
0
 62
4
 10
-5.09322660E+01
 20
2.31906414E+01
 40
1.99568041E+01
 50
3.48509191E+02
 51
3.59983894E+02
  0
ARC
  8
0
 62
4
 10
-5.09332619E+01
 20
2.31893230E+01
 40
1.99577996E+01
 50
3.59987680E+02
 51
1.14905173E+01
  0
ARC
  8
0
 62
7
 10
-2.29934367E+01
 20
2.31900315E+01
 40
6.01538783E+00
 50
1.35114672E+02
 51
2.24885328E+02
  0
ARC
  8
0
 62
7
 10
-2.30291452E+01
 20
2.31900315E+01
 40
6.02365231E+00
 50
3.15192915E+02
 51
4.48070852E+01
  0
LINE
  8
0
 62
4
 10
3.64945373E+01
 20
4.36850315E+01
 11
3.94945373E+01
 21
4.36850315E+01
  0
LINE
  8
0
 62
4
 10
-3.00546270E+00
 20
4.36850315E+01
 11
-5.46269875E-03
 21
4.36850315E+01
  0
LINE
  8
0
 62
4
 10
-9.09154627E+01
 20
3.34850315E+01
 11
-9.19154627E+01
 21
3.24850315E+01
  0
LINE
  8
0
 62
4
 10
-8.88154627E+01
 20
3.34850315E+01
 11
-8.78154627E+01
 21
3.24850315E+01
  0
LINE
  8
0
 62
4
 10
-8.78154627E+01
 20
3.64850315E+01
 11
-8.88154627E+01
 21
3.54850315E+01
  0
LINE
  8
0
 62
4
 10
-9.19154627E+01
 20
3.64850315E+01
 11
-9.09154627E+01
 21
3.54850315E+01
  0
LINE
  8
0
 62
4
 10
-8.88154627E+01
 20
3.34850315E+01
 11
-9.09154627E+01
 21
3.34850315E+01
  0
LINE
  8
0
 62
4
 10
-8.88154627E+01
 20
3.54850315E+01
 11
-8.88154627E+01
 21
3.34850315E+01
  0
LINE
  8
0
 62
4
 10
-8.88154627E+01
 20
3.54850315E+01
 11
-9.09154627E+01
 21
3.54850315E+01
  0
LINE
  8
0
 62
4
 10
-9.09154627E+01
 20
3.54850315E+01
 11
-9.09154627E+01
 21
3.34850315E+01
  0
ARC
  8
0
 62
4
 10
-8.98654627E+01
 20
2.31850315E+01
 40
8.65000000E+00
 50
1.69314255E+02
 51
1.90685745E+02
  0
ARC
  8
0
 62
4
 10
-8.98654627E+01
 20
2.31850315E+01
 40
8.65000000E+00
 50
2.59314255E+02
 51
2.80685745E+02
  0
LINE
  8
0
 62
4
 10
-8.83654627E+01
 20
3.84850315E+01
 11
-8.86654627E+01
 21
3.81850315E+01
  0
LINE
  8
0
 62
4
 10
-9.13654627E+01
 20
3.84850315E+01
 11
-9.10654627E+01
 21
3.81850315E+01
  0
LINE
  8
0
 62
4
 10
-8.88654627E+01
 20
3.21850315E+01
 11
-9.08654627E+01
 21
3.21850315E+01
  0
LINE
  8
0
 62
4
 10
-9.67718543E+01
 20
2.99045929E+01
 11
-9.72471942E+01
 21
3.00596799E+01
  0
LINE
  8
0
 62
4
 10
-9.55311585E+01
 20
3.37073122E+01
 11
-9.53885565E+01
 21
3.36607861E+01
  0
LINE
  8
0
 62
4
 10
-9.47904627E+01
 20
3.75895355E+01
 11
-9.72471942E+01
 21
3.00596799E+01
  0
LINE
  8
0
 62
4
 10
-9.53885711E+01
 20
3.36607413E+01
 11
-9.66295163E+01
 21
2.98572576E+01
  0
LINE
  8
0
 62
4
 10
-9.42904627E+01
 20
3.75100315E+01
 11
-9.68695229E+01
 21
2.96052395E+01
  0
LINE
  8
0
 62
4
 10
-8.63654627E+01
 20
3.46850315E+01
 11
-8.42204490E+01
 21
3.08300508E+01
  0
LINE
  8
0
 62
4
 10
-8.65154627E+01
 20
3.46850315E+01
 11
-8.44867257E+01
 21
3.10196781E+01
  0
ARC
  8
0
 62
4
 10
-8.98654627E+01
 20
2.31850315E+01
 40
8.65000000E+00
 50
3.49314255E+02
 51
1.06857449E+01
  0
LINE
  8
0
 62
4
 10
-8.63654627E+01
 20
4.11850315E+01
 11
-9.33654627E+01
 21
4.11850315E+01
  0
LINE
  8
0
 62
4
 10
-9.33654627E+01
 20
3.98850315E+01
 11
-9.33654627E+01
 21
3.39850315E+01
  0
LINE
  8
0
 62
4
 10
-8.63654627E+01
 20
3.98850315E+01
 11
-8.63654627E+01
 21
3.46850315E+01
  0
LINE
  8
0
 62
4
 10
-9.41654627E+01
 20
3.61828092E+01
 11
-9.46349810E+01
 21
3.64540865E+01
  0
LINE
  8
0
 62
4
 10
-9.48654627E+01
 20
3.94850315E+01
 11
-9.48654627E+01
 21
3.78000315E+01
  0
LINE
  8
0
 62
4
 10
-9.48654627E+01
 20
3.94850315E+01
 11
-9.56654627E+01
 21
3.94850315E+01
  0
LINE
  8
0
 62
4
 10
-9.21504627E+01
 20
4.03850315E+01
 11
-9.20104627E+01
 21
3.95850315E+01
  0
LINE
  8
0
 62
4
 10
-8.75804627E+01
 20
4.03850315E+01
 11
-8.77204627E+01
 21
3.95850315E+01
  0
LINE
  8
0
 62
4
 10
-8.77204627E+01
 20
3.95850315E+01
 11
-9.20104627E+01
 21
3.95850315E+01
  0
LINE
  8
0
 62
6
 10
-9.10954627E+01
 20
4.16850315E+01
 11
-9.10954627E+01
 21
4.11850315E+01
  0
LINE
  8
0
 62
6
 10
-8.86354627E+01
 20
4.16850315E+01
 11
-8.86354627E+01
 21
4.11850315E+01
  0
LINE
  8
0
 62
4
 10
-8.55654627E+01
 20
4.03850315E+01
 11
-8.55654627E+01
 21
3.46850315E+01
  0
LINE
  8
0
 62
4
 10
-9.41654627E+01
 20
3.39850315E+01
 11
-9.41654627E+01
 21
4.03850315E+01
  0
LINE
  8
0
 62
4
 10
-8.68654627E+01
 20
4.03850315E+01
 11
-9.28654627E+01
 21
4.03850315E+01
  0
LINE
  8
0
 62
4
 10
-9.56654627E+01
 20
3.94850315E+01
 11
-9.56654627E+01
 21
3.73400315E+01
  0
LINE
  8
0
 62
4
 10
-9.41654627E+01
 20
3.71090315E+01
 11
-9.43795675E+01
 21
3.72332122E+01
  0
LINE
  8
0
 62
4
 10
-8.65154627E+01
 20
3.98850315E+01
 11
-8.65154627E+01
 21
3.46850315E+01
  0
LINE
  8
0
 62
4
 10
-8.63654627E+01
 20
3.98850315E+01
 11
-8.65154627E+01
 21
3.98850315E+01
  0
LINE
  8
0
 62
4
 10
-8.66154627E+01
 20
3.81850315E+01
 11
-9.31154627E+01
 21
3.81850315E+01
  0
LINE
  8
0
 62
4
 10
-8.66154627E+01
 20
3.74850315E+01
 11
-9.31154627E+01
 21
3.74850315E+01
  0
LINE
  8
0
 62
4
 10
-9.42904627E+01
 20
4.00100315E+01
 11
-9.42904627E+01
 21
3.75100315E+01
  0
LINE
  8
0
 62
4
 10
-9.47904627E+01
 20
4.00100315E+01
 11
-9.47904627E+01
 21
3.75895355E+01
  0
LINE
  8
0
 62
4
 10
-9.42904627E+01
 20
4.00100315E+01
 11
-9.47904627E+01
 21
4.00100315E+01
  0
LINE
  8
0
 62
4
 10
-9.13654627E+01
 20
4.21850315E+01
 11
-9.13654627E+01
 21
4.11850315E+01
  0
LINE
  8
0
 62
4
 10
-8.83654627E+01
 20
4.21850315E+01
 11
-8.83654627E+01
 21
4.11850315E+01
  0
LINE
  8
0
 62
4
 10
-8.55654627E+01
 20
3.46850315E+01
 11
-8.63654627E+01
 21
3.46850315E+01
  0
LINE
  8
0
 62
4
 10
-9.33654627E+01
 20
3.39850315E+01
 11
-9.41654627E+01
 21
3.39850315E+01
  0
LINE
  8
0
 62
4
 10
-8.73654627E+01
 20
4.21850315E+01
 11
-9.23654627E+01
 21
4.21850315E+01
  0
LINE
  8
0
 62
4
 10
-8.83654627E+01
 20
4.36850315E+01
 11
-9.13654627E+01
 21
4.36850315E+01
  0
LINE
  8
0
 62
4
 10
-8.73654627E+01
 20
4.26850315E+01
 11
-8.73654627E+01
 21
4.21850315E+01
  0
LINE
  8
0
 62
4
 10
-9.23654627E+01
 20
4.26850315E+01
 11
-9.23654627E+01
 21
4.21850315E+01
  0
LINE
  8
0
 62
4
 10
-8.83654627E+01
 20
4.16850315E+01
 11
-9.13654627E+01
 21
4.16850315E+01
  0
ARC
  8
0
 62
4
 10
-8.63654660E+01
 20
4.03850282E+01
 40
8.00003254E-01
 50
2.33015759E-04
 51
9.00000002E+01
  0
ARC
  8
0
 62
4
 10
-9.33671253E+01
 20
4.03866941E+01
 40
7.98339134E-01
 50
8.98806771E+01
 51
1.80119323E+02
  0
ARC
  8
0
 62
4
 10
-8.68654670E+01
 20
3.98850272E+01
 40
5.00004290E-01
 50
4.91607912E-04
 51
9.00000002E+01
  0
ARC
  8
0
 62
4
 10
-9.28671253E+01
 20
3.98866941E+01
 40
4.98340176E-01
 50
8.98088454E+01
 51
1.80191155E+02
  0
ARC
  8
0
 62
4
 10
-9.51652590E+01
 20
3.73381657E+01
 40
5.00207143E-01
 50
1.79786293E+02
 51
2.39986760E+02
  0
ARC
  8
0
 62
4
 10
-9.43666109E+01
 20
3.78023872E+01
 40
4.98857363E-01
 50
1.80270562E+02
 51
2.09445368E+02
  0
ARC
  8
0
 62
4
 10
-9.13668750E+01
 20
4.26864438E+01
 40
9.98588677E-01
 50
8.99189656E+01
 51
1.80081034E+02
  0
ARC
  8
0
 62
4
 10
-8.83657155E+01
 20
4.26847787E+01
 40
1.00025280E+00
 50
1.44788446E-02
 51
9.00000002E+01
  0
LINE
  8
0
 62
4
 10
-9.31154627E+01
 20
3.81850315E+01
 11
-9.31154627E+01
 21
3.16850315E+01
  0
LINE
  8
0
 62
4
 10
-8.66154627E+01
 20
3.42850315E+01
 11
-8.66154627E+01
 21
3.16850315E+01
  0
LINE
  8
0
 62
4
 10
-8.66154627E+01
 20
3.42850315E+01
 11
-8.78154627E+01
 21
3.42850315E+01
  0
LINE
  8
0
 62
4
 10
-8.66154627E+01
 20
3.46850315E+01
 11
-8.78154627E+01
 21
3.46850315E+01
  0
LINE
  8
0
 62
4
 10
-8.66154627E+01
 20
3.81850315E+01
 11
-8.66154627E+01
 21
3.46850315E+01
  0
LINE
  8
0
 62
4
 10
-8.78154627E+01
 20
3.24850315E+01
 11
-9.19154627E+01
 21
3.24850315E+01
  0
LINE
  8
0
 62
4
 10
-8.78154627E+01
 20
3.64850315E+01
 11
-9.19154627E+01
 21
3.64850315E+01
  0
LINE
  8
0
 62
4
 10
-8.88654627E+01
 20
3.67850315E+01
 11
-9.08654627E+01
 21
3.67850315E+01
  0
LINE
  8
0
 62
4
 10
-8.88654627E+01
 20
3.67850315E+01
 11
-8.88654627E+01
 21
3.64850315E+01
  0
LINE
  8
0
 62
4
 10
-8.88654627E+01
 20
3.24850315E+01
 11
-8.88654627E+01
 21
3.21850315E+01
  0
LINE
  8
0
 62
4
 10
-8.78154627E+01
 20
3.64850315E+01
 11
-8.78154627E+01
 21
3.24850315E+01
  0
LINE
  8
0
 62
4
 10
-9.19154627E+01
 20
3.64850315E+01
 11
-9.19154627E+01
 21
3.24850315E+01
  0
LINE
  8
0
 62
4
 10
-9.08654627E+01
 20
3.67850315E+01
 11
-9.08654627E+01
 21
3.64850315E+01
  0
LINE
  8
0
 62
4
 10
-9.08654627E+01
 20
3.24850315E+01
 11
-9.08654627E+01
 21
3.21850315E+01
  0
LINE
  8
0
 62
4
 10
-8.83654627E+01
 20
3.95850315E+01
 11
-8.83654627E+01
 21
3.84850315E+01
  0
LINE
  8
0
 62
4
 10
-9.13654627E+01
 20
3.95850315E+01
 11
-9.13654627E+01
 21
3.84850315E+01
  0
LINE
  8
0
 62
6
 10
-8.86354627E+01
 20
3.95850315E+01
 11
-8.86354627E+01
 21
3.82150315E+01
  0
LINE
  8
0
 62
6
 10
-9.10954627E+01
 20
3.95850315E+01
 11
-9.10954627E+01
 21
3.82150315E+01
  0
LINE
  8
0
 62
4
 10
-9.50775014E+01
 20
3.67097649E+01
 11
-9.54154627E+01
 21
3.69050315E+01
  0
ARC
  8
0
 62
2
 10
-8.98654627E+01
 20
2.31850315E+01
 40
4.18800000E+00
 50
4.27674369E+01
 51
7.72325633E+01
  0
ARC
  8
0
 62
2
 10
-8.98654627E+01
 20
2.31850315E+01
 40
4.18800000E+00
 50
3.42767437E+02
 51
1.72325634E+01
  0
ARC
  8
0
 62
2
 10
-8.98654627E+01
 20
2.31850315E+01
 40
4.18800000E+00
 50
2.82767437E+02
 51
3.17232564E+02
  0
ARC
  8
0
 62
2
 10
-8.98654627E+01
 20
2.31850315E+01
 40
4.18800000E+00
 50
2.22767437E+02
 51
2.57232563E+02
  0
ARC
  8
0
 62
2
 10
-8.98654627E+01
 20
2.31850315E+01
 40
4.18800000E+00
 50
1.62767437E+02
 51
1.97232563E+02
  0
ARC
  8
0
 62
2
 10
-8.98654627E+01
 20
2.31850315E+01
 40
4.18800000E+00
 50
1.02767437E+02
 51
1.37232563E+02
  0
CIRCLE
  8
0
 62
7
 10
-8.98654627E+01
 20
2.31850315E+01
 40
5.00000000E+00
  0
LINE
  8
0
 62
4
 10
-8.98654627E+01
 20
3.12679368E+01
 11
-8.28654614E+01
 21
2.72264841E+01
  0
LINE
  8
0
 62
4
 10
-8.28654614E+01
 20
2.72264841E+01
 11
-8.28654614E+01
 21
1.91435788E+01
  0
LINE
  8
0
 62
4
 10
-8.28654614E+01
 20
1.91435788E+01
 11
-8.98654627E+01
 21
1.51021262E+01
  0
LINE
  8
0
 62
4
 10
-8.98654627E+01
 20
1.51021262E+01
 11
-9.68654640E+01
 21
1.91435788E+01
  0
LINE
  8
0
 62
4
 10
-9.68654640E+01
 20
1.91435788E+01
 11
-9.68654640E+01
 21
2.72264841E+01
  0
LINE
  8
0
 62
4
 10
-9.68654640E+01
 20
2.72264841E+01
 11
-8.98654627E+01
 21
3.12679368E+01
  0
LINE
  8
0
 62
4
 10
-9.38654640E+01
 20
2.08756296E+01
 11
-9.38654640E+01
 21
2.54944333E+01
  0
LINE
  8
0
 62
4
 10
-8.98654627E+01
 20
1.85662278E+01
 11
-9.38654640E+01
 21
2.08756296E+01
  0
LINE
  8
0
 62
4
 10
-8.58654614E+01
 20
2.08756296E+01
 11
-8.98654627E+01
 21
1.85662278E+01
  0
LINE
  8
0
 62
4
 10
-8.58654614E+01
 20
2.54944333E+01
 11
-8.58654614E+01
 21
2.08756296E+01
  0
LINE
  8
0
 62
4
 10
-8.98654627E+01
 20
2.78038351E+01
 11
-8.58654614E+01
 21
2.54944333E+01
  0
LINE
  8
0
 62
4
 10
-9.38654640E+01
 20
2.54944333E+01
 11
-8.98654626E+01
 21
2.78038351E+01
  0
CIRCLE
  8
0
 62
2
 10
-8.98654627E+01
 20
2.31850315E+01
 40
2.06700000E+00
  0
LINE
  8
0
 62
7
 10
-8.13654627E+01
 20
2.74350315E+01
 11
-8.13654627E+01
 21
1.89450315E+01
  0
LINE
  8
0
 62
7
 10
-9.83654627E+01
 20
2.74350315E+01
 11
-9.83654627E+01
 21
1.89450315E+01
  0
LINE
  8
0
 62
7
 10
-9.41054627E+01
 20
1.46850315E+01
 11
-8.56154627E+01
 21
1.46850315E+01
  0
LINE
  8
0
 62
7
 10
-9.41054627E+01
 20
3.16850315E+01
 11
-8.56154627E+01
 21
3.16850315E+01
  0
LINE
  8
0
  6
CENTER
 62
2
 10
-8.98654627E+01
 20
4.53059986E+01
 11
-8.98654627E+01
 21
1.27050968E+01
  0
LINE
  8
0
  6
CENTER
 62
2
 10
-1.00382900E+02
 20
2.31850315E+01
 11
-7.93658753E+01
 21
2.31850315E+01
  0
CIRCLE
  8
0
 62
7
 10
-8.98654627E+01
 20
2.31850330E+01
 40
2.50000000E+00
  0
CIRCLE
  8
0
 62
7
 10
-8.98654627E+01
 20
2.31850330E+01
 40
8.50000000E+00
  0
ARC
  8
0
 62
7
 10
-8.98654619E+01
 20
2.31850322E+01
 40
9.50328788E+00
 50
2.65650491E+01
 51
6.34349507E+01
  0
ARC
  8
0
 62
7
 10
-8.98704558E+01
 20
2.31800481E+01
 40
9.50105392E+00
 50
1.16470741E+02
 51
1.53394604E+02
  0
ARC
  8
0
 62
7
 10
-8.98654619E+01
 20
2.31850322E+01
 40
9.49882200E+00
 50
2.06511102E+02
 51
2.43488897E+02
  0
ARC
  8
0
 62
7
 10
-8.98704476E+01
 20
2.31800399E+01
 40
9.50105596E+00
 50
2.96605401E+02
 51
3.33529254E+02
  0
CIRCLE
  8
0
 62
4
 10
-8.98654627E+01
 20
2.31850330E+01
 40
7.00000000E+00
  0
CIRCLE
  8
0
 62
4
 10
-8.98654627E+01
 20
2.31850330E+01
 40
4.00000000E+00
  0
LINE
  8
0
 62
7
 10
9.30445373E+01
 20
3.16850315E+01
 11
9.40445373E+01
 21
3.16850315E+01
  0
LINE
  8
0
 62
7
 10
9.13984388E+01
 20
1.46850315E+01
 11
9.40445373E+01
 21
1.46850315E+01
  0
LINE
  8
0
 62
7
 10
8.12945373E+01
 20
2.15811300E+01
 11
8.12945373E+01
 21
1.89450315E+01
  0
LINE
  8
0
 62
7
 10
9.82945373E+01
 20
2.15811300E+01
 11
9.82945373E+01
 21
1.89450315E+01
  0
ARC
  8
0
 62
7
 10
8.97945381E+01
 20
2.31850322E+01
 40
9.50328788E+00
 50
4.46347655E+01
 51
6.34349507E+01
  0
ARC
  8
0
 62
7
 10
8.97895442E+01
 20
2.31800481E+01
 40
9.50105392E+00
 50
1.26443200E+02
 51
1.53394604E+02
  0
LINE
  8
0
 62
4
 10
8.82945373E+01
 20
3.84850315E+01
 11
8.85945373E+01
 21
3.81850315E+01
  0
LINE
  8
0
 62
4
 10
9.12945373E+01
 20
3.84850315E+01
 11
9.09945373E+01
 21
3.81850315E+01
  0
LINE
  8
0
 62
4
 10
8.87945373E+01
 20
3.21850315E+01
 11
9.07945373E+01
 21
3.21850315E+01
  0
LINE
  8
0
 62
4
 10
8.84945373E+01
 20
3.31850315E+01
 11
9.10945373E+01
 21
3.31850315E+01
  0
LINE
  8
0
 62
4
 10
8.84945373E+01
 20
3.31850315E+01
 11
8.77445373E+01
 21
3.24850315E+01
  0
LINE
  8
0
 62
4
 10
9.67009289E+01
 20
2.99045929E+01
 11
9.71762688E+01
 21
3.00596799E+01
  0
LINE
  8
0
 62
4
 10
9.54602331E+01
 20
3.37073122E+01
 11
9.53176311E+01
 21
3.36607861E+01
  0
LINE
  8
0
 62
4
 10
9.47195373E+01
 20
3.75895355E+01
 11
9.71762688E+01
 21
3.00596799E+01
  0
LINE
  8
0
 62
4
 10
9.53176457E+01
 20
3.36607413E+01
 11
9.78753158E+01
 21
2.58215100E+01
  0
LINE
  8
0
 62
4
 10
9.42195373E+01
 20
3.75100315E+01
 11
9.80179178E+01
 21
2.58680361E+01
  0
LINE
  8
0
 62
4
 10
8.62945373E+01
 20
3.46850315E+01
 11
8.22358736E+01
 21
2.73908729E+01
  0
LINE
  8
0
 62
4
 10
8.64445373E+01
 20
3.46850315E+01
 11
8.23576890E+01
 21
2.73012539E+01
  0
ARC
  8
0
 62
4
 10
8.97945373E+01
 20
2.31850315E+01
 40
8.65000000E+00
 50
1.50907274E+02
 51
1.80697136E+01
  0
CIRCLE
  8
0
 62
4
 10
8.97945373E+01
 20
3.44850315E+01
 40
1.30000000E+00
  0
LINE
  8
0
 62
4
 10
8.62945373E+01
 20
4.11850315E+01
 11
9.32945373E+01
 21
4.11850315E+01
  0
LINE
  8
0
 62
4
 10
9.32945373E+01
 20
3.98850315E+01
 11
9.32945373E+01
 21
3.39850315E+01
  0
LINE
  8
0
 62
4
 10
8.62945373E+01
 20
3.98850315E+01
 11
8.62945373E+01
 21
3.46850315E+01
  0
LINE
  8
0
 62
4
 10
9.40945373E+01
 20
3.61828092E+01
 11
9.45640556E+01
 21
3.64540865E+01
  0
LINE
  8
0
 62
4
 10
9.47945373E+01
 20
3.94850315E+01
 11
9.47945373E+01
 21
3.78000315E+01
  0
LINE
  8
0
 62
4
 10
9.47945373E+01
 20
3.94850315E+01
 11
9.55945373E+01
 21
3.94850315E+01
  0
LINE
  8
0
 62
4
 10
9.20795373E+01
 20
4.03850315E+01
 11
9.19395373E+01
 21
3.95850315E+01
  0
LINE
  8
0
 62
4
 10
8.75095373E+01
 20
4.03850315E+01
 11
8.76495373E+01
 21
3.95850315E+01
  0
LINE
  8
0
 62
4
 10
8.76495373E+01
 20
3.95850315E+01
 11
9.19395373E+01
 21
3.95850315E+01
  0
LINE
  8
0
 62
6
 10
9.10245373E+01
 20
4.16850315E+01
 11
9.10245373E+01
 21
4.11850315E+01
  0
LINE
  8
0
 62
6
 10
8.85645373E+01
 20
4.16850315E+01
 11
8.85645373E+01
 21
4.11850315E+01
  0
LINE
  8
0
 62
4
 10
8.54945373E+01
 20
4.03850315E+01
 11
8.54945373E+01
 21
3.46850315E+01
  0
LINE
  8
0
 62
4
 10
9.40945373E+01
 20
3.39850315E+01
 11
9.40945373E+01
 21
4.03850315E+01
  0
LINE
  8
0
 62
4
 10
8.67945373E+01
 20
4.03850315E+01
 11
9.27945373E+01
 21
4.03850315E+01
  0
LINE
  8
0
 62
4
 10
9.55945373E+01
 20
3.94850315E+01
 11
9.55945373E+01
 21
3.73400315E+01
  0
LINE
  8
0
 62
4
 10
9.40945373E+01
 20
3.71090315E+01
 11
9.43086421E+01
 21
3.72332122E+01
  0
LINE
  8
0
 62
4
 10
8.64445373E+01
 20
3.98850315E+01
 11
8.64445373E+01
 21
3.46850315E+01
  0
LINE
  8
0
 62
4
 10
8.62945373E+01
 20
3.98850315E+01
 11
8.64445373E+01
 21
3.98850315E+01
  0
LINE
  8
0
 62
4
 10
8.65445373E+01
 20
3.81850315E+01
 11
9.30445373E+01
 21
3.81850315E+01
  0
LINE
  8
0
 62
4
 10
8.65445373E+01
 20
3.74850315E+01
 11
9.30445373E+01
 21
3.74850315E+01
  0
LINE
  8
0
 62
4
 10
9.42195373E+01
 20
4.00100315E+01
 11
9.42195373E+01
 21
3.75100315E+01
  0
LINE
  8
0
 62
4
 10
9.47195373E+01
 20
4.00100315E+01
 11
9.47195373E+01
 21
3.75895355E+01
  0
LINE
  8
0
 62
4
 10
9.42195373E+01
 20
4.00100315E+01
 11
9.47195373E+01
 21
4.00100315E+01
  0
LINE
  8
0
 62
4
 10
9.12945373E+01
 20
4.21850315E+01
 11
9.12945373E+01
 21
4.11850315E+01
  0
LINE
  8
0
 62
4
 10
8.82945373E+01
 20
4.21850315E+01
 11
8.82945373E+01
 21
4.11850315E+01
  0
LINE
  8
0
 62
4
 10
8.54945373E+01
 20
3.46850315E+01
 11
8.62945373E+01
 21
3.46850315E+01
  0
LINE
  8
0
 62
4
 10
9.32945373E+01
 20
3.39850315E+01
 11
9.40945373E+01
 21
3.39850315E+01
  0
LINE
  8
0
 62
4
 10
8.72945373E+01
 20
4.21850315E+01
 11
9.22945373E+01
 21
4.21850315E+01
  0
LINE
  8
0
 62
4
 10
8.82945373E+01
 20
4.36850315E+01
 11
9.12945373E+01
 21
4.36850315E+01
  0
LINE
  8
0
 62
4
 10
8.72945373E+01
 20
4.26850315E+01
 11
8.72945373E+01
 21
4.21850315E+01
  0
LINE
  8
0
 62
4
 10
9.22945373E+01
 20
4.26850315E+01
 11
9.22945373E+01
 21
4.21850315E+01
  0
LINE
  8
0
 62
4
 10
8.82945373E+01
 20
4.16850315E+01
 11
9.12945373E+01
 21
4.16850315E+01
  0
ARC
  8
0
 62
4
 10
8.62945406E+01
 20
4.03850282E+01
 40
8.00003254E-01
 50
9.00000002E+01
 51
1.79999767E+02
  0
ARC
  8
0
 62
4
 10
9.32961999E+01
 20
4.03866941E+01
 40
7.98339134E-01
 50
3.59880678E+02
 51
9.01193227E+01
  0
ARC
  8
0
 62
4
 10
8.67945416E+01
 20
3.98850272E+01
 40
5.00004290E-01
 50
9.00000002E+01
 51
1.79999508E+02
  0
ARC
  8
0
 62
4
 10
9.27961999E+01
 20
3.98866941E+01
 40
4.98340176E-01
 50
3.59808845E+02
 51
9.01911544E+01
  0
ARC
  8
0
 62
4
 10
9.50943336E+01
 20
3.73381657E+01
 40
5.00207143E-01
 50
3.00013240E+02
 51
2.13706628E-01
  0
ARC
  8
0
 62
4
 10
9.42956855E+01
 20
3.78023872E+01
 40
4.98857363E-01
 50
3.30554632E+02
 51
3.59729437E+02
  0
ARC
  8
0
 62
4
 10
9.12959496E+01
 20
4.26864438E+01
 40
9.98588677E-01
 50
3.59918966E+02
 51
9.00810348E+01
  0
ARC
  8
0
 62
4
 10
8.82947901E+01
 20
4.26847787E+01
 40
1.00025280E+00
 50
9.00000002E+01
 51
1.79985521E+02
  0
LINE
  8
0
 62
4
 10
9.30445373E+01
 20
3.81850315E+01
 11
9.30445373E+01
 21
3.16850315E+01
  0
LINE
  8
0
 62
4
 10
9.25764195E+01
 20
3.12169136E+01
 11
9.30445373E+01
 21
3.16850315E+01
  0
LINE
  8
0
 62
4
 10
8.70126551E+01
 20
3.12169136E+01
 11
8.65445373E+01
 21
3.16850315E+01
  0
LINE
  8
0
 62
4
 10
8.65445373E+01
 20
3.42850315E+01
 11
8.65445373E+01
 21
3.16850315E+01
  0
LINE
  8
0
 62
4
 10
8.65445373E+01
 20
3.42850315E+01
 11
8.77445373E+01
 21
3.42850315E+01
  0
LINE
  8
0
 62
4
 10
8.65445373E+01
 20
3.46850315E+01
 11
8.77445373E+01
 21
3.46850315E+01
  0
LINE
  8
0
 62
4
 10
8.65445373E+01
 20
3.81850315E+01
 11
8.65445373E+01
 21
3.46850315E+01
  0
LINE
  8
0
 62
4
 10
8.77445373E+01
 20
3.24850315E+01
 11
9.18445373E+01
 21
3.24850315E+01
  0
LINE
  8
0
 62
4
 10
8.77445373E+01
 20
3.64850315E+01
 11
9.18445373E+01
 21
3.64850315E+01
  0
LINE
  8
0
 62
4
 10
8.87945373E+01
 20
3.67850315E+01
 11
9.07945373E+01
 21
3.67850315E+01
  0
LINE
  8
0
 62
4
 10
8.84945373E+01
 20
3.57850315E+01
 11
9.10945373E+01
 21
3.57850315E+01
  0
LINE
  8
0
 62
4
 10
8.87945373E+01
 20
3.67850315E+01
 11
8.87945373E+01
 21
3.64850315E+01
  0
LINE
  8
0
 62
4
 10
8.87945373E+01
 20
3.24850315E+01
 11
8.87945373E+01
 21
3.21850315E+01
  0
LINE
  8
0
 62
4
 10
8.77445373E+01
 20
3.64850315E+01
 11
8.77445373E+01
 21
3.24850315E+01
  0
LINE
  8
0
 62
4
 10
8.84945373E+01
 20
3.57850315E+01
 11
8.84945373E+01
 21
3.31850315E+01
  0
LINE
  8
0
 62
4
 10
8.77445373E+01
 20
3.64850315E+01
 11
8.84945373E+01
 21
3.57850315E+01
  0
LINE
  8
0
 62
4
 10
9.18445373E+01
 20
3.64850315E+01
 11
9.18445373E+01
 21
3.24850315E+01
  0
LINE
  8
0
 62
4
 10
9.07945373E+01
 20
3.67850315E+01
 11
9.07945373E+01
 21
3.64850315E+01
  0
LINE
  8
0
 62
4
 10
9.07945373E+01
 20
3.24850315E+01
 11
9.07945373E+01
 21
3.21850315E+01
  0
LINE
  8
0
 62
4
 10
9.10945373E+01
 20
3.57850315E+01
 11
9.10945373E+01
 21
3.31850315E+01
  0
LINE
  8
0
 62
4
 10
9.10945373E+01
 20
3.57850315E+01
 11
9.18445373E+01
 21
3.64850315E+01
  0
LINE
  8
0
 62
4
 10
9.10945373E+01
 20
3.31850315E+01
 11
9.18445373E+01
 21
3.24850315E+01
  0
LINE
  8
0
 62
4
 10
8.82945373E+01
 20
3.95850315E+01
 11
8.82945373E+01
 21
3.84850315E+01
  0
LINE
  8
0
 62
4
 10
9.12945373E+01
 20
3.95850315E+01
 11
9.12945373E+01
 21
3.84850315E+01
  0
LINE
  8
0
 62
6
 10
8.85645373E+01
 20
3.95850315E+01
 11
8.85645373E+01
 21
3.82150315E+01
  0
LINE
  8
0
 62
6
 10
9.10245373E+01
 20
3.95850315E+01
 11
9.10245373E+01
 21
3.82150315E+01
  0
LINE
  8
0
 62
4
 10
9.50065760E+01
 20
3.67097649E+01
 11
9.53445373E+01
 21
3.69050315E+01
  0
LINE
  8
0
 62
7
 10
8.12945373E+01
 20
2.74350315E+01
 11
8.12945373E+01
 21
2.47889330E+01
  0
ARC
  8
0
 62
7
 10
8.97945381E+01
 20
2.31850322E+01
 40
9.49882200E+00
 50
2.06511102E+02
 51
2.43488897E+02
  0
LINE
  8
0
 62
7
 10
8.55545373E+01
 20
1.46850315E+01
 11
8.81906358E+01
 21
1.46850315E+01
  0
ARC
  8
0
 62
7
 10
8.97895524E+01
 20
2.31800399E+01
 40
9.50105596E+00
 50
2.96605401E+02
 51
3.33529254E+02
  0
LINE
  8
0
 62
7
 10
9.82945373E+01
 20
2.74350315E+01
 11
9.82945373E+01
 21
2.47889330E+01
  0
ARC
  8
0
 62
7
 10
8.97945381E+01
 20
2.31850322E+01
 40
9.50328788E+00
 50
2.65650491E+01
 51
4.25351600E+01
  0
LINE
  8
0
 62
7
 10
8.55545373E+01
 20
3.16850315E+01
 11
8.65445373E+01
 21
3.16850315E+01
  0
CIRCLE
  8
0
 62
4
 10
8.97945373E+01
 20
2.31850330E+01
 40
8.50000000E+00
  0
ARC
  8
0
 62
7
 10
8.97895442E+01
 20
2.31800481E+01
 40
9.50105392E+00
 50
1.16470741E+02
 51
1.24471441E+02
  0
CIRCLE
  8
0
 62
4
 10
8.97945373E+01
 20
2.31850315E+01
 40
2.06700000E+00
  0
LINE
  8
0
  6
CENTER
 62
2
 10
7.97245373E+01
 20
2.31850315E+01
 11
9.99245373E+01
 21
2.31850315E+01
  0
LINE
  8
0
  6
CENTER
 62
2
 10
8.97945373E+01
 20
4.55025800E+01
 11
8.97945373E+01
 21
1.27650315E+01
  0
CIRCLE
  8
0
 62
6
 10
8.98011938E+01
 20
2.31850330E+01
 40
2.50000000E+00
  0
CIRCLE
  8
0
 62
4
 10
8.98011938E+01
 20
2.31850330E+01
 40
8.00000000E+00
  0
LINE
  8
0
 62
4
 10
-6.00546270E+00
 20
6.58450315E+01
 11
-6.00546270E+00
 21
8.31450315E+01
  0
LINE
  8
0
  6
CENTER
 62
6
 10
-1.50546270E+00
 20
8.44950301E+01
 11
-1.50546270E+00
 21
6.44950315E+01
  0
LINE
  8
0
 62
4
 10
2.99453730E+00
 20
6.58450315E+01
 11
2.99453730E+00
 21
8.31450315E+01
  0
LINE
  8
0
  6
CENTER
 62
6
 10
-1.57316674E+01
 20
7.44950315E+01
 11
2.07375876E+01
 21
7.44950315E+01
  0
LINE
  8
0
 62
4
 10
-6.00546267E+00
 20
7.87950315E+01
 11
2.99453733E+00
 21
7.87950315E+01
  0
LINE
  8
0
 62
4
 10
-6.00546267E+00
 20
7.94200315E+01
 11
2.99453733E+00
 21
7.94200315E+01
  0
LINE
  8
0
 62
4
 10
-6.00546267E+00
 20
7.89200315E+01
 11
2.99453733E+00
 21
7.89200315E+01
  0
LINE
  8
0
 62
4
 10
-6.00546267E+00
 20
8.18700315E+01
 11
2.99453730E+00
 21
8.18700315E+01
  0
LINE
  8
0
 62
4
 10
-3.50546267E+00
 20
8.02950315E+01
 11
4.94537330E-01
 21
8.02950315E+01
  0
LINE
  8
0
 62
4
 10
-3.50546267E+00
 20
7.94950315E+01
 11
4.94537301E-01
 21
7.94950315E+01
  0
LINE
  8
0
 62
4
 10
4.94537301E-01
 20
8.02950315E+01
 11
4.94537301E-01
 21
7.94200315E+01
  0
LINE
  8
0
 62
4
 10
-6.00546267E+00
 20
7.01950315E+01
 11
2.99453730E+00
 21
7.01950315E+01
  0
LINE
  8
0
 62
4
 10
-6.00546270E+00
 20
6.58450315E+01
 11
2.99453730E+00
 21
6.58450315E+01
  0
LINE
  8
0
 62
6
 10
1.89315364E+01
 20
7.57950315E+01
 11
1.63315364E+01
 21
7.31950315E+01
  0
LINE
  8
0
 62
4
 10
1.39945373E+01
 20
7.31950315E+01
 11
1.63315364E+01
 21
7.31950315E+01
  0
LINE
  8
0
 62
4
 10
1.09945373E+01
 20
7.24950315E+01
 11
1.39945373E+01
 21
7.31950315E+01
  0
LINE
  8
0
 62
4
 10
1.39945373E+01
 20
7.57950315E+01
 11
1.39945373E+01
 21
7.31950315E+01
  0
LINE
  8
0
 62
4
 10
1.39945373E+01
 20
7.57950315E+01
 11
1.89315364E+01
 21
7.57950315E+01
  0
LINE
  8
0
 62
4
 10
1.09945373E+01
 20
7.64950315E+01
 11
1.39945373E+01
 21
7.57950315E+01
  0
LINE
  8
0
 62
4
 10
1.09945373E+01
 20
7.64950315E+01
 11
1.09945373E+01
 21
7.24950315E+01
  0
LINE
  8
0
 62
4
 10
2.99453730E+00
 20
7.77450315E+01
 11
5.49453730E+00
 21
7.77450315E+01
  0
LINE
  8
0
 62
4
 10
5.49453730E+00
 20
7.12450315E+01
 11
5.49453730E+00
 21
7.77450315E+01
  0
LINE
  8
0
 62
4
 10
5.49453730E+00
 20
7.64950315E+01
 11
1.09945373E+01
 21
7.64950315E+01
  0
LINE
  8
0
 62
4
 10
5.49453730E+00
 20
7.24950315E+01
 11
1.09945373E+01
 21
7.24950315E+01
  0
LINE
  8
0
 62
4
 10
2.99453730E+00
 20
7.12450315E+01
 11
5.49453730E+00
 21
7.12450315E+01
  0
LINE
  8
0
 62
4
 10
-3.50546270E+00
 20
7.94200315E+01
 11
-3.50546270E+00
 21
8.02950315E+01
  0
LINE
  8
0
 62
4
 10
-4.98029285E-01
 20
7.34924649E+01
 11
-2.56802928E+00
 21
7.55524649E+01
  0
LINE
  8
0
 62
4
 10
-2.56802928E+00
 20
7.34324649E+01
 11
-4.48029285E-01
 21
7.55524649E+01
  0
CIRCLE
  8
0
 62
4
 10
-1.50633794E+00
 20
7.44925730E+01
 40
2.50000000E+00
  0
LINE
  8
0
 62
4
 10
-8.50546270E+00
 20
7.12450315E+01
 11
-6.00546270E+00
 21
7.12450315E+01
  0
LINE
  8
0
 62
4
 10
-1.30054627E+01
 20
7.24950315E+01
 11
-8.50546270E+00
 21
7.24950315E+01
  0
LINE
  8
0
 62
4
 10
-1.40054627E+01
 20
7.34950315E+01
 11
-1.30054627E+01
 21
7.24950315E+01
  0
LINE
  8
0
 62
4
 10
-1.40054627E+01
 20
7.54950315E+01
 11
-1.40054627E+01
 21
7.34950315E+01
  0
LINE
  8
0
 62
4
 10
-8.50546270E+00
 20
7.77450315E+01
 11
-6.00546270E+00
 21
7.77450315E+01
  0
LINE
  8
0
 62
4
 10
-1.30054627E+01
 20
7.64950315E+01
 11
-8.50546270E+00
 21
7.64950315E+01
  0
LINE
  8
0
 62
4
 10
-1.30054627E+01
 20
7.64950315E+01
 11
-1.30054627E+01
 21
7.24950315E+01
  0
LINE
  8
0
 62
4
 10
-8.50546270E+00
 20
7.12450315E+01
 11
-8.50546270E+00
 21
7.77450315E+01
  0
LINE
  8
0
 62
4
 10
-1.40054627E+01
 20
7.54950315E+01
 11
-1.30054627E+01
 21
7.64950315E+01
  0
LINE
  8
0
 62
4
 10
-6.00546270E+00
 20
8.31450315E+01
 11
2.99453730E+00
 21
8.31450315E+01
  0
LINE
  8
0
  6
CENTER
 62
6
 10
-1.20326312E+02
 20
-5.60748853E+01
 11
-1.20326312E+02
 21
-6.23890238E+01
  0
LINE
  8
0
  6
CENTER
 62
6
 10
-9.11263117E+01
 20
-5.60748853E+01
 11
-9.11263117E+01
 21
-6.23890238E+01
  0
CIRCLE
  8
0
 62
4
 10
-1.05726312E+02
 20
-4.66294654E+01
 40
5.00000000E+00
  0
LINE
  8
0
  6
CENTER
 62
6
 10
-1.13226312E+02
 20
-4.66294654E+01
 11
-9.82263117E+01
 21
-4.66294654E+01
  0
LINE
  8
0
  6
CENTER
 62
6
 10
-1.05726312E+02
 20
-3.82307565E+01
 11
-1.05726312E+02
 21
-5.49052023E+01
  0
LINE
  8
0
 62
4
 10
-1.26726312E+02
 20
-5.83294654E+01
 11
-1.26726312E+02
 21
-6.06294654E+01
  0
LINE
  8
0
 62
4
 10
-8.47263117E+01
 20
-5.83294654E+01
 11
-8.47263117E+01
 21
-6.06294654E+01
  0
LINE
  8
0
 62
4
 10
-1.26726312E+02
 20
-6.06294654E+01
 11
-8.47263117E+01
 21
-6.06294654E+01
  0
LINE
  8
0
 62
4
 10
-1.26726312E+02
 20
-5.83294654E+01
 11
-8.47263117E+01
 21
-5.83294654E+01
  0
ARC
  8
0
 62
4
 10
-1.05726312E+02
 20
-4.66294654E+01
 40
1.00000000E+01
 50
3.62946002E+01
 51
1.43705400E+02
  0
LINE
  8
0
 62
4
 10
-8.47263117E+01
 20
-5.83294654E+01
 11
-9.76664710E+01
 21
-4.07100932E+01
  0
LINE
  8
0
 62
4
 10
-1.26726312E+02
 20
-5.83294654E+01
 11
-1.13786152E+02
 21
-4.07100932E+01
  0
LINE
  8
0
 62
4
 10
-7.44263117E+01
 20
-5.83294654E+01
 11
-7.44263117E+01
 21
-6.06294654E+01
  0
LINE
  8
0
 62
4
 10
-6.92263117E+01
 20
-5.83294654E+01
 11
-6.92263117E+01
 21
-6.06294654E+01
  0
LINE
  8
0
  6
CENTER
 62
6
 10
-6.76744785E+01
 20
-4.66294654E+01
 11
-6.03263117E+01
 21
-4.66294654E+01
  0
LINE
  8
0
  6
CENTER
 62
6
 10
-7.18263117E+01
 20
-5.60748853E+01
 11
-7.18263117E+01
 21
-6.23890238E+01
  0
LINE
  8
0
 62
4
 10
-7.78263117E+01
 20
-5.83294654E+01
 11
-7.78263117E+01
 21
-6.06294654E+01
  0
LINE
  8
0
 62
4
 10
-7.78263117E+01
 20
-6.06294654E+01
 11
-6.81263117E+01
 21
-6.06294654E+01
  0
LINE
  8
0
 62
4
 10
-6.51263117E+01
 20
-3.66294654E+01
 11
-6.28263117E+01
 21
-3.66294654E+01
  0
LINE
  8
0
 62
4
 10
-6.28263117E+01
 20
-3.66294654E+01
 11
-6.28263117E+01
 21
-5.53294654E+01
  0
LINE
  8
0
 62
4
 10
-6.51263117E+01
 20
-3.66294654E+01
 11
-6.51263117E+01
 21
-5.53294654E+01
  0
LINE
  8
0
 62
4
 10
-7.78263117E+01
 20
-5.83294654E+01
 11
-6.81263117E+01
 21
-5.83294654E+01
  0
ARC
  8
0
 62
4
 10
-6.81263117E+01
 20
-5.53294654E+01
 40
3.00000000E+00
 50
2.70000000E+02
 51
0.00000000E+00
  0
ARC
  8
0
 62
4
 10
-6.81263117E+01
 20
-5.53294654E+01
 40
5.30000000E+00
 50
2.70000000E+02
 51
0.00000000E+00
  0
LINE
  8
0
 62
4
 10
-1.26726312E+02
 20
-6.72946544E+00
 11
-1.26726312E+02
 21
-1.31294654E+01
  0
LINE
  8
0
 62
4
 10
-1.26726312E+02
 20
-1.83294654E+01
 11
-1.26726312E+02
 21
-2.17294654E+01
  0
LINE
  8
0
 62
4
 10
-1.20326312E+02
 20
-1.31294654E+01
 11
-1.26726312E+02
 21
-1.31294654E+01
  0
LINE
  8
0
 62
4
 10
-1.20326312E+02
 20
-1.83294654E+01
 11
-1.26726312E+02
 21
-1.83294654E+01
  0
LINE
  8
0
  6
CENTER
 62
6
 10
-1.20326312E+02
 20
-1.95628688E+01
 11
-1.20326312E+02
 21
-1.20759653E+01
  0
ARC
  8
0
 62
4
 10
-1.20326312E+02
 20
-1.57294654E+01
 40
2.60000000E+00
 50
2.70000000E+02
 51
9.00000002E+01
  0
LINE
  8
0
 62
4
 10
-9.11263117E+01
 20
-1.31294654E+01
 11
-8.47263117E+01
 21
-1.31294654E+01
  0
LINE
  8
0
 62
4
 10
-9.11263117E+01
 20
-1.83294654E+01
 11
-8.47263117E+01
 21
-1.83294654E+01
  0
LINE
  8
0
  6
CENTER
 62
6
 10
-9.11263117E+01
 20
-1.94024351E+01
 11
-9.11263117E+01
 21
-1.21829211E+01
  0
ARC
  8
0
 62
4
 10
-9.11263117E+01
 20
-1.57294654E+01
 40
2.60000000E+00
 50
9.00000002E+01
 51
2.70000000E+02
  0
LINE
  8
0
 62
4
 10
-8.47263117E+01
 20
-1.83294654E+01
 11
-8.47263117E+01
 21
-2.17294654E+01
  0
LINE
  8
0
  6
CENTER
 62
6
 10
-1.23629276E+02
 20
-1.57294654E+01
 11
-8.82916887E+01
 21
-1.57294654E+01
  0
LINE
  8
0
  6
CENTER
 62
6
 10
-1.05726312E+02
 20
-5.33946544E+00
 11
-1.05726312E+02
 21
-2.29694654E+01
  0
LINE
  8
0
 62
4
 10
-1.26726312E+02
 20
-2.17294654E+01
 11
-8.47263117E+01
 21
-2.17294654E+01
  0
LINE
  8
0
 62
4
 10
-1.26726312E+02
 20
-6.72946544E+00
 11
-8.47263117E+01
 21
-6.72946544E+00
  0
LINE
  8
0
 62
4
 10
-8.47263117E+01
 20
-6.72946544E+00
 11
-8.47263117E+01
 21
-1.31294654E+01
  0
LINE
  8
0
 62
4
 10
-1.26726312E+02
 20
-9.02946544E+00
 11
-8.47263117E+01
 21
-9.02946544E+00
  0
LINE
  8
0
 62
4
 10
-3.17263117E+01
 20
-4.11294654E+01
 11
1.02736883E+01
 21
-4.11294654E+01
  0
LINE
  8
0
 62
4
 10
3.87368830E+00
 20
-4.85294654E+01
 11
1.02736883E+01
 21
-4.85294654E+01
  0
LINE
  8
0
 62
4
 10
-3.17263117E+01
 20
-4.85294654E+01
 11
-2.53263117E+01
 21
-4.85294654E+01
  0
LINE
  8
0
 62
4
 10
-3.17263117E+01
 20
-4.11294654E+01
 11
-3.17263117E+01
 21
-4.85294654E+01
  0
LINE
  8
0
 62
4
 10
1.02736883E+01
 20
-4.11294654E+01
 11
1.02736883E+01
 21
-4.85294654E+01
  0
LINE
  8
0
 62
4
 10
-3.17263117E+01
 20
-5.37294654E+01
 11
-3.17263117E+01
 21
-6.11294654E+01
  0
LINE
  8
0
 62
4
 10
1.02736883E+01
 20
-5.37294654E+01
 11
1.02736883E+01
 21
-6.11294654E+01
  0
LINE
  8
0
 62
4
 10
-3.17263117E+01
 20
-6.11294654E+01
 11
1.02736883E+01
 21
-6.11294654E+01
  0
LINE
  8
0
 62
4
 10
3.87368830E+00
 20
-5.37294654E+01
 11
1.02736883E+01
 21
-5.37294654E+01
  0
LINE
  8
0
 62
4
 10
-3.17263117E+01
 20
-5.37294654E+01
 11
-2.53263117E+01
 21
-5.37294654E+01
  0
LINE
  8
0
  6
CENTER
 62
6
 10
-2.83663117E+01
 20
-5.11294654E+01
 11
6.54378496E+00
 21
-5.11294654E+01
  0
LINE
  8
0
  6
CENTER
 62
6
 10
3.87368830E+00
 20
-4.73694202E+01
 11
3.87368830E+00
 21
-5.50723884E+01
  0
LINE
  8
0
  6
CENTER
 62
6
 10
-2.53263117E+01
 20
-4.73694202E+01
 11
-2.53263117E+01
 21
-5.50723884E+01
  0
CIRCLE
  8
0
 62
4
 10
-1.07263117E+01
 20
-5.11294654E+01
 40
5.00000000E+00
  0
ARC
  8
0
 62
4
 10
-2.53263117E+01
 20
-5.11294654E+01
 40
2.60000000E+00
 50
2.70000000E+02
 51
9.00000002E+01
  0
ARC
  8
0
 62
4
 10
3.87368830E+00
 20
-5.11294654E+01
 40
2.60000000E+00
 50
9.00000002E+01
 51
2.70000000E+02
  0
LINE
  8
0
  6
CENTER
 62
6
 10
-1.07263117E+01
 20
-4.39294654E+01
 11
-1.07263117E+01
 21
-5.84394654E+01
  0
LINE
  8
0
  6
CENTER
 62
6
 10
1.78709590E+01
 20
-5.11294654E+01
 11
2.48100080E+01
 21
-5.11294654E+01
  0
LINE
  8
0
 62
4
 10
2.02736883E+01
 20
-4.11294654E+01
 11
2.25736883E+01
 21
-4.11294654E+01
  0
LINE
  8
0
 62
4
 10
2.02736883E+01
 20
-4.85294654E+01
 11
2.25736883E+01
 21
-4.85294654E+01
  0
LINE
  8
0
 62
4
 10
2.02736883E+01
 20
-6.11294654E+01
 11
2.25736883E+01
 21
-6.11294654E+01
  0
LINE
  8
0
 62
4
 10
2.02736883E+01
 20
-5.37294654E+01
 11
2.25736883E+01
 21
-5.37294654E+01
  0
LINE
  8
0
 62
4
 10
2.25736883E+01
 20
-4.11294654E+01
 11
2.25736883E+01
 21
-6.11294654E+01
  0
LINE
  8
0
 62
4
 10
2.02736883E+01
 20
-4.11294654E+01
 11
2.02736883E+01
 21
-6.11294654E+01
  0
LINE
  8
0
 62
4
 10
-3.17263117E+01
 20
-1.99294654E+01
 11
1.02736883E+01
 21
-1.99294654E+01
  0
LINE
  8
0
 62
4
 10
-3.17263117E+01
 20
-1.76294654E+01
 11
1.02736883E+01
 21
-1.76294654E+01
  0
LINE
  8
0
  6
CENTER
 62
6
 10
-1.07263117E+01
 20
-1.56930513E+01
 11
-1.07263117E+01
 21
-2.18945288E+01
  0
LINE
  8
0
 62
4
 10
1.02736883E+01
 20
-1.76294654E+01
 11
1.02736883E+01
 21
-1.99294654E+01
  0
LINE
  8
0
  6
CENTER
 62
6
 10
-2.53263117E+01
 20
-1.56930513E+01
 11
-2.53263117E+01
 21
-2.18945288E+01
  0
LINE
  8
0
  6
CENTER
 62
6
 10
3.87368833E+00
 20
-1.56930513E+01
 11
3.87368833E+00
 21
-2.18945288E+01
  0
LINE
  8
0
 62
4
 10
-3.17263117E+01
 20
-1.76294654E+01
 11
-3.17263117E+01
 21
-1.99294654E+01
  0
CIRCLE
  8
0
 62
6
 10
9.22893268E+01
 20
-1.66378532E+01
 40
2.64999962E+00
  0
LINE
  8
0
 62
4
 10
8.77943298E+01
 20
-8.13784095E+00
 11
9.67943298E+01
 21
-8.13784095E+00
  0
LINE
  8
0
 62
4
 10
8.77943298E+01
 20
-2.51378410E+01
 11
9.67943298E+01
 21
-2.51378410E+01
  0
LINE
  8
0
  6
CENTER
 62
6
 10
6.17205006E+01
 20
-1.66378410E+01
 11
9.75943298E+01
 21
-1.66378410E+01
  0
CIRCLE
  8
0
 62
4
 10
9.22943298E+01
 20
-1.66378410E+01
 40
2.06700000E+00
  0
LINE
  8
0
 62
4
 10
9.67943298E+01
 20
-8.13784095E+00
 11
9.67943298E+01
 21
-2.51378410E+01
  0
LINE
  8
0
  6
CENTER
 62
6
 10
9.22943298E+01
 20
-1.30878410E+01
 11
9.22943298E+01
 21
-2.03178410E+01
  0
LINE
  8
0
 62
4
 10
9.50443298E+01
 20
-8.13784095E+00
 11
9.50443298E+01
 21
-1.23952003E+01
  0
LINE
  8
0
 62
4
 10
9.50443298E+01
 20
-2.08804816E+01
 11
9.50443298E+01
 21
-2.51378410E+01
  0
LINE
  8
0
 62
4
 10
8.95443298E+01
 20
-2.08804816E+01
 11
8.95443298E+01
 21
-2.51378410E+01
  0
LINE
  8
0
 62
4
 10
8.95443298E+01
 20
-8.13784095E+00
 11
8.95443298E+01
 21
-1.23952003E+01
  0
LINE
  8
0
 62
4
 10
8.77943298E+01
 20
-8.13784095E+00
 11
8.77943298E+01
 21
-2.51378410E+01
  0
LINE
  8
0
 62
4
 10
8.95443298E+01
 20
-1.23952003E+01
 11
9.50443298E+01
 21
-1.23952003E+01
  0
LINE
  8
0
 62
7
 10
8.95443298E+01
 20
-2.08804816E+01
 11
9.50443298E+01
 21
-2.08804816E+01
  0
ARC
  8
0
 62
4
 10
9.38121870E+01
 20
-1.66378410E+01
 40
6.01785714E+00
 50
1.35169766E+02
 51
2.24830234E+02
  0
ARC
  8
0
 62
4
 10
9.07764727E+01
 20
-1.66378410E+01
 40
6.01785714E+00
 50
3.15169766E+02
 51
4.48302341E+01
  0
LINE
  8
0
 62
4
 10
1.09294537E+02
 20
-1.23952003E+01
 11
1.09294537E+02
 21
-2.08804816E+01
  0
LINE
  8
0
 62
4
 10
1.26294537E+02
 20
-1.23952003E+01
 11
1.26294537E+02
 21
-2.08804816E+01
  0
LINE
  8
0
  6
CENTER
 62
6
 10
1.06944537E+02
 20
-1.66378410E+01
 11
1.28994537E+02
 21
-1.66378410E+01
  0
LINE
  8
0
  6
CENTER
 62
6
 10
1.17794537E+02
 20
-5.78784095E+00
 11
1.17794537E+02
 21
-2.64378410E+01
  0
LINE
  8
0
 62
4
 10
1.13551897E+02
 20
-8.13784095E+00
 11
1.22037178E+02
 21
-8.13784095E+00
  0
LINE
  8
0
 62
4
 10
1.13551897E+02
 20
-2.51378410E+01
 11
1.22037178E+02
 21
-2.51378410E+01
  0
CIRCLE
  8
0
 62
4
 10
1.17794537E+02
 20
-1.66378410E+01
 40
8.50000000E+00
  0
ARC
  8
0
 62
4
 10
1.17794537E+02
 20
-1.66378410E+01
 40
9.50000000E+00
 50
1.16525352E+02
 51
1.53474648E+02
  0
ARC
  8
0
 62
4
 10
1.17794537E+02
 20
-1.66378410E+01
 40
9.50000000E+00
 50
2.06525352E+02
 51
2.43474648E+02
  0
ARC
  8
0
 62
4
 10
1.17794537E+02
 20
-1.66378410E+01
 40
9.50000000E+00
 50
2.96525352E+02
 51
3.33474648E+02
  0
ARC
  8
0
 62
4
 10
1.17794537E+02
 20
-1.66378410E+01
 40
9.50000000E+00
 50
2.65253520E+01
 51
6.34746480E+01
  0
LINE
  8
0
 62
4
 10
7.78045373E+01
 20
-4.76378410E+01
 11
7.78045373E+01
 21
-6.46378410E+01
  0
ARC
  8
0
 62
4
 10
8.78979306E+01
 20
-6.21265511E+01
 40
5.25660688E+00
 50
3.37503852E+02
 51
3.59985940E+02
  0
ARC
  8
0
 62
4
 10
8.78979334E+01
 20
-5.01491487E+01
 40
5.25661112E+00
 50
3.59905256E+02
 51
2.24963394E+01
  0
ARC
  8
0
 62
4
 10
9.44221013E+01
 20
-5.01513190E+01
 40
5.26756798E+00
 50
1.57527464E+02
 51
1.80070940E+02
  0
ARC
  8
0
 62
4
 10
9.44220999E+01
 20
-6.21243708E+01
 40
5.26756375E+00
 50
1.80037745E+02
 51
2.02472463E+02
  0
LINE
  8
0
 62
4
 10
8.50445373E+01
 20
-6.03878410E+01
 11
8.50445373E+01
 21
-6.46378410E+01
  0
LINE
  8
0
 62
4
 10
7.95545373E+01
 20
-6.03878410E+01
 11
7.95545373E+01
 21
-6.46378410E+01
  0
LINE
  8
0
 62
4
 10
8.50445373E+01
 20
-4.76378410E+01
 11
8.50445373E+01
 21
-5.18978410E+01
  0
LINE
  8
0
 62
4
 10
7.95545373E+01
 20
-4.76378410E+01
 11
7.95545373E+01
 21
-5.18978410E+01
  0
LINE
  8
0
 62
4
 10
8.67945373E+01
 20
-4.76378410E+01
 11
8.67945373E+01
 21
-6.46378410E+01
  0
LINE
  8
0
  6
CENTER
 62
6
 10
5.59619758E+01
 20
-5.61378410E+01
 11
9.79045373E+01
 21
-5.61378410E+01
  0
ARC
  8
0
 62
4
 10
8.38173935E+01
 20
-5.61428410E+01
 40
6.01597604E+00
 50
1.35120251E+02
 51
1.78154680E+02
  0
LINE
  8
0
 62
6
 10
9.31545373E+01
 20
-6.03258410E+01
 11
9.46065373E+01
 21
-6.03258410E+01
  0
LINE
  8
0
 62
6
 10
9.31545373E+01
 20
-5.19498410E+01
 11
9.46065373E+01
 21
-5.19498410E+01
  0
LINE
  8
0
 62
6
 10
8.82945373E+01
 20
-5.19498410E+01
 11
8.91545373E+01
 21
-5.19498410E+01
  0
LINE
  8
0
 62
6
 10
8.82945373E+01
 20
-6.03258410E+01
 11
8.91545373E+01
 21
-6.03258410E+01
  0
CIRCLE
  8
0
 62
4
 10
8.23045373E+01
 20
-5.61378410E+01
 40
2.06700000E+00
  0
LINE
  8
0
 62
4
 10
8.91545373E+01
 20
-5.01578410E+01
 11
8.91545373E+01
 21
-6.21278410E+01
  0
LINE
  8
0
 62
4
 10
9.31545373E+01
 20
-5.01578410E+01
 11
9.31545373E+01
 21
-6.21278410E+01
  0
LINE
  8
0
 62
4
 10
8.95545373E+01
 20
-6.01178410E+01
 11
9.27545373E+01
 21
-6.01178410E+01
  0
LINE
  8
0
 62
4
 10
8.95545373E+01
 20
-5.21678410E+01
 11
9.27545373E+01
 21
-5.21678410E+01
  0
LINE
  8
0
 62
4
 10
7.95545373E+01
 20
-5.18978410E+01
 11
8.50445373E+01
 21
-5.18978410E+01
  0
LINE
  8
0
 62
4
 10
7.95545373E+01
 20
-6.03878410E+01
 11
8.50445373E+01
 21
-6.03878410E+01
  0
LINE
  8
0
  6
CENTER
 62
6
 10
8.23045373E+01
 20
-5.25878410E+01
 11
8.23045373E+01
 21
-5.98178410E+01
  0
LINE
  8
0
 62
4
 10
8.67945373E+01
 20
-5.11378410E+01
 11
8.91545373E+01
 21
-5.11378410E+01
  0
LINE
  8
0
 62
4
 10
8.67945373E+01
 20
-6.11378410E+01
 11
8.91545373E+01
 21
-6.11378410E+01
  0
LINE
  8
0
 62
4
 10
9.47945373E+01
 20
-5.21378410E+01
 11
9.47945373E+01
 21
-6.01378410E+01
  0
LINE
  8
0
 62
4
 10
9.37945373E+01
 20
-5.11378410E+01
 11
9.47945373E+01
 21
-5.21378410E+01
  0
LINE
  8
0
 62
4
 10
9.37945373E+01
 20
-6.11378410E+01
 11
9.47945373E+01
 21
-6.01378410E+01
  0
LINE
  8
0
 62
4
 10
9.37945373E+01
 20
-5.11378410E+01
 11
9.37945373E+01
 21
-6.11378410E+01
  0
LINE
  8
0
 62
4
 10
9.31545373E+01
 20
-5.11378410E+01
 11
9.37945373E+01
 21
-5.11378410E+01
  0
LINE
  8
0
 62
4
 10
9.31545373E+01
 20
-6.11378410E+01
 11
9.37945373E+01
 21
-6.11378410E+01
  0
LINE
  8
0
 62
4
 10
8.82945373E+01
 20
-5.11378410E+01
 11
8.82945373E+01
 21
-6.11378410E+01
  0
ARC
  8
0
 62
4
 10
1.09112695E+02
 20
-5.61435873E+01
 40
1.99581583E+01
 50
1.68509581E+02
 51
1.79983503E+02
  0
ARC
  8
0
 62
4
 10
1.09113692E+02
 20
-5.61419963E+01
 40
1.99591548E+01
 50
1.79988071E+02
 51
1.91490126E+02
  0
ARC
  8
0
 62
4
 10
9.44211925E+01
 20
-6.21311305E+01
 40
5.26665618E+00
 50
1.57525579E+02
 51
1.79964213E+02
  0
ARC
  8
0
 62
4
 10
9.44231034E+01
 20
-5.01541711E+01
 40
5.26856735E+00
 50
1.80039910E+02
 51
2.02470298E+02
  0
ARC
  8
0
 62
4
 10
8.78969250E+01
 20
-5.01563509E+01
 40
5.25761248E+00
 50
3.37506029E+02
 51
3.59983763E+02
  0
ARC
  8
0
 62
4
 10
7.32076327E+01
 20
-5.61424535E+01
 40
1.99469051E+01
 50
1.32491591E-02
 51
1.14936665E+01
  0
ARC
  8
0
 62
4
 10
7.32066359E+01
 20
-5.61431272E+01
 40
1.99479021E+01
 50
3.48506619E+02
 51
1.51836672E-02
  0
CIRCLE
  8
0
 62
6
 10
8.22995373E+01
 20
-5.61378532E+01
 40
2.64999962E+00
  0
ARC
  8
0
 62
4
 10
8.78988399E+01
 20
-6.21289499E+01
 40
5.25569749E+00
 50
1.20891728E-02
 51
2.24981188E+01
  0
ARC
  8
0
 62
4
 10
8.07816812E+01
 20
-5.61428410E+01
 40
6.01597604E+00
 50
3.15120252E+02
 51
4.48797486E+01
  0
LINE
  8
0
 62
4
 10
7.78045373E+01
 20
-4.76378410E+01
 11
8.67945373E+01
 21
-4.76378410E+01
  0
LINE
  8
0
 62
4
 10
8.95545373E+01
 20
-4.81378410E+01
 11
9.27545373E+01
 21
-4.81378410E+01
  0
LINE
  8
0
 62
4
 10
7.78045373E+01
 20
-6.46378410E+01
 11
8.67945373E+01
 21
-6.46378410E+01
  0
LINE
  8
0
 62
4
 10
8.95545373E+01
 20
-6.41378410E+01
 11
9.27545373E+01
 21
-6.41378410E+01
  0
ARC
  8
0
 62
4
 10
8.38173935E+01
 20
-5.61428410E+01
 40
6.01597604E+00
 50
1.81845320E+02
 51
2.24879748E+02
  0
LINE
  8
0
  6
CENTER
 62
6
 10
1.17794537E+02
 20
-4.52878410E+01
 11
1.17794537E+02
 21
-6.59378410E+01
  0
CIRCLE
  8
0
 62
6
 10
1.17794537E+02
 20
-5.61378410E+01
 40
4.18800000E+00
  0
LINE
  8
0
 62
4
 10
1.09294537E+02
 20
-5.18952003E+01
 11
1.09294537E+02
 21
-6.03804816E+01
  0
LINE
  8
0
 62
4
 10
1.26294537E+02
 20
-5.18952003E+01
 11
1.26294537E+02
 21
-6.03804816E+01
  0
LINE
  8
0
  6
CENTER
 62
6
 10
1.06944537E+02
 20
-5.61378410E+01
 11
1.28994537E+02
 21
-5.61378410E+01
  0
LINE
  8
0
 62
4
 10
1.13551897E+02
 20
-4.76378410E+01
 11
1.22037178E+02
 21
-4.76378410E+01
  0
LINE
  8
0
 62
4
 10
1.13551897E+02
 20
-6.46378410E+01
 11
1.22037178E+02
 21
-6.46378410E+01
  0
CIRCLE
  8
0
 62
4
 10
1.17794537E+02
 20
-5.61378410E+01
 40
5.00000000E+00
  0
CIRCLE
  8
0
 62
4
 10
1.17794537E+02
 20
-5.61378410E+01
 40
8.50000000E+00
  0
LINE
  8
0
 62
4
 10
1.24794539E+02
 20
-6.01792951E+01
 11
1.17794537E+02
 21
-6.42207478E+01
  0
LINE
  8
0
 62
4
 10
1.17794537E+02
 20
-6.42207478E+01
 11
1.10794536E+02
 21
-6.01792951E+01
  0
LINE
  8
0
 62
4
 10
1.10794536E+02
 20
-6.01792951E+01
 11
1.10794536E+02
 21
-5.20963898E+01
  0
LINE
  8
0
 62
4
 10
1.10794536E+02
 20
-5.20963898E+01
 11
1.17794537E+02
 21
-4.80549372E+01
  0
LINE
  8
0
 62
4
 10
1.24794539E+02
 20
-5.20963898E+01
 11
1.24794539E+02
 21
-6.01792951E+01
  0
CIRCLE
  8
0
 62
4
 10
1.17794537E+02
 20
-5.61378410E+01
 40
7.00000000E+00
  0
LINE
  8
0
 62
4
 10
1.17794537E+02
 20
-4.80549372E+01
 11
1.24794539E+02
 21
-5.20963898E+01
  0
ARC
  8
0
 62
4
 10
1.17794537E+02
 20
-5.61378410E+01
 40
9.50000000E+00
 50
1.16525352E+02
 51
1.53474648E+02
  0
ARC
  8
0
 62
4
 10
1.17794537E+02
 20
-5.61378410E+01
 40
9.50000000E+00
 50
2.06525352E+02
 51
2.43474648E+02
  0
ARC
  8
0
 62
4
 10
1.17794537E+02
 20
-5.61378410E+01
 40
9.50000000E+00
 50
2.96525352E+02
 51
3.33474648E+02
  0
ARC
  8
0
 62
4
 10
1.17794537E+02
 20
-5.61378410E+01
 40
9.50000000E+00
 50
2.65253520E+01
 51
6.34746480E+01
  0
LINE
  8
0
 62
2
 10
5.49545373E+01
 20
-6.46378410E+01
 11
6.47694919E+01
 21
-4.76378410E+01
  0
LINE
  8
0
 62
7
 10
6.47694919E+01
 20
-4.76378410E+01
 11
7.78045373E+01
 21
-4.76378410E+01
  0
LINE
  8
0
 62
7
 10
5.49545373E+01
 20
-6.46378410E+01
 11
7.78045373E+01
 21
-6.46378410E+01
  0
LINE
  8
0
 62
2
 10
6.08464225E+01
 20
-2.51378410E+01
 11
7.06613771E+01
 21
-8.13784095E+00
  0
LINE
  8
0
 62
7
 10
7.06613771E+01
 20
-8.13784095E+00
 11
8.77943298E+01
 21
-8.13784095E+00
  0
LINE
  8
0
 62
7
 10
6.08464225E+01
 20
-2.51378410E+01
 11
8.77943298E+01
 21
-2.51378410E+01
  0
TEXT
  8
0
 62
7
 10
5.61500060E+01
 20
-8.84000031E+01
 40
3.20000005E+00
  1
160
 41
1.00000000E+00
  7
MONOTXT
  0
TEXT
  8
0
 62
7
 10
4.65500060E+01
 20
-8.84000031E+01
 40
3.20000005E+00
  1
135
 41
1.00000000E+00
  7
MONOTXT
  0
TEXT
  8
0
 62
7
 10
3.69500060E+01
 20
-8.84000031E+01
 40
3.20000005E+00
  1
110
 41
1.00000000E+00
  7
MONOTXT
  0
TEXT
  8
0
 62
7
 10
2.89500061E+01
 20
-8.84000031E+01
 40
3.20000005E+00
  1
85
 41
1.00000000E+00
  7
MONOTXT
  0
TEXT
  8
0
 62
7
 10
1.93500061E+01
 20
-8.84000031E+01
 40
3.20000005E+00
  1
60
 41
1.00000000E+00
  7
MONOTXT
  0
TEXT
  8
0
 62
7
 10
9.75000609E+00
 20
-8.84000031E+01
 40
3.20000005E+00
  1
35
 41
1.00000000E+00
  7
MONOTXT
  0
TEXT
  8
0
 62
7
 10
1.50006081E-01
 20
-8.84000031E+01
 40
3.20000005E+00
  1
20
 41
1.00000000E+00
  7
MONOTXT
  0
TEXT
  8
0
 62
7
 10
-9.44999392E+00
 20
-8.84000031E+01
 40
3.20000005E+00
  1
15
 41
1.00000000E+00
  7
MONOTXT
  0
TEXT
  8
0
 62
7
 10
-1.90499939E+01
 20
-8.84000031E+01
 40
3.20000005E+00
  1
10
 41
1.00000000E+00
  7
MONOTXT
  0
TEXT
  8
0
 62
7
 10
-2.70499939E+01
 20
-8.84000031E+01
 40
3.20000005E+00
  1
5
 41
1.00000000E+00
  7
MONOTXT
  0
TEXT
  8
0
 62
7
 10
-3.66499939E+01
 20
-8.84000031E+01
 40
3.20000005E+00
  1
0
 41
1.00000000E+00
  7
MONOTXT
  0
TEXT
  8
0
 62
7
 10
-4.78499939E+01
 20
-8.84000031E+01
 40
3.20000005E+00
  1
-5
 41
1.00000000E+00
  7
MONOTXT
  0
TEXT
  8
0
 62
7
 10
-5.90499940E+01
 20
-8.84000031E+01
 40
3.20000005E+00
  1
-10
 41
1.00000000E+00
  7
MONOTXT
  0
TEXT
  8
0
 62
7
 10
-6.86499940E+01
 20
-8.84000031E+01
 40
3.20000005E+00
  1
-15
 41
1.00000000E+00
  7
MONOTXT
  0
TEXT
  8
0
 62
7
 10
-7.82499940E+01
 20
-8.84000031E+01
 40
3.20000005E+00
  1
-20
 41
1.00000000E+00
  7
MONOTXT
  0
TEXT
  8
0
 62
7
 10
-8.78499940E+01
 20
-8.84000031E+01
 40
3.20000005E+00
  1
-25
 41
1.00000000E+00
  7
MONOTXT
  0
TEXT
  8
0
 62
7
 10
-9.74499940E+01
 20
-8.84000031E+01
 40
3.20000005E+00
  1
-30
 41
1.00000000E+00
  7
MONOTXT
  0
TEXT
  8
0
 62
7
 10
-1.07049994E+02
 20
-8.84000031E+01
 40
3.20000005E+00
  1
-35
 41
1.00000000E+00
  7
MONOTXT
  0
LINE
  8
0
 62
7
 10
1.74000061E+01
 20
-8.98000031E+01
 11
1.74000061E+01
 21
-7.78000031E+01
  0
LINE
  8
0
 62
7
 10
2.70000061E+01
 20
-8.98000031E+01
 11
2.70000061E+01
 21
-7.78000031E+01
  0
LINE
  8
0
 62
7
 10
3.66000061E+01
 20
-8.98000031E+01
 11
3.66000061E+01
 21
-7.78000031E+01
  0
LINE
  8
0
 62
7
 10
4.62000061E+01
 20
-8.98000031E+01
 11
4.62000061E+01
 21
-7.78000031E+01
  0
LINE
  8
0
 62
7
 10
5.58000061E+01
 20
-8.98000031E+01
 11
5.58000061E+01
 21
-7.78000031E+01
  0
LINE
  8
0
 62
7
 10
6.54000061E+01
 20
-8.98000031E+01
 11
6.54000061E+01
 21
-7.78000031E+01
  0
TEXT
  8
0
 62
7
 10
5.61500060E+01
 20
-8.24000031E+01
 40
3.20000005E+00
  1
200
 41
1.00000000E+00
  7
MONOTXT
  0
TEXT
  8
0
 62
7
 10
4.65500060E+01
 20
-8.24000031E+01
 40
3.20000005E+00
  1
175
 41
1.00000000E+00
  7
MONOTXT
  0
TEXT
  8
0
 62
7
 10
3.69500060E+01
 20
-8.24000031E+01
 40
3.20000005E+00
  1
150
 41
1.00000000E+00
  7
MONOTXT
  0
TEXT
  8
0
 62
7
 10
2.73500060E+01
 20
-8.24000031E+01
 40
3.20000005E+00
  1
125
 41
1.00000000E+00
  7
MONOTXT
  0
TEXT
  8
0
 62
7
 10
1.77500060E+01
 20
-8.24000031E+01
 40
3.20000005E+00
  1
100
 41
1.00000000E+00
  7
MONOTXT
  0
TEXT
  8
0
 62
7
 10
9.75000609E+00
 20
-8.24000031E+01
 40
3.20000005E+00
  1
75
 41
1.00000000E+00
  7
MONOTXT
  0
TEXT
  8
0
 62
7
 10
-1.29649994E+02
 20
-8.24000031E+01
 40
3.20000005E+00
  1
STROKE
 41
1.00000000E+00
  7
MONOTXT
  0
TEXT
  8
0
 62
7
 10
-1.31249994E+02
 20
-8.84000031E+01
 40
3.20000005E+00
  1
STRETCH
 41
1.00000000E+00
  7
MONOTXT
  0
TEXT
  8
0
 62
7
 10
5.52932279E+01
 20
-7.59181426E+01
 40
3.20000005E+00
  1
(mm)
 41
1.00000000E+00
  7
MONOTXT
  0
TEXT
  8
0
 10
3.33191432E+00
 20
5.05660473E+01
 40
3.20000005E+00
  1
STRETCH LINE
 41
1.05263158E+00
  7
MONOTXT
  0
TEXT
  8
0
 62
7
 10
-5.04034098E+01
 20
-7.59181426E+01
 40
3.20000005E+00
  1
STRETCH LIST
 41
1.05263158E+00
  7
MONOTXT
  0
TEXT
  8
0
 62
7
 10
1.50006081E-01
 20
-8.24000031E+01
 40
3.20000005E+00
  1
60
 41
1.00000000E+00
  7
MONOTXT
  0
LINE
  8
0
 62
7
 10
7.80000610E+00
 20
-8.98000031E+01
 11
7.80000610E+00
 21
-7.78000031E+01
  0
TEXT
  8
0
 62
7
 10
-9.44999392E+00
 20
-8.24000031E+01
 40
3.20000005E+00
  1
55
 41
1.00000000E+00
  7
MONOTXT
  0
LINE
  8
0
 62
7
 10
-1.79999390E+00
 20
-8.98000031E+01
 11
-1.79999390E+00
 21
-7.78000031E+01
  0
TEXT
  8
0
 62
7
 10
-1.90499939E+01
 20
-8.24000031E+01
 40
3.20000005E+00
  1
50
 41
1.00000000E+00
  7
MONOTXT
  0
LINE
  8
0
 62
7
 10
-1.13999939E+01
 20
-8.98000031E+01
 11
-1.13999939E+01
 21
-7.78000031E+01
  0
TEXT
  8
0
 62
7
 10
-2.86499939E+01
 20
-8.24000031E+01
 40
3.20000005E+00
  1
45
 41
1.00000000E+00
  7
MONOTXT
  0
LINE
  8
0
 62
7
 10
-2.09999939E+01
 20
-8.98000031E+01
 11
-2.09999939E+01
 21
-7.78000031E+01
  0
TEXT
  8
0
 62
7
 10
-3.82499939E+01
 20
-8.24000031E+01
 40
3.20000005E+00
  1
40
 41
1.00000000E+00
  7
MONOTXT
  0
LINE
  8
0
 62
7
 10
-3.05999939E+01
 20
-8.98000031E+01
 11
-3.05999939E+01
 21
-7.78000031E+01
  0
TEXT
  8
0
 62
7
 10
-4.78499939E+01
 20
-8.24000031E+01
 40
3.20000005E+00
  1
35
 41
1.00000000E+00
  7
MONOTXT
  0
LINE
  8
0
 62
7
 10
-4.01999939E+01
 20
-8.98000031E+01
 11
-4.01999939E+01
 21
-7.78000031E+01
  0
TEXT
  8
0
 62
7
 10
-5.74499939E+01
 20
-8.24000031E+01
 40
3.20000005E+00
  1
30
 41
1.00000000E+00
  7
MONOTXT
  0
LINE
  8
0
 62
7
 10
-4.97999939E+01
 20
-8.98000031E+01
 11
-4.97999939E+01
 21
-7.78000031E+01
  0
TEXT
  8
0
 62
7
 10
-6.70499939E+01
 20
-8.24000031E+01
 40
3.20000005E+00
  1
25
 41
1.00000000E+00
  7
MONOTXT
  0
LINE
  8
0
 62
7
 10
-5.93999939E+01
 20
-8.98000031E+01
 11
-5.93999939E+01
 21
-7.78000031E+01
  0
TEXT
  8
0
 62
7
 10
-7.66499939E+01
 20
-8.24000031E+01
 40
3.20000005E+00
  1
20
 41
1.00000000E+00
  7
MONOTXT
  0
LINE
  8
0
 62
7
 10
-6.89999939E+01
 20
-8.98000031E+01
 11
-6.89999939E+01
 21
-7.78000031E+01
  0
TEXT
  8
0
 62
7
 10
-8.62499939E+01
 20
-8.24000031E+01
 40
3.20000005E+00
  1
15
 41
1.00000000E+00
  7
MONOTXT
  0
LINE
  8
0
 62
7
 10
-7.85999939E+01
 20
-8.98000031E+01
 11
-7.85999939E+01
 21
-7.78000031E+01
  0
TEXT
  8
0
 62
7
 10
-9.58499939E+01
 20
-8.24000031E+01
 40
3.20000005E+00
  1
10
 41
1.00000000E+00
  7
MONOTXT
  0
LINE
  8
0
 62
7
 10
-8.81999939E+01
 20
-8.98000031E+01
 11
-8.81999939E+01
 21
-7.78000031E+01
  0
TEXT
  8
0
 62
7
 10
-1.03849994E+02
 20
-8.24000031E+01
 40
3.20000005E+00
  1
5
 41
1.00000000E+00
  7
MONOTXT
  0
LINE
  8
0
 62
7
 10
-1.33399994E+02
 20
-7.78000031E+01
 11
6.54000061E+01
 21
-7.78000031E+01
  0
LINE
  8
0
 62
7
 10
-9.77999939E+01
 20
-8.98000031E+01
 11
-9.77999939E+01
 21
-7.78000031E+01
  0
LINE
  8
0
 62
7
 10
-1.07399994E+02
 20
-8.98000031E+01
 11
-1.07399994E+02
 21
-7.78000031E+01
  0
LINE
  8
0
 62
7
 10
-1.33399994E+02
 20
-8.38000031E+01
 11
6.54000061E+01
 21
-8.38000031E+01
  0
LINE
  8
0
 62
7
 10
-1.33399994E+02
 20
-8.98000031E+01
 11
-1.33399994E+02
 21
-7.78000031E+01
  0
LINE
  8
0
 62
7
 10
-1.33399994E+02
 20
-8.98000031E+01
 11
6.54000061E+01
 21
-8.98000031E+01
  0
LINE
  8
0
 62
7
 10
-1.38399994E+02
 20
9.45000000E+01
 11
1.38350006E+02
 21
9.45000000E+01
  0
LINE
  8
0
 62
7
 10
1.38350006E+02
 20
9.45000000E+01
 11
1.38350006E+02
 21
-9.48000031E+01
  0
LINE
  8
0
 62
7
 10
-1.38399994E+02
 20
-9.48000031E+01
 11
1.38350006E+02
 21
-9.48000031E+01
  0
LINE
  8
0
 62
7
 10
-1.38399994E+02
 20
9.45000000E+01
 11
-1.38399994E+02
 21
-9.48000031E+01
  0
LINE
  8
0
 62
7
 10
7.33500061E+01
 20
-8.48000031E+01
 11
1.38350006E+02
 21
-8.48000031E+01
  0
LINE
  8
0
 62
7
 10
-1.38399994E+02
 20
8.45000000E+01
 11
-7.33999939E+01
 21
8.45000000E+01
  0
LINE
  8
0
 62
7
 10
7.33500061E+01
 20
8.45000000E+01
 11
1.38350006E+02
 21
8.45000000E+01
  0
LINE
  8
0
 62
7
 10
7.33500061E+01
 20
-8.48000031E+01
 11
7.33500061E+01
 21
-9.48000031E+01
  0
LINE
  8
0
 62
7
 10
7.33500061E+01
 20
9.45000000E+01
 11
7.33500061E+01
 21
8.45000000E+01
  0
LINE
  8
0
 62
7
 10
-7.33999939E+01
 20
9.45000000E+01
 11
-7.33999939E+01
 21
8.45000000E+01
  0
TEXT
  8
0
 62
7
 10
7.72426624E+01
 20
-9.20500031E+01
 40
4.50000000E+00
  1
KOGANEI CORP.
 41
1.04838710E+00
  7
MONOTXT
  0
TEXT
  8
0
 62
7
 10
9.35071483E+01
 20
8.79000000E+01
 40
3.20000005E+00
  1
Ver. 1.1
 41
1.08108108E+00
  7
MONOTXT
  0
TEXT
  8
0
 62
7
 10
-1.31042852E+02
 20
8.79000000E+01
 40
3.20000005E+00
  1
NEW PEN CYLINDER
 41
1.08108108E+00
  7
MONOTXT
  0
TEXT
  8
0
 62
7
 10
-1.29085994E+02
 20
7.29000000E+01
 40
3.20000005E+00
  1
MODEL:PBDAS16*ST(40)-ZC230
 41
1.00000000E+00
  7
MONOTXT
  0
ENDSEC
  0
EOF
