  0
SECTION
  2
HEADER
  9
$ACADVER
  1
AC1003
  9
$EXTMIN
 10
-1.38399994E+02
 20
-9.48000031E+01
  9
$EXTMAX
 10
1.38350006E+02
 20
9.45000000E+01
  9
$LIMMIN
 10
-1.38400994E+02
 20
-9.48010031E+01
  9
$LIMMAX
 10
1.38351006E+02
 20
9.45010000E+01
  9
$SNAPUNIT
 10
1
 20
1
  9
$SNAPBASE
 10
0
 20
0
  9
$GRIDMODE
 70
0
  9
$GRIDUNIT
 10
0
 20
0
  9
$LTSCALE
 40
4.61250000E+00
  9
$TEXTSIZE
 40
3.2
  9
$DIMTAD
 70
0
  9
$LUNITS
 70
2
  9
$LUPREC
 70
4
  9
$FILLETRAD
 40
0
  9
$AUNITS
 70
0
  9
$AUPREC
 70
0
  0
ENDSEC
  0
SECTION
  2
TABLES
  0
TABLE
  2
LTYPE
 70
2
  0
LTYPE
  2
CONTINUOUS
 70
64
  3
Solid-Line
 72
65
 73
0
 40
0
  0
LTYPE
  2
DASHED
 70
64
  3
DASHED
 72
65
 73
2
 40
.75
 49
.5
 49
-.25
  0
LTYPE
  2
HIDDEN
 70
64
  3
HIDDEN
 72
65
 73
2
 40
.375
 49
.25
 49
-.125
  0
LTYPE
  2
CENTER
 70
64
  3
CENTER
 72
65
 73
4
 40
2
 49
1.25
 49
-.25
 49
.25
 49
-.25
  0
LTYPE
  2
PHANTOM
 70
64
  3
PHANTOM
 72
65
 73
6
 40
2.5
 49
1.25
 49
-.25
 49
.25
 49
-.25
 49
.25
 49
-.25
  0
ENDTAB
  0
TABLE
  2
LAYER
 70
1
  0
LAYER
  2
1
 70
0
 62
7
  6
CONTINUOUS
 0
ENDTAB
  0
TABLE
  2
STYLE
 70
2
  0
STYLE
  2
MONOTXT
 70
0
 40
0
 41
1
 50
0
 71
0
 42
.2
  3
monotxt
  0
STYLE
  2
BIGFONT
 70
0
 40
0
 41
1
 50
0
 71
0
 42
.2
  3
txt
  4
bigfont
  0
ENDTAB
  0
ENDSEC
  0
SECTION
  2
ENTITIES
  0
LINE
  8
0
  6
CENTER
 62
6
 10
-4.47695612E+00
 20
4.90754864E+01
 11
-4.47695612E+00
 21
1.60308273E+01
  0
LINE
  8
0
 62
4
 10
-2.97695612E+00
 20
4.47654864E+01
 11
-2.97695612E+00
 21
4.37654864E+01
  0
LINE
  8
0
 62
4
 10
-5.97695612E+00
 20
4.47654864E+01
 11
-5.97695612E+00
 21
4.37654864E+01
  0
LINE
  8
0
 62
6
 10
-3.24695612E+00
 20
4.47654864E+01
 11
-3.24695612E+00
 21
4.37654864E+01
  0
LINE
  8
0
 62
6
 10
-5.70695612E+00
 20
4.47654864E+01
 11
-5.70695612E+00
 21
4.37654864E+01
  0
LINE
  8
0
  6
CENTER
 62
6
 10
3.50130439E+01
 20
4.90754864E+01
 11
3.50130439E+01
 21
1.60308273E+01
  0
LINE
  8
0
 62
4
 10
3.65130439E+01
 20
4.47654864E+01
 11
3.65130439E+01
 21
4.37654864E+01
  0
LINE
  8
0
 62
4
 10
3.35130439E+01
 20
4.47654864E+01
 11
3.35130439E+01
 21
4.37654864E+01
  0
LINE
  8
0
 62
6
 10
3.62430439E+01
 20
4.47654864E+01
 11
3.62430439E+01
 21
4.37654864E+01
  0
LINE
  8
0
 62
6
 10
3.37830439E+01
 20
4.47654864E+01
 11
3.37830439E+01
 21
4.37654864E+01
  0
LINE
  8
0
  6
PHANTOM
 10
1.86524248E+01
 20
1.06873752E+01
 11
1.86524248E+01
 21
4.72605546E+01
  0
ARC
  8
0
 62
7
 10
6.64993461E+01
 20
2.57704864E+01
 40
6.01657241E+00
 50
1.77122186E+00
 51
4.48740934E+01
  0
ARC
  8
0
 62
7
 10
-2.59649301E+01
 20
2.57704864E+01
 40
6.01538783E+00
 50
1.81915637E+02
 51
2.24885328E+02
  0
LINE
  8
0
 62
7
 10
2.30438790E-02
 20
1.72654864E+01
 11
3.05130439E+01
 21
1.72654864E+01
  0
LINE
  8
0
 62
7
 10
3.95130439E+01
 20
1.72654864E+01
 11
4.55130439E+01
 21
1.72654864E+01
  0
LINE
  8
0
 62
7
 10
2.52304388E+00
 20
3.42654864E+01
 11
2.80130439E+01
 21
3.42654864E+01
  0
LINE
  8
0
 62
7
 10
4.20130439E+01
 20
3.42654864E+01
 11
4.55130439E+01
 21
3.42654864E+01
  0
LINE
  8
0
 62
4
 10
4.20130439E+01
 20
3.90654864E+01
 11
4.75130439E+01
 21
3.90654864E+01
  0
LINE
  8
0
 62
4
 10
4.20130439E+01
 20
3.50654864E+01
 11
4.75130439E+01
 21
3.50654864E+01
  0
LINE
  8
0
 62
4
 10
2.80130439E+01
 20
3.68654864E+01
 11
2.80130439E+01
 21
3.37973686E+01
  0
LINE
  8
0
 62
4
 10
4.20130439E+01
 20
3.68654864E+01
 11
4.20130439E+01
 21
3.37973686E+01
  0
LINE
  8
0
 62
4
 10
3.05130439E+01
 20
3.72654864E+01
 11
3.95130439E+01
 21
3.72654864E+01
  0
LINE
  8
0
 62
4
 10
2.80130439E+01
 20
3.37973686E+01
 11
3.05130439E+01
 21
3.37973686E+01
  0
LINE
  8
0
 62
4
 10
4.20130439E+01
 20
3.37973686E+01
 11
3.95130439E+01
 21
3.37973686E+01
  0
LINE
  8
0
 62
4
 10
3.95130439E+01
 20
3.69654864E+01
 11
3.95130439E+01
 21
4.37654864E+01
  0
LINE
  8
0
 62
4
 10
3.05130439E+01
 20
3.69654864E+01
 11
3.05130439E+01
 21
4.37654864E+01
  0
LINE
  8
0
 62
4
 10
3.95130439E+01
 20
3.68654864E+01
 11
4.20130439E+01
 21
3.68654864E+01
  0
LINE
  8
0
 62
4
 10
3.95130439E+01
 20
3.72654864E+01
 11
4.20130439E+01
 21
3.72654864E+01
  0
LINE
  8
0
 62
4
 10
3.95130439E+01
 20
4.00654864E+01
 11
4.20130439E+01
 21
4.00654864E+01
  0
LINE
  8
0
 62
4
 10
2.80130439E+01
 20
3.68654864E+01
 11
3.05130439E+01
 21
3.68654864E+01
  0
LINE
  8
0
 62
4
 10
2.80130439E+01
 20
3.72654864E+01
 11
3.05130439E+01
 21
3.72654864E+01
  0
LINE
  8
0
 62
4
 10
2.80130439E+01
 20
4.00654864E+01
 11
3.05130439E+01
 21
4.00654864E+01
  0
LINE
  8
0
 62
4
 10
3.05130439E+01
 20
1.71155018E+01
 11
3.95130439E+01
 21
1.71155018E+01
  0
LINE
  8
0
 62
4
 10
4.20130439E+01
 20
4.00654864E+01
 11
4.20130439E+01
 21
3.72654864E+01
  0
LINE
  8
0
 62
4
 10
2.80130439E+01
 20
4.00654864E+01
 11
2.80130439E+01
 21
3.72654864E+01
  0
LINE
  8
0
 62
4
 10
2.25130439E+01
 20
3.80654864E+01
 11
2.35130439E+01
 21
3.90654864E+01
  0
LINE
  8
0
 62
4
 10
2.25130439E+01
 20
3.80654864E+01
 11
2.25130439E+01
 21
3.60654864E+01
  0
LINE
  8
0
 62
4
 10
3.05130439E+01
 20
4.37654864E+01
 11
3.95130439E+01
 21
4.37654864E+01
  0
LINE
  8
0
 62
4
 10
2.35130439E+01
 20
3.50654864E+01
 11
2.80130439E+01
 21
3.50654864E+01
  0
LINE
  8
0
 62
4
 10
2.35130439E+01
 20
3.90654864E+01
 11
2.80130439E+01
 21
3.90654864E+01
  0
LINE
  8
0
 62
4
 10
2.25130439E+01
 20
3.60654864E+01
 11
2.35130439E+01
 21
3.50654864E+01
  0
LINE
  8
0
 62
4
 10
2.35130439E+01
 20
3.90654864E+01
 11
2.35130439E+01
 21
3.50654864E+01
  0
LINE
  8
0
 62
4
 10
3.95130439E+01
 20
3.69654864E+01
 11
3.95130439E+01
 21
1.71155018E+01
  0
LINE
  8
0
 62
4
 10
3.05130439E+01
 20
3.69654864E+01
 11
3.05130439E+01
 21
1.71155018E+01
  0
LINE
  8
0
 62
4
 10
4.75130439E+01
 20
3.90654864E+01
 11
5.05130439E+01
 21
3.83654864E+01
  0
LINE
  8
0
 62
4
 10
4.75130439E+01
 20
3.50654864E+01
 11
5.05130439E+01
 21
3.57654864E+01
  0
LINE
  8
0
 62
4
 10
4.75130439E+01
 20
3.90654864E+01
 11
4.75130439E+01
 21
3.50654864E+01
  0
LINE
  8
0
 62
6
 10
5.54500430E+01
 20
3.83654864E+01
 11
5.28500430E+01
 21
3.57654864E+01
  0
LINE
  8
0
 62
4
 10
5.05130439E+01
 20
3.57654864E+01
 11
5.28500430E+01
 21
3.57654864E+01
  0
LINE
  8
0
 62
4
 10
5.05130439E+01
 20
3.83654864E+01
 11
5.05130439E+01
 21
3.57654864E+01
  0
LINE
  8
0
 62
4
 10
5.05130439E+01
 20
3.83654864E+01
 11
5.54500430E+01
 21
3.83654864E+01
  0
LINE
  8
0
 62
4
 10
2.52304388E+00
 20
3.90654864E+01
 11
8.02304388E+00
 21
3.90654864E+01
  0
LINE
  8
0
 62
4
 10
2.52304388E+00
 20
3.50654864E+01
 11
8.02304388E+00
 21
3.50654864E+01
  0
LINE
  8
0
 62
4
 10
-1.14769561E+01
 20
3.68654864E+01
 11
-1.14769561E+01
 21
3.37973686E+01
  0
LINE
  8
0
 62
4
 10
2.52304388E+00
 20
3.68654864E+01
 11
2.52304388E+00
 21
3.37973686E+01
  0
LINE
  8
0
 62
4
 10
-8.97695612E+00
 20
3.72654864E+01
 11
2.30438790E-02
 21
3.72654864E+01
  0
LINE
  8
0
 62
4
 10
-1.14769561E+01
 20
3.37973686E+01
 11
-8.97695610E+00
 21
3.37973686E+01
  0
LINE
  8
0
 62
4
 10
2.52304386E+00
 20
3.37973686E+01
 11
2.30438573E-02
 21
3.37973686E+01
  0
LINE
  8
0
 62
4
 10
2.30438790E-02
 20
3.69654864E+01
 11
2.30438790E-02
 21
4.37654864E+01
  0
LINE
  8
0
 62
4
 10
-8.97695612E+00
 20
3.69654864E+01
 11
-8.97695612E+00
 21
4.37654864E+01
  0
LINE
  8
0
 62
4
 10
2.30438790E-02
 20
3.68654864E+01
 11
2.52304388E+00
 21
3.68654864E+01
  0
LINE
  8
0
 62
4
 10
2.30438790E-02
 20
3.72654864E+01
 11
2.52304388E+00
 21
3.72654864E+01
  0
LINE
  8
0
 62
4
 10
2.30438790E-02
 20
4.00654864E+01
 11
2.52304388E+00
 21
4.00654864E+01
  0
LINE
  8
0
 62
4
 10
-1.14769561E+01
 20
3.68654864E+01
 11
-8.97695612E+00
 21
3.68654864E+01
  0
LINE
  8
0
 62
4
 10
-1.14769561E+01
 20
3.72654864E+01
 11
-8.97695612E+00
 21
3.72654864E+01
  0
LINE
  8
0
 62
4
 10
-1.14769561E+01
 20
4.00654864E+01
 11
-8.97695612E+00
 21
4.00654864E+01
  0
LINE
  8
0
 62
4
 10
-8.97695613E+00
 20
1.71155018E+01
 11
2.30438790E-02
 21
1.71155018E+01
  0
LINE
  8
0
 62
4
 10
2.52304388E+00
 20
4.00654864E+01
 11
2.52304388E+00
 21
3.72654864E+01
  0
LINE
  8
0
 62
4
 10
-1.14769561E+01
 20
4.00654864E+01
 11
-1.14769561E+01
 21
3.72654864E+01
  0
LINE
  8
0
 62
4
 10
-1.69769561E+01
 20
3.80654864E+01
 11
-1.59769561E+01
 21
3.90654864E+01
  0
LINE
  8
0
 62
4
 10
-1.69769561E+01
 20
3.80654864E+01
 11
-1.69769561E+01
 21
3.60654864E+01
  0
LINE
  8
0
 62
4
 10
-8.97695612E+00
 20
4.37654864E+01
 11
2.30438790E-02
 21
4.37654864E+01
  0
LINE
  8
0
 62
4
 10
-1.59769561E+01
 20
3.50654864E+01
 11
-1.14769561E+01
 21
3.50654864E+01
  0
LINE
  8
0
 62
4
 10
-1.59769561E+01
 20
3.90654864E+01
 11
-1.14769561E+01
 21
3.90654864E+01
  0
LINE
  8
0
 62
4
 10
-1.69769561E+01
 20
3.60654864E+01
 11
-1.59769561E+01
 21
3.50654864E+01
  0
LINE
  8
0
 62
4
 10
-1.59769561E+01
 20
3.90654864E+01
 11
-1.59769561E+01
 21
3.50654864E+01
  0
LINE
  8
0
 62
4
 10
2.30438790E-02
 20
3.69654864E+01
 11
2.30438790E-02
 21
1.71155018E+01
  0
LINE
  8
0
 62
4
 10
-8.97695612E+00
 20
3.69654864E+01
 11
-8.97695612E+00
 21
1.71155018E+01
  0
LINE
  8
0
 62
4
 10
8.02304388E+00
 20
3.90654864E+01
 11
1.10230439E+01
 21
3.83654864E+01
  0
LINE
  8
0
 62
4
 10
8.02304388E+00
 20
3.50654864E+01
 11
1.10230439E+01
 21
3.57654864E+01
  0
LINE
  8
0
 62
4
 10
8.02304388E+00
 20
3.90654864E+01
 11
8.02304388E+00
 21
3.50654864E+01
  0
LINE
  8
0
 62
6
 10
1.59600430E+01
 20
3.83654864E+01
 11
1.33600430E+01
 21
3.57654864E+01
  0
LINE
  8
0
 62
4
 10
1.10230439E+01
 20
3.57654864E+01
 11
1.33600430E+01
 21
3.57654864E+01
  0
LINE
  8
0
 62
4
 10
1.10230439E+01
 20
3.83654864E+01
 11
1.10230439E+01
 21
3.57654864E+01
  0
LINE
  8
0
 62
4
 10
1.10230439E+01
 20
3.83654864E+01
 11
1.59600430E+01
 21
3.83654864E+01
  0
LINE
  8
0
 62
7
 10
4.72630439E+01
 20
2.15251239E+01
 11
4.72630439E+01
 21
1.72751239E+01
  0
ARC
  8
0
 62
7
 10
5.15335309E+01
 20
2.57713970E+01
 40
6.02048817E+00
 50
1.35180079E+02
 51
2.24819921E+02
  0
LINE
  8
0
 62
7
 10
4.72630439E+01
 20
3.00151239E+01
 11
4.72630439E+01
 21
3.42751239E+01
  0
LINE
  8
0
 62
2
 10
-3.97889561E+01
 20
2.99534864E+01
 11
-3.34769561E+01
 21
2.99534864E+01
  0
LINE
  8
0
 62
2
 10
-3.97889561E+01
 20
2.15774864E+01
 11
-3.34769561E+01
 21
2.15774864E+01
  0
LINE
  8
0
 62
2
 10
-5.20069561E+01
 20
2.78324864E+01
 11
-4.49769561E+01
 21
2.78324864E+01
  0
LINE
  8
0
 62
2
 10
-5.20069561E+01
 20
2.36984864E+01
 11
-4.49769561E+01
 21
2.36984864E+01
  0
LINE
  8
0
 62
2
 10
-5.99099561E+01
 20
2.78324864E+01
 11
-5.60069561E+01
 21
2.78324864E+01
  0
LINE
  8
0
 62
2
 10
-5.99769561E+01
 20
2.36984864E+01
 11
-5.60069561E+01
 21
2.36984864E+01
  0
LINE
  8
0
 62
7
 10
-3.99769561E+01
 20
2.97654864E+01
 11
-3.99769561E+01
 21
2.17654864E+01
  0
LINE
  8
0
 62
7
 10
-3.19769561E+01
 20
3.42654864E+01
 11
-3.19769561E+01
 21
2.07654864E+01
  0
LINE
  8
0
 62
7
 10
-3.89769561E+01
 20
2.07654864E+01
 11
-3.19769561E+01
 21
2.07654864E+01
  0
LINE
  8
0
 62
7
 10
-3.89769561E+01
 20
3.07654864E+01
 11
-3.19769561E+01
 21
3.07654864E+01
  0
LINE
  8
0
 62
7
 10
-1.99769561E+01
 20
3.42654864E+01
 11
-1.99769561E+01
 21
1.72654864E+01
  0
LINE
  8
0
 62
7
 10
-3.19769561E+01
 20
3.42654864E+01
 11
-1.99769561E+01
 21
3.42654864E+01
  0
LINE
  8
0
 62
7
 10
-3.99769561E+01
 20
2.97654864E+01
 11
-3.89769561E+01
 21
3.07654864E+01
  0
LINE
  8
0
 62
7
 10
-3.99769561E+01
 20
2.17654864E+01
 11
-3.89769561E+01
 21
2.07654864E+01
  0
LINE
  8
0
 62
7
 10
-3.19769561E+01
 20
2.07654864E+01
 11
-3.19769561E+01
 21
1.72654864E+01
  0
LINE
  8
0
  6
CENTER
 62
2
 10
-2.49769561E+01
 20
3.64153498E+01
 11
-2.49769561E+01
 21
3.00154864E+01
  0
LINE
  8
0
  6
CENTER
 62
2
 10
-6.19486629E+01
 20
2.57654864E+01
 11
7.40330439E+01
 21
2.57654864E+01
  0
LINE
  8
0
 62
7
 10
-3.19769561E+01
 20
1.72654864E+01
 11
-1.99769561E+01
 21
1.72654864E+01
  0
LINE
  8
0
 62
7
 10
-3.34769561E+01
 20
3.07654864E+01
 11
-3.34769561E+01
 21
2.07654864E+01
  0
LINE
  8
0
 62
7
 10
-1.99769561E+01
 20
3.42654864E+01
 11
-1.14769561E+01
 21
3.42654864E+01
  0
LINE
  8
0
 62
7
 10
-1.99769561E+01
 20
1.72654864E+01
 11
-8.97695612E+00
 21
1.72654864E+01
  0
LINE
  8
0
 62
7
 10
-3.89769561E+01
 20
3.07654864E+01
 11
-3.89769561E+01
 21
2.07654864E+01
  0
LINE
  8
0
 62
7
 10
-3.02269561E+01
 20
3.00154864E+01
 11
-2.17269561E+01
 21
3.00154864E+01
  0
LINE
  8
0
 62
7
 10
-3.02269561E+01
 20
2.15254864E+01
 11
-2.17269561E+01
 21
2.15254864E+01
  0
LINE
  8
0
 62
7
 10
-5.94769561E+01
 20
2.82654864E+01
 11
-5.60069561E+01
 21
2.82654864E+01
  0
LINE
  8
0
 62
7
 10
-5.94769561E+01
 20
2.32654864E+01
 11
-5.60069561E+01
 21
2.32654864E+01
  0
LINE
  8
0
 62
7
 10
-5.99769561E+01
 20
2.77654864E+01
 11
-5.99769561E+01
 21
2.37654864E+01
  0
LINE
  8
0
 62
7
 10
-4.49769561E+01
 20
2.82654864E+01
 11
-4.49769561E+01
 21
2.32654864E+01
  0
LINE
  8
0
 62
7
 10
-5.99769561E+01
 20
2.77654864E+01
 11
-5.94769561E+01
 21
2.82654864E+01
  0
LINE
  8
0
 62
7
 10
-5.99769561E+01
 20
2.37654864E+01
 11
-5.94769561E+01
 21
2.32654864E+01
  0
LINE
  8
0
 62
7
 10
-5.94769561E+01
 20
2.82654864E+01
 11
-5.94769561E+01
 21
2.32654864E+01
  0
LINE
  8
0
 62
4
 10
-5.60069561E+01
 20
2.91554864E+01
 11
-5.60069561E+01
 21
2.23854864E+01
  0
LINE
  8
0
 62
4
 10
-5.20069561E+01
 20
2.91554864E+01
 11
-5.20069561E+01
 21
2.23854864E+01
  0
LINE
  8
0
 62
4
 10
-5.55069561E+01
 20
2.12654864E+01
 11
-5.25069561E+01
 21
2.12654864E+01
  0
LINE
  8
0
 62
4
 10
-5.55069561E+01
 20
3.02654864E+01
 11
-5.25069561E+01
 21
3.02654864E+01
  0
LINE
  8
0
 62
7
 10
-5.20069561E+01
 20
2.32654864E+01
 11
-3.99769561E+01
 21
2.32654864E+01
  0
LINE
  8
0
 62
7
 10
-5.20069561E+01
 20
2.82654864E+01
 11
-3.99769561E+01
 21
2.82654864E+01
  0
LINE
  8
0
 62
4
 10
-5.55069561E+01
 20
2.80454864E+01
 11
-5.25069561E+01
 21
2.80454864E+01
  0
LINE
  8
0
 62
4
 10
-5.55069561E+01
 20
2.34954864E+01
 11
-5.25069561E+01
 21
2.34954864E+01
  0
LINE
  8
0
 62
7
 10
7.25130439E+01
 20
3.42654864E+01
 11
7.25130439E+01
 21
1.72654864E+01
  0
LINE
  8
0
  6
CENTER
 62
2
 10
5.00130439E+01
 20
3.73733427E+01
 11
5.00130439E+01
 21
2.99831122E+01
  0
LINE
  8
0
  6
CENTER
 62
2
 10
6.45130439E+01
 20
3.00154864E+01
 11
6.45130439E+01
 21
2.15254864E+01
  0
LINE
  8
0
 62
7
 10
4.55130439E+01
 20
3.42654864E+01
 11
4.55130439E+01
 21
1.72654864E+01
  0
LINE
  8
0
 62
7
 10
4.55130439E+01
 20
1.72654864E+01
 11
7.25130439E+01
 21
1.72654864E+01
  0
LINE
  8
0
 62
7
 10
4.72630439E+01
 20
2.15254864E+01
 11
7.07630439E+01
 21
2.15254864E+01
  0
LINE
  8
0
 62
7
 10
4.72630439E+01
 20
3.00154864E+01
 11
7.07630439E+01
 21
3.00154864E+01
  0
LINE
  8
0
 62
7
 10
4.55130439E+01
 20
3.42654864E+01
 11
7.25130439E+01
 21
3.42654864E+01
  0
LINE
  8
0
 62
7
 10
7.07630439E+01
 20
3.42654864E+01
 11
7.07630439E+01
 21
3.00154864E+01
  0
LINE
  8
0
 62
7
 10
7.07630439E+01
 20
2.15254864E+01
 11
7.07630439E+01
 21
1.72654864E+01
  0
LINE
  8
0
 62
7
 10
-3.02269561E+01
 20
3.42654864E+01
 11
-3.02269561E+01
 21
3.00154864E+01
  0
LINE
  8
0
 62
7
 10
-2.17269561E+01
 20
3.42654864E+01
 11
-2.17269561E+01
 21
3.00154864E+01
  0
LINE
  8
0
 62
7
 10
-3.02269561E+01
 20
2.15254864E+01
 11
-3.02269561E+01
 21
1.72654864E+01
  0
LINE
  8
0
 62
7
 10
-2.17269561E+01
 20
2.15254864E+01
 11
-2.17269561E+01
 21
1.72654864E+01
  0
ARC
  8
0
 62
4
 10
-5.06036674E+01
 20
2.57753792E+01
 40
5.40329773E+00
 50
1.55156975E+02
 51
1.80104902E+02
  0
ARC
  8
0
 62
4
 10
-5.06057637E+01
 20
2.57651103E+01
 40
5.40119241E+00
 50
1.79996010E+02
 51
2.04847715E+02
  0
ARC
  8
0
 62
4
 10
-5.45222626E+01
 20
2.23843181E+01
 40
1.48469402E+00
 50
1.31546676E+02
 51
1.79954915E+02
  0
ARC
  8
0
 62
4
 10
-5.45228763E+01
 20
2.23764149E+01
 40
1.48410757E+00
 50
1.79649782E+02
 51
2.28464917E+02
  0
ARC
  8
0
 62
4
 10
-5.45260097E+01
 20
2.91549668E+01
 40
1.48094647E+00
 50
1.79979895E+02
 51
2.28518513E+02
  0
ARC
  8
0
 62
4
 10
-5.45228515E+01
 20
2.91545834E+01
 40
1.48410487E+00
 50
1.31536451E+02
 51
1.79965140E+02
  0
ARC
  8
0
 62
4
 10
-5.74271966E+01
 20
2.57716617E+01
 40
5.42024398E+00
 50
3.59934723E+02
 51
2.48034007E+01
  0
ARC
  8
0
 62
4
 10
-5.35026960E+01
 20
2.91616305E+01
 40
1.49575246E+00
 50
3.11736944E+02
 51
3.59764647E+02
  0
ARC
  8
0
 62
4
 10
-5.74251000E+01
 20
2.57688441E+01
 40
5.41814492E+00
 50
3.35191781E+02
 51
3.59964493E+02
  0
ARC
  8
0
 62
4
 10
-5.35064061E+01
 20
2.23776711E+01
 40
1.49947035E+00
 50
2.98629638E-01
 51
4.81997792E+01
  0
ARC
  8
0
 62
4
 10
-5.35058426E+01
 20
2.23830250E+01
 40
1.49888853E+00
 50
3.11791214E+02
 51
9.40875246E-02
  0
ARC
  8
0
 62
4
 10
-5.35058229E+01
 20
2.91479338E+01
 40
1.49888586E+00
 50
2.88704672E-01
 51
4.82097042E+01
  0
CIRCLE
  8
0
 62
7
 10
6.45172004E+01
 20
2.57654860E+01
 40
2.50000000E+00
  0
ARC
  8
0
 62
7
 10
6.64993461E+01
 20
2.57704864E+01
 40
6.01657241E+00
 50
3.15125907E+02
 51
3.58228778E+02
  0
ARC
  8
0
 62
7
 10
-2.59649301E+01
 20
2.57704864E+01
 40
6.01538783E+00
 50
1.35114672E+02
 51
1.78084364E+02
  0
ARC
  8
0
 62
7
 10
-2.60006386E+01
 20
2.57704864E+01
 40
6.02365231E+00
 50
3.15192915E+02
 51
4.48070852E+01
  0
ARC
  8
0
 62
4
 10
-2.97862178E+00
 20
4.52638208E+01
 40
1.00166704E+00
 50
9.52762946E-02
 51
8.99047236E+01
  0
ARC
  8
0
 62
4
 10
-5.97616463E+00
 20
4.52646949E+01
 40
1.00079180E+00
 50
9.00000002E+01
 51
1.79954687E+02
  0
LINE
  8
0
 62
4
 10
-5.97695612E+00
 20
4.62654864E+01
 11
-2.97695612E+00
 21
4.62654864E+01
  0
LINE
  8
0
 62
4
 10
-6.97695612E+00
 20
4.47654864E+01
 11
-1.97695612E+00
 21
4.47654864E+01
  0
LINE
  8
0
 62
4
 10
-1.97695612E+00
 20
4.52654864E+01
 11
-1.97695612E+00
 21
4.47654864E+01
  0
LINE
  8
0
 62
4
 10
-6.97695612E+00
 20
4.52654864E+01
 11
-6.97695612E+00
 21
4.47654864E+01
  0
ARC
  8
0
 62
4
 10
3.65113782E+01
 20
4.52638208E+01
 40
1.00166704E+00
 50
9.52762946E-02
 51
8.99047236E+01
  0
ARC
  8
0
 62
4
 10
3.35138354E+01
 20
4.52646949E+01
 40
1.00079180E+00
 50
9.00000002E+01
 51
1.79954687E+02
  0
LINE
  8
0
 62
4
 10
3.35130439E+01
 20
4.62654864E+01
 11
3.65130439E+01
 21
4.62654864E+01
  0
LINE
  8
0
 62
4
 10
3.25130439E+01
 20
4.47654864E+01
 11
3.75130439E+01
 21
4.47654864E+01
  0
LINE
  8
0
 62
4
 10
3.75130439E+01
 20
4.52654864E+01
 11
3.75130439E+01
 21
4.47654864E+01
  0
LINE
  8
0
 62
4
 10
3.25130439E+01
 20
4.52654864E+01
 11
3.25130439E+01
 21
4.47654864E+01
  0
TEXT
  8
0
 62
7
 10
9.37106379E-01
 20
1.83655018E+01
 40
1.50000000E+00
  1
PBDAS-7
 41
1.00000000E+00
  7
MONOTXT
  0
LINE
  8
0
  6
CENTER
 62
2
 10
-9.08369561E+01
 20
4.80878602E+01
 11
-9.08369561E+01
 21
1.40776634E+01
  0
LINE
  8
0
 62
4
 10
-8.97869561E+01
 20
3.80654864E+01
 11
-8.87869561E+01
 21
3.90654864E+01
  0
LINE
  8
0
 62
4
 10
-8.87869561E+01
 20
3.50654864E+01
 11
-8.97869561E+01
 21
3.60654864E+01
  0
LINE
  8
0
 62
4
 10
-9.28869561E+01
 20
3.50654864E+01
 11
-9.18869561E+01
 21
3.60654864E+01
  0
LINE
  8
0
 62
4
 10
-9.28869561E+01
 20
3.90654864E+01
 11
-9.18869561E+01
 21
3.80654864E+01
  0
LINE
  8
0
 62
4
 10
-8.97869561E+01
 20
3.60654864E+01
 11
-9.18869561E+01
 21
3.60654864E+01
  0
LINE
  8
0
 62
4
 10
-8.97869561E+01
 20
3.80654864E+01
 11
-8.97869561E+01
 21
3.60654864E+01
  0
LINE
  8
0
 62
4
 10
-8.97869561E+01
 20
3.80654864E+01
 11
-9.18869561E+01
 21
3.80654864E+01
  0
LINE
  8
0
 62
4
 10
-9.18869561E+01
 20
3.80654864E+01
 11
-9.18869561E+01
 21
3.60654864E+01
  0
CIRCLE
  8
0
 62
7
 10
-9.08369561E+01
 20
2.57654864E+01
 40
8.50000000E+00
  0
ARC
  8
0
 62
4
 10
-9.08369561E+01
 20
2.57654864E+01
 40
8.65000000E+00
 50
1.69314255E+02
 51
1.90685745E+02
  0
ARC
  8
0
 62
4
 10
-9.08369561E+01
 20
2.57654864E+01
 40
8.65000000E+00
 50
2.59314255E+02
 51
2.80685745E+02
  0
LINE
  8
0
 62
4
 10
-8.93369561E+01
 20
4.10654864E+01
 11
-8.96369561E+01
 21
4.07654864E+01
  0
LINE
  8
0
 62
4
 10
-9.23369561E+01
 20
4.10654864E+01
 11
-9.20369561E+01
 21
4.07654864E+01
  0
LINE
  8
0
 62
4
 10
-8.98369561E+01
 20
3.47654864E+01
 11
-9.18369561E+01
 21
3.47654864E+01
  0
LINE
  8
0
 62
4
 10
-9.77433477E+01
 20
3.24850478E+01
 11
-9.82186876E+01
 21
3.26401348E+01
  0
LINE
  8
0
 62
4
 10
-9.65026519E+01
 20
3.62877671E+01
 11
-9.63600499E+01
 21
3.62412410E+01
  0
LINE
  8
0
 62
4
 10
-9.57619561E+01
 20
4.01699905E+01
 11
-9.82186876E+01
 21
3.26401348E+01
  0
LINE
  8
0
 62
4
 10
-9.63600646E+01
 20
3.62411962E+01
 11
-9.76010098E+01
 21
3.24377124E+01
  0
LINE
  8
0
 62
4
 10
-9.52619561E+01
 20
4.00904864E+01
 11
-9.78410164E+01
 21
3.21856943E+01
  0
LINE
  8
0
 62
4
 10
-8.73369561E+01
 20
3.72654864E+01
 11
-8.51919423E+01
 21
3.34105056E+01
  0
LINE
  8
0
 62
4
 10
-8.74869561E+01
 20
3.72654864E+01
 11
-8.54582190E+01
 21
3.36001330E+01
  0
ARC
  8
0
 62
4
 10
-9.08369561E+01
 20
2.57654864E+01
 40
8.65000000E+00
 50
3.49314255E+02
 51
1.06857449E+01
  0
LINE
  8
0
 62
4
 10
-8.73369561E+01
 20
4.37654864E+01
 11
-9.43369561E+01
 21
4.37654864E+01
  0
LINE
  8
0
 62
4
 10
-9.43369561E+01
 20
4.24654864E+01
 11
-9.43369561E+01
 21
3.65654864E+01
  0
LINE
  8
0
 62
4
 10
-8.73369561E+01
 20
4.24654864E+01
 11
-8.73369561E+01
 21
3.72654864E+01
  0
LINE
  8
0
 62
4
 10
-9.51369561E+01
 20
3.87632642E+01
 11
-9.56064744E+01
 21
3.90345414E+01
  0
LINE
  8
0
 62
4
 10
-9.58369561E+01
 20
4.20654864E+01
 11
-9.58369561E+01
 21
4.03804864E+01
  0
LINE
  8
0
 62
4
 10
-9.58369561E+01
 20
4.20654864E+01
 11
-9.66369561E+01
 21
4.20654864E+01
  0
LINE
  8
0
 62
4
 10
-9.31219561E+01
 20
4.29654864E+01
 11
-9.29819561E+01
 21
4.21654864E+01
  0
LINE
  8
0
 62
4
 10
-8.85519561E+01
 20
4.29654864E+01
 11
-8.86919561E+01
 21
4.21654864E+01
  0
LINE
  8
0
 62
4
 10
-8.86919561E+01
 20
4.21654864E+01
 11
-9.29819561E+01
 21
4.21654864E+01
  0
LINE
  8
0
 62
6
 10
-9.20669561E+01
 20
4.42654864E+01
 11
-9.20669561E+01
 21
4.37654864E+01
  0
LINE
  8
0
 62
6
 10
-8.96069561E+01
 20
4.42654864E+01
 11
-8.96069561E+01
 21
4.37654864E+01
  0
LINE
  8
0
 62
4
 10
-8.65369561E+01
 20
4.29654864E+01
 11
-8.65369561E+01
 21
3.72654864E+01
  0
LINE
  8
0
 62
4
 10
-9.51369561E+01
 20
3.65654864E+01
 11
-9.51369561E+01
 21
4.29654864E+01
  0
LINE
  8
0
 62
4
 10
-8.78369561E+01
 20
4.29654864E+01
 11
-9.38369561E+01
 21
4.29654864E+01
  0
LINE
  8
0
 62
4
 10
-9.66369561E+01
 20
4.20654864E+01
 11
-9.66369561E+01
 21
3.99204864E+01
  0
LINE
  8
0
 62
4
 10
-9.51369561E+01
 20
3.96894864E+01
 11
-9.53510609E+01
 21
3.98136672E+01
  0
LINE
  8
0
 62
4
 10
-8.74869561E+01
 20
4.24654864E+01
 11
-8.74869561E+01
 21
3.72654864E+01
  0
LINE
  8
0
 62
4
 10
-8.73369561E+01
 20
4.24654864E+01
 11
-8.74869561E+01
 21
4.24654864E+01
  0
LINE
  8
0
 62
4
 10
-8.75869561E+01
 20
4.07654864E+01
 11
-9.40869561E+01
 21
4.07654864E+01
  0
LINE
  8
0
 62
4
 10
-8.75869561E+01
 20
4.00654864E+01
 11
-9.40869561E+01
 21
4.00654864E+01
  0
LINE
  8
0
 62
4
 10
-9.52619561E+01
 20
4.25904864E+01
 11
-9.52619561E+01
 21
4.00904864E+01
  0
LINE
  8
0
 62
4
 10
-9.57619561E+01
 20
4.25904864E+01
 11
-9.57619561E+01
 21
4.01699905E+01
  0
LINE
  8
0
 62
4
 10
-9.52619561E+01
 20
4.25904864E+01
 11
-9.57619561E+01
 21
4.25904864E+01
  0
LINE
  8
0
 62
4
 10
-9.23369561E+01
 20
4.47654864E+01
 11
-9.23369561E+01
 21
4.37654864E+01
  0
LINE
  8
0
 62
4
 10
-8.93369561E+01
 20
4.47654864E+01
 11
-8.93369561E+01
 21
4.37654864E+01
  0
LINE
  8
0
 62
4
 10
-8.65369561E+01
 20
3.72654864E+01
 11
-8.73369561E+01
 21
3.72654864E+01
  0
LINE
  8
0
 62
4
 10
-9.43369561E+01
 20
3.65654864E+01
 11
-9.51369561E+01
 21
3.65654864E+01
  0
LINE
  8
0
 62
4
 10
-8.83369561E+01
 20
4.47654864E+01
 11
-9.33369561E+01
 21
4.47654864E+01
  0
LINE
  8
0
 62
4
 10
-8.93369561E+01
 20
4.62654864E+01
 11
-9.23369561E+01
 21
4.62654864E+01
  0
LINE
  8
0
 62
4
 10
-8.83369561E+01
 20
4.52654864E+01
 11
-8.83369561E+01
 21
4.47654864E+01
  0
LINE
  8
0
 62
4
 10
-9.33369561E+01
 20
4.52654864E+01
 11
-9.33369561E+01
 21
4.47654864E+01
  0
LINE
  8
0
 62
4
 10
-8.93369561E+01
 20
4.42654864E+01
 11
-9.23369561E+01
 21
4.42654864E+01
  0
ARC
  8
0
 62
4
 10
-8.73369594E+01
 20
4.29654832E+01
 40
8.00003254E-01
 50
2.33015759E-04
 51
9.00000002E+01
  0
ARC
  8
0
 62
4
 10
-9.43386187E+01
 20
4.29671490E+01
 40
7.98339134E-01
 50
8.98806771E+01
 51
1.80119323E+02
  0
ARC
  8
0
 62
4
 10
-8.78369604E+01
 20
4.24654821E+01
 40
5.00004290E-01
 50
4.91607912E-04
 51
9.00000002E+01
  0
ARC
  8
0
 62
4
 10
-9.38386187E+01
 20
4.24671490E+01
 40
4.98340176E-01
 50
8.98088454E+01
 51
1.80191155E+02
  0
ARC
  8
0
 62
4
 10
-9.61367525E+01
 20
3.99186207E+01
 40
5.00207143E-01
 50
1.79786293E+02
 51
2.39986760E+02
  0
ARC
  8
0
 62
4
 10
-9.53381043E+01
 20
4.03828421E+01
 40
4.98857363E-01
 50
1.80270562E+02
 51
2.09445368E+02
  0
ARC
  8
0
 62
4
 10
-9.23383684E+01
 20
4.52668987E+01
 40
9.98588677E-01
 50
8.99189656E+01
 51
1.80081034E+02
  0
ARC
  8
0
 62
4
 10
-8.93372089E+01
 20
4.52652336E+01
 40
1.00025280E+00
 50
1.44788446E-02
 51
9.00000002E+01
  0
LINE
  8
0
 62
4
 10
-9.40869561E+01
 20
4.07654864E+01
 11
-9.40869561E+01
 21
3.42654864E+01
  0
LINE
  8
0
 62
4
 10
-8.75869561E+01
 20
3.68654864E+01
 11
-8.75869561E+01
 21
3.42654864E+01
  0
LINE
  8
0
 62
4
 10
-8.75869561E+01
 20
3.68654864E+01
 11
-8.87869561E+01
 21
3.68654864E+01
  0
LINE
  8
0
 62
4
 10
-8.75869561E+01
 20
3.72654864E+01
 11
-8.87869561E+01
 21
3.72654864E+01
  0
LINE
  8
0
 62
4
 10
-8.75869561E+01
 20
4.07654864E+01
 11
-8.75869561E+01
 21
3.72654864E+01
  0
LINE
  8
0
 62
4
 10
-8.87869561E+01
 20
3.50654864E+01
 11
-9.28869561E+01
 21
3.50654864E+01
  0
LINE
  8
0
 62
4
 10
-8.87869561E+01
 20
3.90654864E+01
 11
-9.28869561E+01
 21
3.90654864E+01
  0
LINE
  8
0
 62
4
 10
-8.98369561E+01
 20
3.93654864E+01
 11
-9.18369561E+01
 21
3.93654864E+01
  0
LINE
  8
0
 62
4
 10
-8.98369561E+01
 20
3.93654864E+01
 11
-8.98369561E+01
 21
3.90654864E+01
  0
LINE
  8
0
 62
4
 10
-8.98369561E+01
 20
3.50654864E+01
 11
-8.98369561E+01
 21
3.47654864E+01
  0
LINE
  8
0
 62
4
 10
-8.87869561E+01
 20
3.90654864E+01
 11
-8.87869561E+01
 21
3.50654864E+01
  0
LINE
  8
0
 62
4
 10
-9.28869561E+01
 20
3.90654864E+01
 11
-9.28869561E+01
 21
3.50654864E+01
  0
LINE
  8
0
 62
4
 10
-9.18369561E+01
 20
3.93654864E+01
 11
-9.18369561E+01
 21
3.90654864E+01
  0
LINE
  8
0
 62
4
 10
-9.18369561E+01
 20
3.50654864E+01
 11
-9.18369561E+01
 21
3.47654864E+01
  0
LINE
  8
0
 62
4
 10
-8.93369561E+01
 20
4.21654864E+01
 11
-8.93369561E+01
 21
4.10654864E+01
  0
LINE
  8
0
 62
4
 10
-9.23369561E+01
 20
4.21654864E+01
 11
-9.23369561E+01
 21
4.10654864E+01
  0
LINE
  8
0
 62
6
 10
-8.96069561E+01
 20
4.21654864E+01
 11
-8.96069561E+01
 21
4.07954864E+01
  0
LINE
  8
0
 62
6
 10
-9.20669561E+01
 20
4.21654864E+01
 11
-9.20669561E+01
 21
4.07954864E+01
  0
LINE
  8
0
 62
4
 10
-9.60489948E+01
 20
3.92902199E+01
 11
-9.63869561E+01
 21
3.94854864E+01
  0
ARC
  8
0
 62
2
 10
-9.08369561E+01
 20
2.57654864E+01
 40
4.18800000E+00
 50
4.27673618E+01
 51
7.72326384E+01
  0
ARC
  8
0
 62
2
 10
-9.08369561E+01
 20
2.57654864E+01
 40
4.18800000E+00
 50
3.42767362E+02
 51
1.72326382E+01
  0
ARC
  8
0
 62
2
 10
-9.08369561E+01
 20
2.57654864E+01
 40
4.18800000E+00
 50
2.82767362E+02
 51
3.17232638E+02
  0
ARC
  8
0
 62
2
 10
-9.08369561E+01
 20
2.57654864E+01
 40
4.18800000E+00
 50
2.22767362E+02
 51
2.57232638E+02
  0
ARC
  8
0
 62
2
 10
-9.08369561E+01
 20
2.57654864E+01
 40
4.18800000E+00
 50
1.62767362E+02
 51
1.97232638E+02
  0
ARC
  8
0
 62
2
 10
-9.08369561E+01
 20
2.57654864E+01
 40
4.18800000E+00
 50
1.02767362E+02
 51
1.37232638E+02
  0
CIRCLE
  8
0
 62
2
 10
-9.08369561E+01
 20
2.57654864E+01
 40
2.06700000E+00
  0
LINE
  8
0
 62
4
 10
-9.48369558E+01
 20
2.34560851E+01
 11
-9.48369558E+01
 21
2.80748873E+01
  0
LINE
  8
0
 62
4
 10
-9.48369561E+01
 20
2.80748871E+01
 11
-9.08369561E+01
 21
3.03842882E+01
  0
LINE
  8
0
 62
4
 10
-9.08369565E+01
 20
3.03842884E+01
 11
-8.68369565E+01
 21
2.80748873E+01
  0
LINE
  8
0
 62
4
 10
-8.68369565E+01
 20
2.80748877E+01
 11
-8.68369565E+01
 21
2.34560855E+01
  0
LINE
  8
0
 62
4
 10
-8.68369561E+01
 20
2.34560857E+01
 11
-9.08369561E+01
 21
2.11466846E+01
  0
LINE
  8
0
 62
4
 10
-9.08369558E+01
 20
2.11466844E+01
 11
-9.48369558E+01
 21
2.34560855E+01
  0
LINE
  8
0
 62
7
 10
-8.23369561E+01
 20
3.00154864E+01
 11
-8.23369561E+01
 21
2.15254864E+01
  0
LINE
  8
0
 62
7
 10
-9.93369561E+01
 20
3.00154864E+01
 11
-9.93369561E+01
 21
2.15254864E+01
  0
LINE
  8
0
 62
7
 10
-9.50769561E+01
 20
1.72654864E+01
 11
-8.65869561E+01
 21
1.72654864E+01
  0
LINE
  8
0
 62
7
 10
-9.50769561E+01
 20
3.42654864E+01
 11
-8.65869561E+01
 21
3.42654864E+01
  0
LINE
  8
0
  6
CENTER
 62
2
 10
-1.01882924E+02
 20
2.57654864E+01
 11
-7.97009702E+01
 21
2.57654864E+01
  0
CIRCLE
  8
0
 62
7
 10
-9.08369561E+01
 20
2.57654860E+01
 40
2.50000000E+00
  0
ARC
  8
0
 62
7
 10
-9.08369563E+01
 20
2.57654862E+01
 40
9.50328916E+00
 50
2.65650517E+01
 51
6.34349484E+01
  0
ARC
  8
0
 62
7
 10
-9.08419483E+01
 20
2.57605021E+01
 40
9.50105520E+00
 50
1.16470744E+02
 51
1.53394601E+02
  0
ARC
  8
0
 62
7
 10
-9.08369563E+01
 20
2.57654862E+01
 40
9.49882072E+00
 50
2.06511100E+02
 51
2.43488900E+02
  0
ARC
  8
0
 62
7
 10
-9.08419401E+01
 20
2.57604939E+01
 40
9.50105469E+00
 50
2.96605398E+02
 51
3.33529257E+02
  0
CIRCLE
  8
0
 62
4
 10
-9.08369561E+01
 20
2.57654860E+01
 40
4.00000000E+00
  0
CIRCLE
  8
0
 62
7
 10
-9.08369561E+01
 20
2.57654860E+01
 40
5.00000000E+00
  0
LINE
  8
0
  6
CENTER
 62
2
 10
9.88230439E+01
 20
1.40778632E+01
 11
9.88230439E+01
 21
4.87998101E+01
  0
ARC
  8
0
 62
4
 10
9.88230439E+01
 20
2.57656863E+01
 40
8.65000000E+00
 50
2.59314255E+02
 51
2.80685745E+02
  0
ARC
  8
0
 62
4
 10
9.88230439E+01
 20
2.57656863E+01
 40
8.65000000E+00
 50
3.49314256E+02
 51
1.06857436E+01
  0
LINE
  8
0
 62
7
 10
1.07323044E+02
 20
2.15256864E+01
 11
1.07323044E+02
 21
3.00136110E+01
  0
LINE
  8
0
 62
4
 10
9.73230439E+01
 20
4.10656863E+01
 11
9.76230439E+01
 21
4.07656863E+01
  0
LINE
  8
0
 62
4
 10
1.00323044E+02
 20
4.10656863E+01
 11
1.00023044E+02
 21
4.07656863E+01
  0
LINE
  8
0
 62
4
 10
9.78230439E+01
 20
3.47656863E+01
 11
9.98230439E+01
 21
3.47656863E+01
  0
LINE
  8
0
 62
4
 10
9.75230439E+01
 20
3.57656863E+01
 11
1.00123044E+02
 21
3.57656863E+01
  0
LINE
  8
0
 62
4
 10
9.75230439E+01
 20
3.57656863E+01
 11
9.67730439E+01
 21
3.50656863E+01
  0
LINE
  8
0
 62
4
 10
1.05729435E+02
 20
3.24852477E+01
 11
1.06204775E+02
 21
3.26403347E+01
  0
LINE
  8
0
 62
4
 10
1.04488740E+02
 20
3.62879670E+01
 11
1.04346138E+02
 21
3.62414409E+01
  0
LINE
  8
0
 62
4
 10
1.03748044E+02
 20
4.01701903E+01
 11
1.06204775E+02
 21
3.26403347E+01
  0
LINE
  8
0
 62
4
 10
1.04346152E+02
 20
3.62413961E+01
 11
1.05590242E+02
 21
3.24282745E+01
  0
LINE
  8
0
 62
4
 10
1.03248044E+02
 20
4.00906863E+01
 11
1.05830171E+02
 21
3.21764934E+01
  0
LINE
  8
0
 62
4
 10
9.53230439E+01
 20
3.72656863E+01
 11
9.31739578E+01
 21
3.34033869E+01
  0
LINE
  8
0
 62
4
 10
9.54730439E+01
 20
3.72656863E+01
 11
9.34403205E+01
 21
3.35931309E+01
  0
ARC
  8
0
 62
4
 10
9.88230439E+01
 20
2.57656863E+01
 40
8.65000000E+00
 50
1.69314255E+02
 51
1.90685745E+02
  0
CIRCLE
  8
0
 62
4
 10
9.88230439E+01
 20
3.70656863E+01
 40
1.30000000E+00
  0
LINE
  8
0
 62
4
 10
9.53230439E+01
 20
4.37656863E+01
 11
1.02323044E+02
 21
4.37656863E+01
  0
LINE
  8
0
 62
4
 10
1.02323044E+02
 20
4.24656863E+01
 11
1.02323044E+02
 21
3.65656863E+01
  0
LINE
  8
0
 62
4
 10
9.53230439E+01
 20
4.24656863E+01
 11
9.53230439E+01
 21
3.72656863E+01
  0
LINE
  8
0
 62
4
 10
1.03123044E+02
 20
3.87634641E+01
 11
1.03592562E+02
 21
3.90347413E+01
  0
LINE
  8
0
 62
4
 10
1.03823044E+02
 20
4.20656863E+01
 11
1.03823044E+02
 21
4.03806863E+01
  0
LINE
  8
0
 62
4
 10
1.03823044E+02
 20
4.20656863E+01
 11
1.04623044E+02
 21
4.20656863E+01
  0
LINE
  8
0
 62
4
 10
1.01108044E+02
 20
4.29656863E+01
 11
1.00968044E+02
 21
4.21656863E+01
  0
LINE
  8
0
 62
4
 10
9.65380439E+01
 20
4.29656863E+01
 11
9.66780439E+01
 21
4.21656863E+01
  0
LINE
  8
0
 62
4
 10
9.66780439E+01
 20
4.21656863E+01
 11
1.00968044E+02
 21
4.21656863E+01
  0
LINE
  8
0
 62
6
 10
1.00053044E+02
 20
4.42656863E+01
 11
1.00053044E+02
 21
4.37656863E+01
  0
LINE
  8
0
 62
6
 10
9.75930439E+01
 20
4.42656863E+01
 11
9.75930439E+01
 21
4.37656863E+01
  0
LINE
  8
0
 62
4
 10
9.45230439E+01
 20
4.29656863E+01
 11
9.45230439E+01
 21
3.72656863E+01
  0
LINE
  8
0
 62
4
 10
1.03123044E+02
 20
3.65656863E+01
 11
1.03123044E+02
 21
4.29656863E+01
  0
LINE
  8
0
 62
4
 10
9.58230439E+01
 20
4.29656863E+01
 11
1.01823044E+02
 21
4.29656863E+01
  0
LINE
  8
0
 62
4
 10
1.04623044E+02
 20
4.20656863E+01
 11
1.04623044E+02
 21
3.99206863E+01
  0
LINE
  8
0
 62
4
 10
1.03123044E+02
 20
3.96896863E+01
 11
1.03337149E+02
 21
3.98138670E+01
  0
LINE
  8
0
 62
4
 10
9.54730439E+01
 20
4.24656863E+01
 11
9.54730439E+01
 21
3.72656863E+01
  0
LINE
  8
0
 62
4
 10
9.53230439E+01
 20
4.24656863E+01
 11
9.54730439E+01
 21
4.24656863E+01
  0
LINE
  8
0
 62
4
 10
9.55730439E+01
 20
4.07656863E+01
 11
1.02073044E+02
 21
4.07656863E+01
  0
LINE
  8
0
 62
4
 10
9.55730439E+01
 20
4.00656863E+01
 11
1.02073044E+02
 21
4.00656863E+01
  0
LINE
  8
0
 62
4
 10
1.03248044E+02
 20
4.25906863E+01
 11
1.03248044E+02
 21
4.00906863E+01
  0
LINE
  8
0
 62
4
 10
1.03748044E+02
 20
4.25906863E+01
 11
1.03748044E+02
 21
4.01701903E+01
  0
LINE
  8
0
 62
4
 10
1.03248044E+02
 20
4.25906863E+01
 11
1.03748044E+02
 21
4.25906863E+01
  0
LINE
  8
0
 62
4
 10
1.00323044E+02
 20
4.47656863E+01
 11
1.00323044E+02
 21
4.37656863E+01
  0
LINE
  8
0
 62
4
 10
9.73230439E+01
 20
4.47656863E+01
 11
9.73230439E+01
 21
4.37656863E+01
  0
LINE
  8
0
 62
4
 10
9.45230439E+01
 20
3.72656863E+01
 11
9.53230439E+01
 21
3.72656863E+01
  0
LINE
  8
0
 62
4
 10
1.02323044E+02
 20
3.65656863E+01
 11
1.03123044E+02
 21
3.65656863E+01
  0
LINE
  8
0
 62
4
 10
9.63230439E+01
 20
4.47656863E+01
 11
1.01323044E+02
 21
4.47656863E+01
  0
LINE
  8
0
 62
4
 10
9.73230439E+01
 20
4.62656863E+01
 11
1.00323044E+02
 21
4.62656863E+01
  0
LINE
  8
0
 62
4
 10
9.63230439E+01
 20
4.52656863E+01
 11
9.63230439E+01
 21
4.47656863E+01
  0
LINE
  8
0
 62
4
 10
1.01323044E+02
 20
4.52656863E+01
 11
1.01323044E+02
 21
4.47656863E+01
  0
LINE
  8
0
 62
4
 10
9.73230439E+01
 20
4.42656863E+01
 11
1.00323044E+02
 21
4.42656863E+01
  0
ARC
  8
0
 62
4
 10
9.53230471E+01
 20
4.29656830E+01
 40
8.00003254E-01
 50
9.00000002E+01
 51
1.79999767E+02
  0
ARC
  8
0
 62
4
 10
1.02324706E+02
 20
4.29673489E+01
 40
7.98339134E-01
 50
3.59880678E+02
 51
9.01193227E+01
  0
ARC
  8
0
 62
4
 10
9.58230482E+01
 20
4.24656820E+01
 40
5.00004290E-01
 50
9.00000002E+01
 51
1.79999508E+02
  0
ARC
  8
0
 62
4
 10
1.01824706E+02
 20
4.24673489E+01
 40
4.98340176E-01
 50
3.59808845E+02
 51
9.01911544E+01
  0
ARC
  8
0
 62
4
 10
1.04122840E+02
 20
3.99188206E+01
 40
5.00207143E-01
 50
3.00013240E+02
 51
2.13706628E-01
  0
ARC
  8
0
 62
4
 10
1.03324192E+02
 20
4.03830420E+01
 40
4.98857363E-01
 50
3.30554632E+02
 51
3.59729437E+02
  0
ARC
  8
0
 62
4
 10
1.00324456E+02
 20
4.52670986E+01
 40
9.98588677E-01
 50
3.59918966E+02
 51
9.00810348E+01
  0
ARC
  8
0
 62
4
 10
9.73232966E+01
 20
4.52654335E+01
 40
1.00025280E+00
 50
9.00000002E+01
 51
1.79985521E+02
  0
LINE
  8
0
 62
4
 10
1.02073044E+02
 20
4.07656863E+01
 11
1.02073044E+02
 21
3.42656863E+01
  0
LINE
  8
0
 62
4
 10
9.55730439E+01
 20
3.68656863E+01
 11
9.55730439E+01
 21
3.42656863E+01
  0
LINE
  8
0
 62
4
 10
9.55730439E+01
 20
3.68656863E+01
 11
9.67730439E+01
 21
3.68656863E+01
  0
LINE
  8
0
 62
4
 10
9.55730439E+01
 20
3.72656863E+01
 11
9.67730439E+01
 21
3.72656863E+01
  0
LINE
  8
0
 62
4
 10
9.55730439E+01
 20
4.07656863E+01
 11
9.55730439E+01
 21
3.72656863E+01
  0
LINE
  8
0
 62
4
 10
9.67730439E+01
 20
3.50656863E+01
 11
1.00873044E+02
 21
3.50656863E+01
  0
LINE
  8
0
 62
4
 10
9.67730439E+01
 20
3.90656863E+01
 11
1.00873044E+02
 21
3.90656863E+01
  0
LINE
  8
0
 62
4
 10
9.78230439E+01
 20
3.93656863E+01
 11
9.98230439E+01
 21
3.93656863E+01
  0
LINE
  8
0
 62
4
 10
9.75230439E+01
 20
3.83656863E+01
 11
1.00123044E+02
 21
3.83656863E+01
  0
LINE
  8
0
 62
4
 10
9.78230439E+01
 20
3.93656863E+01
 11
9.78230439E+01
 21
3.90656863E+01
  0
LINE
  8
0
 62
4
 10
9.78230439E+01
 20
3.50656863E+01
 11
9.78230439E+01
 21
3.47656863E+01
  0
LINE
  8
0
 62
4
 10
9.67730439E+01
 20
3.90656863E+01
 11
9.67730439E+01
 21
3.50656863E+01
  0
LINE
  8
0
 62
4
 10
9.75230439E+01
 20
3.83656863E+01
 11
9.75230439E+01
 21
3.57656863E+01
  0
LINE
  8
0
 62
4
 10
9.67730439E+01
 20
3.90656863E+01
 11
9.75230439E+01
 21
3.83656863E+01
  0
LINE
  8
0
 62
4
 10
1.00873044E+02
 20
3.90656863E+01
 11
1.00873044E+02
 21
3.50656863E+01
  0
LINE
  8
0
 62
4
 10
9.98230439E+01
 20
3.93656863E+01
 11
9.98230439E+01
 21
3.90656863E+01
  0
LINE
  8
0
 62
4
 10
9.98230439E+01
 20
3.50656863E+01
 11
9.98230439E+01
 21
3.47656863E+01
  0
LINE
  8
0
 62
4
 10
1.00123044E+02
 20
3.83656863E+01
 11
1.00123044E+02
 21
3.57656863E+01
  0
LINE
  8
0
 62
4
 10
1.00123044E+02
 20
3.83656863E+01
 11
1.00873044E+02
 21
3.90656863E+01
  0
LINE
  8
0
 62
4
 10
1.00123044E+02
 20
3.57656863E+01
 11
1.00873044E+02
 21
3.50656863E+01
  0
LINE
  8
0
 62
4
 10
9.73230439E+01
 20
4.21656863E+01
 11
9.73230439E+01
 21
4.10656863E+01
  0
LINE
  8
0
 62
4
 10
1.00323044E+02
 20
4.21656863E+01
 11
1.00323044E+02
 21
4.10656863E+01
  0
LINE
  8
0
 62
6
 10
9.75930439E+01
 20
4.21656863E+01
 11
9.75930439E+01
 21
4.07956863E+01
  0
LINE
  8
0
 62
6
 10
1.00053044E+02
 20
4.21656863E+01
 11
1.00053044E+02
 21
4.07956863E+01
  0
LINE
  8
0
 62
4
 10
1.04035083E+02
 20
3.92904198E+01
 11
1.04373044E+02
 21
3.94856863E+01
  0
LINE
  8
0
 62
7
 10
9.03230439E+01
 20
2.15256863E+01
 11
9.03230439E+01
 21
3.00156863E+01
  0
LINE
  8
0
 62
7
 10
9.45830439E+01
 20
3.42656863E+01
 11
1.03063044E+02
 21
3.42656863E+01
  0
LINE
  8
0
 62
7
 10
9.45830439E+01
 20
1.72656863E+01
 11
1.03063044E+02
 21
1.72656863E+01
  0
LINE
  8
0
 62
7
 10
1.02123044E+02
 20
1.72656863E+01
 11
1.02123044E+02
 21
3.42656863E+01
  0
LINE
  8
0
 62
7
 10
9.55230439E+01
 20
1.72656863E+01
 11
9.55230439E+01
 21
3.42656863E+01
  0
LINE
  8
0
  6
CENTER
 62
2
 10
8.76721710E+01
 20
2.57656863E+01
 11
1.09854125E+02
 21
2.57656863E+01
  0
ARC
  8
0
 62
7
 10
9.88213753E+01
 20
2.57573706E+01
 40
9.50551887E+00
 50
1.16479727E+02
 51
1.53385619E+02
  0
ARC
  8
0
 62
7
 10
9.88263727E+01
 20
2.57690151E+01
 40
9.50328580E+00
 50
2.06520101E+02
 51
2.43479899E+02
  0
ARC
  8
0
 62
7
 10
9.88263715E+01
 20
2.57623586E+01
 40
9.49435798E+00
 50
2.96502094E+02
 51
3.33497906E+02
  0
ARC
  8
0
 62
7
 10
9.88380693E+01
 20
2.57537299E+01
 40
9.49428151E+00
 50
2.66589370E+01
 51
6.36021455E+01
  0
ARC
  8
0
 62
7
 10
9.88291667E+01
 20
2.57664894E+01
 40
8.49387723E+00
 50
3.59994582E+02
 51
6.71826762E+01
  0
ARC
  8
0
 62
7
 10
9.88297004E+01
 20
2.57656863E+01
 40
8.49958100E+00
 50
1.12894629E+02
 51
2.47105371E+02
  0
ARC
  8
0
 62
7
 10
9.88291670E+01
 20
2.57648829E+01
 40
8.49387688E+00
 50
2.92817322E+02
 51
5.41920565E-03
  0
LINE
  8
0
 62
7
 10
4.72630439E+01
 20
6.80054864E+01
 11
4.72630439E+01
 21
7.22654864E+01
  0
LINE
  8
0
 62
7
 10
4.55130439E+01
 20
7.22654864E+01
 11
4.55130439E+01
 21
6.57654864E+01
  0
LINE
  8
0
 62
7
 10
7.07630439E+01
 20
7.22654864E+01
 11
7.07630439E+01
 21
6.80054864E+01
  0
LINE
  8
0
  6
CENTER
 62
2
 10
6.45130439E+01
 20
7.33267194E+01
 11
6.45130439E+01
 21
5.39087265E+01
  0
LINE
  8
0
 62
7
 10
7.25130439E+01
 20
7.22654864E+01
 11
7.25130439E+01
 21
6.70654864E+01
  0
LINE
  8
0
 62
7
 10
-2.17269561E+01
 20
6.80054864E+01
 11
-2.17269561E+01
 21
7.22654864E+01
  0
LINE
  8
0
 62
7
 10
-3.02269561E+01
 20
6.80054864E+01
 11
-3.02269561E+01
 21
7.22654864E+01
  0
LINE
  8
0
 62
7
 10
-1.99769561E+01
 20
5.52654864E+01
 11
-1.99769561E+01
 21
7.22654864E+01
  0
LINE
  8
0
 62
7
 10
-3.19769561E+01
 20
5.52654864E+01
 11
-3.19769561E+01
 21
7.22654864E+01
  0
LINE
  8
0
 62
4
 10
-8.97695612E+00
 20
5.51154864E+01
 11
-8.97695612E+00
 21
7.24154864E+01
  0
LINE
  8
0
  6
CENTER
 62
6
 10
-4.47695612E+00
 20
7.37654851E+01
 11
-4.47695612E+00
 21
5.37654864E+01
  0
LINE
  8
0
 62
4
 10
2.30438790E-02
 20
5.51154864E+01
 11
2.30438790E-02
 21
7.24154864E+01
  0
LINE
  8
0
 62
4
 10
3.05230439E+01
 20
5.51154864E+01
 11
3.05230439E+01
 21
7.24154864E+01
  0
LINE
  8
0
  6
CENTER
 62
6
 10
3.50230439E+01
 20
7.37654851E+01
 11
3.50230439E+01
 21
5.37654864E+01
  0
LINE
  8
0
 62
4
 10
3.95230439E+01
 20
5.51154864E+01
 11
3.95230439E+01
 21
7.24154864E+01
  0
LINE
  8
0
  6
PHANTOM
 10
1.86524248E+01
 20
4.72605546E+01
 11
1.86524248E+01
 21
7.96980362E+01
  0
LINE
  8
0
 62
7
 10
5.45130439E+01
 20
6.41184873E+01
 11
5.45130439E+01
 21
6.04654864E+01
  0
ARC
  8
0
 62
7
 10
5.00130439E+01
 20
6.37654864E+01
 40
2.06700000E+00
 50
3.89712842E+01
 51
1.24911180E+02
  0
ARC
  8
0
 62
2
 10
5.00172080E+01
 20
6.37654879E+01
 40
2.50000000E+00
 50
3.13322105E+01
 51
1.33336001E+02
  0
LINE
  8
0
 62
7
 10
4.55130439E+01
 20
6.17654864E+01
 11
4.55130439E+01
 21
5.52654864E+01
  0
LINE
  8
0
 62
7
 10
3.95230439E+01
 20
5.52654864E+01
 11
4.55130439E+01
 21
5.52654864E+01
  0
LINE
  8
0
 62
7
 10
2.30438790E-02
 20
5.52654864E+01
 11
3.05230439E+01
 21
5.52654864E+01
  0
LINE
  8
0
 62
4
 10
3.05230439E+01
 20
5.51154864E+01
 11
3.95230439E+01
 21
5.51154864E+01
  0
LINE
  8
0
 62
4
 10
2.25230439E+01
 20
6.47654864E+01
 11
2.35230439E+01
 21
6.57654864E+01
  0
LINE
  8
0
 62
4
 10
2.80230439E+01
 20
6.05154864E+01
 11
2.80230439E+01
 21
6.70154864E+01
  0
LINE
  8
0
 62
4
 10
2.35230439E+01
 20
6.57654864E+01
 11
2.35230439E+01
 21
6.17654864E+01
  0
LINE
  8
0
 62
4
 10
2.35230439E+01
 20
6.57654864E+01
 11
2.80230439E+01
 21
6.57654864E+01
  0
LINE
  8
0
 62
4
 10
2.80230439E+01
 20
6.70154864E+01
 11
3.05230439E+01
 21
6.70154864E+01
  0
LINE
  8
0
 62
4
 10
2.25230439E+01
 20
6.47654864E+01
 11
2.25230439E+01
 21
6.27654864E+01
  0
LINE
  8
0
 62
4
 10
2.25230439E+01
 20
6.27654864E+01
 11
2.35230439E+01
 21
6.17654864E+01
  0
LINE
  8
0
 62
4
 10
2.35230439E+01
 20
6.17654864E+01
 11
2.80230439E+01
 21
6.17654864E+01
  0
LINE
  8
0
 62
4
 10
2.80230439E+01
 20
6.05154864E+01
 11
3.05230439E+01
 21
6.05154864E+01
  0
CIRCLE
  8
0
 62
4
 10
3.50221686E+01
 20
6.37630279E+01
 40
2.50000000E+00
  0
LINE
  8
0
 62
4
 10
3.39630439E+01
 20
6.27054864E+01
 11
3.60830439E+01
 21
6.48254864E+01
  0
LINE
  8
0
 62
4
 10
3.60330439E+01
 20
6.27654864E+01
 11
3.39630439E+01
 21
6.48254864E+01
  0
LINE
  8
0
 62
4
 10
3.30230439E+01
 20
6.86904864E+01
 11
3.30230439E+01
 21
6.95654864E+01
  0
LINE
  8
0
 62
4
 10
3.95230439E+01
 20
6.05154864E+01
 11
4.20230439E+01
 21
6.05154864E+01
  0
LINE
  8
0
 62
4
 10
4.20230439E+01
 20
6.17654864E+01
 11
4.75230439E+01
 21
6.17654864E+01
  0
LINE
  8
0
 62
4
 10
4.20230439E+01
 20
6.57654864E+01
 11
4.75230439E+01
 21
6.57654864E+01
  0
LINE
  8
0
 62
4
 10
4.20230439E+01
 20
6.05154864E+01
 11
4.20230439E+01
 21
6.70154864E+01
  0
LINE
  8
0
 62
4
 10
3.95230439E+01
 20
6.70154864E+01
 11
4.20230439E+01
 21
6.70154864E+01
  0
LINE
  8
0
 62
4
 10
4.75230439E+01
 20
6.57654864E+01
 11
4.75230439E+01
 21
6.17654864E+01
  0
LINE
  8
0
 62
4
 10
4.75230439E+01
 20
6.57654864E+01
 11
5.05230439E+01
 21
6.50654864E+01
  0
LINE
  8
0
 62
4
 10
5.05230439E+01
 20
6.50654864E+01
 11
5.54600430E+01
 21
6.50654864E+01
  0
LINE
  8
0
 62
4
 10
5.05230439E+01
 20
6.50654864E+01
 11
5.05230439E+01
 21
6.24654864E+01
  0
LINE
  8
0
 62
4
 10
4.75230439E+01
 20
6.17654864E+01
 11
5.05230439E+01
 21
6.24654864E+01
  0
LINE
  8
0
 62
4
 10
5.05230439E+01
 20
6.24654864E+01
 11
5.28600430E+01
 21
6.24654864E+01
  0
LINE
  8
0
 62
6
 10
5.54600430E+01
 20
6.50654864E+01
 11
5.28600430E+01
 21
6.24654864E+01
  0
LINE
  8
0
 62
4
 10
3.05230439E+01
 20
5.94654864E+01
 11
3.95230439E+01
 21
5.94654864E+01
  0
LINE
  8
0
 62
4
 10
3.70230439E+01
 20
6.95654864E+01
 11
3.70230439E+01
 21
6.86904864E+01
  0
LINE
  8
0
 62
4
 10
3.30230439E+01
 20
6.87654864E+01
 11
3.70230439E+01
 21
6.87654864E+01
  0
LINE
  8
0
 62
4
 10
3.30230439E+01
 20
6.95654864E+01
 11
3.70230439E+01
 21
6.95654864E+01
  0
LINE
  8
0
 62
4
 10
3.05230439E+01
 20
7.11404864E+01
 11
3.95230439E+01
 21
7.11404864E+01
  0
LINE
  8
0
 62
4
 10
3.05230439E+01
 20
6.81904864E+01
 11
3.95230439E+01
 21
6.81904864E+01
  0
LINE
  8
0
 62
4
 10
3.05230439E+01
 20
6.86904864E+01
 11
3.95230439E+01
 21
6.86904864E+01
  0
LINE
  8
0
 62
4
 10
3.05230439E+01
 20
6.80654864E+01
 11
3.95230439E+01
 21
6.80654864E+01
  0
LINE
  8
0
 62
4
 10
-8.97695609E+00
 20
6.80654864E+01
 11
2.30439073E-02
 21
6.80654864E+01
  0
LINE
  8
0
 62
4
 10
-8.97695609E+00
 20
6.86904864E+01
 11
2.30439073E-02
 21
6.86904864E+01
  0
LINE
  8
0
 62
4
 10
-8.97695609E+00
 20
6.81904864E+01
 11
2.30439073E-02
 21
6.81904864E+01
  0
LINE
  8
0
 62
4
 10
-8.97695609E+00
 20
7.11404864E+01
 11
2.30438790E-02
 21
7.11404864E+01
  0
LINE
  8
0
 62
4
 10
-6.47695609E+00
 20
6.95654864E+01
 11
-2.47695609E+00
 21
6.95654864E+01
  0
LINE
  8
0
 62
4
 10
-6.47695609E+00
 20
6.87654864E+01
 11
-2.47695612E+00
 21
6.87654864E+01
  0
LINE
  8
0
 62
4
 10
-2.47695612E+00
 20
6.95654864E+01
 11
-2.47695612E+00
 21
6.86904864E+01
  0
LINE
  8
0
 62
4
 10
-8.97695609E+00
 20
5.94654864E+01
 11
2.30438790E-02
 21
5.94654864E+01
  0
LINE
  8
0
 62
4
 10
-8.97695612E+00
 20
5.51154864E+01
 11
2.30438790E-02
 21
5.51154864E+01
  0
LINE
  8
0
 62
6
 10
1.59600430E+01
 20
6.50654864E+01
 11
1.33600430E+01
 21
6.24654864E+01
  0
LINE
  8
0
 62
4
 10
1.10230439E+01
 20
6.24654864E+01
 11
1.33600430E+01
 21
6.24654864E+01
  0
LINE
  8
0
 62
4
 10
8.02304388E+00
 20
6.17654864E+01
 11
1.10230439E+01
 21
6.24654864E+01
  0
LINE
  8
0
 62
4
 10
1.10230439E+01
 20
6.50654864E+01
 11
1.10230439E+01
 21
6.24654864E+01
  0
LINE
  8
0
 62
4
 10
1.10230439E+01
 20
6.50654864E+01
 11
1.59600430E+01
 21
6.50654864E+01
  0
LINE
  8
0
 62
4
 10
8.02304388E+00
 20
6.57654864E+01
 11
1.10230439E+01
 21
6.50654864E+01
  0
LINE
  8
0
 62
4
 10
8.02304388E+00
 20
6.57654864E+01
 11
8.02304388E+00
 21
6.17654864E+01
  0
LINE
  8
0
 62
4
 10
2.30438790E-02
 20
6.70154864E+01
 11
2.52304388E+00
 21
6.70154864E+01
  0
LINE
  8
0
 62
4
 10
2.52304388E+00
 20
6.05154864E+01
 11
2.52304388E+00
 21
6.70154864E+01
  0
LINE
  8
0
 62
4
 10
2.52304388E+00
 20
6.57654864E+01
 11
8.02304388E+00
 21
6.57654864E+01
  0
LINE
  8
0
 62
4
 10
2.52304388E+00
 20
6.17654864E+01
 11
8.02304388E+00
 21
6.17654864E+01
  0
LINE
  8
0
 62
4
 10
2.30438790E-02
 20
6.05154864E+01
 11
2.52304388E+00
 21
6.05154864E+01
  0
LINE
  8
0
 62
4
 10
-6.47695612E+00
 20
6.86904864E+01
 11
-6.47695612E+00
 21
6.95654864E+01
  0
LINE
  8
0
 62
4
 10
-3.46695612E+00
 20
6.27654864E+01
 11
-5.53695612E+00
 21
6.48254864E+01
  0
LINE
  8
0
 62
4
 10
-5.53695612E+00
 20
6.27054864E+01
 11
-3.41695612E+00
 21
6.48254864E+01
  0
CIRCLE
  8
0
 62
4
 10
-4.47783137E+00
 20
6.37630279E+01
 40
2.50000000E+00
  0
LINE
  8
0
 62
4
 10
-1.14769561E+01
 20
6.05154864E+01
 11
-8.97695612E+00
 21
6.05154864E+01
  0
LINE
  8
0
 62
4
 10
-1.59769561E+01
 20
6.17654864E+01
 11
-1.14769561E+01
 21
6.17654864E+01
  0
LINE
  8
0
 62
4
 10
-1.69769561E+01
 20
6.27654864E+01
 11
-1.59769561E+01
 21
6.17654864E+01
  0
LINE
  8
0
 62
4
 10
-1.69769561E+01
 20
6.47654864E+01
 11
-1.69769561E+01
 21
6.27654864E+01
  0
LINE
  8
0
 62
4
 10
-1.14769561E+01
 20
6.70154864E+01
 11
-8.97695612E+00
 21
6.70154864E+01
  0
LINE
  8
0
 62
4
 10
-1.59769561E+01
 20
6.57654864E+01
 11
-1.14769561E+01
 21
6.57654864E+01
  0
LINE
  8
0
 62
4
 10
-1.59769561E+01
 20
6.57654864E+01
 11
-1.59769561E+01
 21
6.17654864E+01
  0
LINE
  8
0
 62
4
 10
-1.14769561E+01
 20
6.05154864E+01
 11
-1.14769561E+01
 21
6.70154864E+01
  0
LINE
  8
0
 62
4
 10
-1.69769561E+01
 20
6.47654864E+01
 11
-1.59769561E+01
 21
6.57654864E+01
  0
ARC
  8
0
 62
4
 10
-5.62569555E+01
 20
6.17654866E+01
 40
4.24999934E+00
 50
3.31927511E+02
 51
2.80724892E+01
  0
ARC
  8
0
 62
4
 10
-5.62569555E+01
 20
6.57654862E+01
 40
4.24999934E+00
 50
3.31927511E+02
 51
2.80724892E+01
  0
ARC
  8
0
 62
4
 10
-5.17569568E+01
 20
6.17654866E+01
 40
4.24999934E+00
 50
1.51927511E+02
 51
2.08072489E+02
  0
ARC
  8
0
 62
4
 10
-5.17569568E+01
 20
6.57654862E+01
 40
4.24999934E+00
 50
1.51927511E+02
 51
2.08072489E+02
  0
LINE
  8
0
 62
4
 10
-5.55069561E+01
 20
6.37654864E+01
 11
-5.25069561E+01
 21
6.37654864E+01
  0
LINE
  8
0
 62
4
 10
-5.60069561E+01
 20
5.97654867E+01
 11
-5.20069561E+01
 21
5.97654867E+01
  0
LINE
  8
0
 62
4
 10
-5.60069561E+01
 20
6.77654861E+01
 11
-5.20069561E+01
 21
6.77654861E+01
  0
LINE
  8
0
  6
CENTER
 62
2
 10
-6.19486629E+01
 20
6.37654864E+01
 11
5.65892399E+01
 21
6.37654864E+01
  0
LINE
  8
0
 62
7
 10
-3.99769561E+01
 20
5.97654864E+01
 11
-3.89769561E+01
 21
5.87654864E+01
  0
LINE
  8
0
 62
2
 10
-3.97889561E+01
 20
5.95774864E+01
 11
-3.34769561E+01
 21
5.95774864E+01
  0
LINE
  8
0
 62
7
 10
-3.99769561E+01
 20
6.77654864E+01
 11
-3.99769561E+01
 21
5.97654864E+01
  0
LINE
  8
0
 62
7
 10
-3.89769561E+01
 20
5.87654864E+01
 11
-3.19769561E+01
 21
5.87654864E+01
  0
LINE
  8
0
 62
2
 10
-3.97889561E+01
 20
6.79534864E+01
 11
-3.34769561E+01
 21
6.79534864E+01
  0
LINE
  8
0
 62
7
 10
-3.89769561E+01
 20
6.87654864E+01
 11
-3.19769561E+01
 21
6.87654864E+01
  0
LINE
  8
0
 62
7
 10
-3.99769561E+01
 20
6.77654864E+01
 11
-3.89769561E+01
 21
6.87654864E+01
  0
LINE
  8
0
 62
7
 10
-3.34769561E+01
 20
6.87654864E+01
 11
-3.34769561E+01
 21
5.87654864E+01
  0
LINE
  8
0
 62
7
 10
-3.89769561E+01
 20
6.87654864E+01
 11
-3.89769561E+01
 21
5.87654864E+01
  0
LINE
  8
0
 62
7
 10
-3.19769561E+01
 20
5.52654864E+01
 11
-8.97695612E+00
 21
5.52654864E+01
  0
LINE
  8
0
 62
7
 10
-3.02269561E+01
 20
5.95154864E+01
 11
-2.17269561E+01
 21
5.95154864E+01
  0
LINE
  8
0
 62
7
 10
-5.94769561E+01
 20
6.62654864E+01
 11
-5.60069561E+01
 21
6.62654864E+01
  0
LINE
  8
0
 62
7
 10
-5.94769561E+01
 20
6.12654864E+01
 11
-5.60069561E+01
 21
6.12654864E+01
  0
LINE
  8
0
 62
7
 10
-5.99769561E+01
 20
6.57654864E+01
 11
-5.99769561E+01
 21
6.17654864E+01
  0
LINE
  8
0
 62
7
 10
-4.49769561E+01
 20
6.62654864E+01
 11
-4.49769561E+01
 21
6.12654864E+01
  0
LINE
  8
0
 62
7
 10
-5.99769561E+01
 20
6.57654864E+01
 11
-5.94769561E+01
 21
6.62654864E+01
  0
LINE
  8
0
 62
7
 10
-5.99769561E+01
 20
6.17654864E+01
 11
-5.94769561E+01
 21
6.12654864E+01
  0
LINE
  8
0
 62
7
 10
-5.94769561E+01
 20
6.62654864E+01
 11
-5.94769561E+01
 21
6.12654864E+01
  0
LINE
  8
0
 62
4
 10
-5.60069561E+01
 20
6.77654861E+01
 11
-5.60069561E+01
 21
5.97654867E+01
  0
LINE
  8
0
 62
7
 10
-5.20069561E+01
 20
6.12654864E+01
 11
-3.99769561E+01
 21
6.12654864E+01
  0
LINE
  8
0
 62
7
 10
-3.02269561E+01
 20
5.95154864E+01
 11
-3.02269561E+01
 21
5.52654864E+01
  0
LINE
  8
0
 62
7
 10
-2.17269561E+01
 20
5.95154864E+01
 11
-2.17269561E+01
 21
5.52654864E+01
  0
LINE
  8
0
  6
CENTER
 62
2
 10
-2.49769561E+01
 20
6.80054864E+01
 11
-2.49769561E+01
 21
5.95154864E+01
  0
LINE
  8
0
 62
4
 10
-5.20069561E+01
 20
5.97654867E+01
 11
-5.20069561E+01
 21
6.77654861E+01
  0
LINE
  8
0
 62
7
 10
-5.20069561E+01
 20
6.62654864E+01
 11
-3.99769561E+01
 21
6.62654864E+01
  0
LINE
  8
0
 62
7
 10
-3.02269561E+01
 20
6.80054864E+01
 11
-2.17269561E+01
 21
6.80054864E+01
  0
LINE
  8
0
  6
CENTER
 62
2
 10
5.00130439E+01
 20
6.80054864E+01
 11
5.00130439E+01
 21
5.95154864E+01
  0
LINE
  8
0
 62
7
 10
4.55130439E+01
 20
5.52654864E+01
 11
7.25130439E+01
 21
5.52654864E+01
  0
LINE
  8
0
 62
7
 10
4.72630439E+01
 20
5.95154864E+01
 11
7.07630439E+01
 21
5.95154864E+01
  0
LINE
  8
0
 62
7
 10
4.72630439E+01
 20
6.80054864E+01
 11
7.07630439E+01
 21
6.80054864E+01
  0
LINE
  8
0
 62
7
 10
7.07630439E+01
 20
5.95154864E+01
 11
7.07630439E+01
 21
5.52654864E+01
  0
LINE
  8
0
 62
7
 10
5.45130439E+01
 20
6.70654864E+01
 11
5.45130439E+01
 21
6.50654864E+01
  0
LINE
  8
0
 62
7
 10
5.45130439E+01
 20
6.04654864E+01
 11
7.25130439E+01
 21
6.04654864E+01
  0
LINE
  8
0
 62
7
 10
5.45130439E+01
 20
6.70654864E+01
 11
7.25130439E+01
 21
6.70654864E+01
  0
LINE
  8
0
 62
7
 10
7.25130439E+01
 20
6.04654864E+01
 11
7.25130439E+01
 21
5.52654864E+01
  0
LINE
  8
0
 62
7
 10
4.72630439E+01
 20
5.95154864E+01
 11
4.72630439E+01
 21
5.52654864E+01
  0
ARC
  8
0
 62
7
 10
-2.59650147E+01
 20
6.37652865E+01
 40
6.01194142E+00
 50
1.35146516E+02
 51
2.24853485E+02
  0
ARC
  8
0
 62
7
 10
-2.59988719E+01
 20
6.37611697E+01
 40
6.02191737E+00
 50
3.15167349E+02
 51
4.48143182E+01
  0
ARC
  8
0
 62
7
 10
6.64699152E+01
 20
6.37289894E+01
 40
6.01536046E+00
 50
3.15536297E+02
 51
3.27144086E+02
  0
CIRCLE
  8
0
 62
2
 10
-2.49827844E+01
 20
6.37654879E+01
 40
2.50000000E+00
  0
ARC
  8
0
 62
2
 10
5.00172080E+01
 20
6.37654879E+01
 40
2.50000000E+00
 50
2.26664080E+02
 51
3.28667707E+02
  0
ARC
  8
0
 62
7
 10
6.64917504E+01
 20
6.37748662E+01
 40
6.01182959E+00
 50
3.31859169E+01
 51
4.47258987E+01
  0
ARC
  8
0
 62
7
 10
5.15370555E+01
 20
6.37606677E+01
 40
6.02401354E+00
 50
1.99341908E+02
 51
2.24806102E+02
  0
ARC
  8
0
 62
7
 10
5.15335309E+01
 20
6.37617595E+01
 40
6.02048817E+00
 50
1.35180079E+02
 51
1.60560092E+02
  0
CIRCLE
  8
0
 62
7
 10
-2.49769561E+01
 20
6.37654864E+01
 40
2.06700000E+00
  0
ARC
  8
0
 62
7
 10
5.00130439E+01
 20
6.37654864E+01
 40
2.06700000E+00
 50
2.35088820E+02
 51
3.21028716E+02
  0
LINE
  8
0
 62
2
 10
-5.99099561E+01
 20
6.16984864E+01
 11
-5.60069561E+01
 21
6.16984864E+01
  0
LINE
  8
0
 62
2
 10
-5.99099561E+01
 20
6.58324864E+01
 11
-5.60069561E+01
 21
6.58324864E+01
  0
LINE
  8
0
 62
2
 10
-5.20069561E+01
 20
6.58324864E+01
 11
-4.49769561E+01
 21
6.58324864E+01
  0
LINE
  8
0
 62
2
 10
-5.20069561E+01
 20
6.16984864E+01
 11
-4.49769561E+01
 21
6.16984864E+01
  0
LINE
  8
0
 62
7
 10
3.95230439E+01
 20
7.22654864E+01
 11
4.55130439E+01
 21
7.22654864E+01
  0
LINE
  8
0
 62
7
 10
2.30438790E-02
 20
7.22654864E+01
 11
3.05230439E+01
 21
7.22654864E+01
  0
LINE
  8
0
 62
4
 10
3.05230439E+01
 20
7.24154864E+01
 11
3.95230439E+01
 21
7.24154864E+01
  0
LINE
  8
0
 62
4
 10
-8.97695612E+00
 20
7.24154864E+01
 11
2.30438790E-02
 21
7.24154864E+01
  0
LINE
  8
0
 62
7
 10
-3.19769561E+01
 20
7.22654864E+01
 11
-8.97695612E+00
 21
7.22654864E+01
  0
LINE
  8
0
 62
7
 10
4.55130439E+01
 20
7.22654864E+01
 11
7.25130439E+01
 21
7.22654864E+01
  0
TEXT
  8
0
 62
7
 10
9.37106379E-01
 20
5.63654864E+01
 40
1.50000000E+00
  1
PBDAS-7
 41
1.00000000E+00
  7
MONOTXT
  0
LINE
  8
0
  6
CENTER
 62
6
 10
-9.66096129E+01
 20
-3.68823672E+01
 11
-6.91727383E+01
 21
-3.68823672E+01
  0
LINE
  8
0
 62
4
 10
-9.48511965E+01
 20
-2.72623672E+01
 11
-8.88511965E+01
 21
-2.72623672E+01
  0
LINE
  8
0
 62
4
 10
-9.48511965E+01
 20
-4.67801653E+01
 11
-8.88511965E+01
 21
-4.67801653E+01
  0
LINE
  8
0
 62
4
 10
-9.48511965E+01
 20
-4.67801653E+01
 11
-9.48511965E+01
 21
-2.72623671E+01
  0
LINE
  8
0
 62
4
 10
-8.88511965E+01
 20
-4.67801653E+01
 11
-8.88511965E+01
 21
-2.72623671E+01
  0
LINE
  8
0
 62
4
 10
-9.48511965E+01
 20
-2.75523672E+01
 11
-8.88511965E+01
 21
-2.75523672E+01
  0
LINE
  8
0
 62
4
 10
-9.48511965E+01
 20
-3.02280662E+01
 11
-8.88511965E+01
 21
-3.02280662E+01
  0
LINE
  8
0
 62
4
 10
-8.08511965E+01
 20
-3.28823672E+01
 11
-7.48511965E+01
 21
-3.28823672E+01
  0
LINE
  8
0
 62
4
 10
-8.08511965E+01
 20
-4.08823672E+01
 11
-7.48511965E+01
 21
-4.08823672E+01
  0
CIRCLE
  8
0
 62
4
 10
-7.58511965E+01
 20
-3.68823672E+01
 40
2.00000000E+00
  0
CIRCLE
  8
0
 62
4
 10
-7.58511965E+01
 20
-3.68823672E+01
 40
2.50000000E+00
  0
LINE
  8
0
  6
CENTER
 62
6
 10
-7.58511965E+01
 20
-3.28823672E+01
 11
-7.58511965E+01
 21
-4.08823672E+01
  0
LINE
  8
0
 62
4
 10
-8.08511965E+01
 20
-4.08823672E+01
 11
-8.08511965E+01
 21
-3.93823672E+01
  0
LINE
  8
0
 62
4
 10
-8.88511965E+01
 20
-3.43823672E+01
 11
-8.08511965E+01
 21
-3.43823672E+01
  0
LINE
  8
0
 62
4
 10
-8.88511965E+01
 20
-3.93823672E+01
 11
-8.08511965E+01
 21
-3.93823672E+01
  0
LINE
  8
0
 62
4
 10
-8.08511965E+01
 20
-3.43823672E+01
 11
-8.08511965E+01
 21
-3.28823672E+01
  0
ARC
  8
0
 62
4
 10
-7.48511965E+01
 20
-3.68823672E+01
 40
4.00000000E+00
 50
2.70000000E+02
 51
9.00000002E+01
  0
LINE
  8
0
  6
CENTER
 62
6
 10
-3.13511965E+01
 20
-2.72183115E+01
 11
-3.13511965E+01
 21
-4.91002741E+01
  0
ARC
  8
0
 62
4
 10
-3.13494361E+01
 20
-3.68889779E+01
 40
9.89118734E+00
 50
1.94600742E+02
 51
3.48373449E+02
  0
ARC
  8
0
 62
4
 10
-3.99852310E+01
 20
-3.02280662E+01
 40
1.00392057E+00
 50
3.22272848E+02
 51
4.46636107E+01
  0
ARC
  8
0
 62
4
 10
-3.99850519E+01
 20
-3.02310969E+01
 40
1.40190405E+00
 50
3.22610924E+02
 51
4.48518702E+01
  0
ARC
  8
0
 62
4
 10
-2.27173362E+01
 20
-3.02310972E+01
 40
1.40190777E+00
 50
1.35148263E+02
 51
2.17388943E+02
  0
ARC
  8
0
 62
4
 10
-2.27171570E+01
 20
-3.02280665E+01
 40
1.00392430E+00
 50
1.35336575E+02
 51
2.17726966E+02
  0
ARC
  8
0
 62
4
 10
-3.13422940E+01
 20
-3.68708562E+01
 40
9.89686572E+00
 50
1.42473295E+02
 51
1.65437133E+02
  0
ARC
  8
0
 62
4
 10
-3.13561152E+01
 20
-3.68782953E+01
 40
9.89824120E+00
 50
1.16331547E+01
 51
3.75749018E+01
  0
ARC
  8
0
 62
4
 10
-3.13478683E+01
 20
-3.68856954E+01
 40
9.49435721E+00
 50
1.95245994E+02
 51
3.33497907E+02
  0
ARC
  8
0
 62
4
 10
-3.13420951E+01
 20
-3.68651297E+01
 40
9.49929101E+00
 50
1.53606440E+02
 51
1.64849050E+02
  0
ARC
  8
0
 62
4
 10
-3.13428802E+01
 20
-3.68806991E+01
 40
9.50551964E+00
 50
1.41899873E+02
 51
1.53520272E+02
  0
ARC
  8
0
 62
4
 10
-3.13545248E+01
 20
-3.68856954E+01
 40
9.50328503E+00
 50
2.65200996E+01
 51
3.80087786E+01
  0
LINE
  8
0
 62
4
 10
-2.28511965E+01
 20
-4.08823672E+01
 11
-2.24511965E+01
 21
-4.08823672E+01
  0
LINE
  8
0
 62
4
 10
-4.13511965E+01
 20
-3.43823672E+01
 11
-4.13511965E+01
 21
-3.93823672E+01
  0
LINE
  8
0
 62
4
 10
-4.18511965E+01
 20
-3.88823672E+01
 11
-4.13511965E+01
 21
-3.93823672E+01
  0
LINE
  8
0
 62
4
 10
-4.13511965E+01
 20
-3.43823672E+01
 11
-4.18511965E+01
 21
-3.48823672E+01
  0
LINE
  8
0
 62
4
 10
-4.18511965E+01
 20
-3.88823672E+01
 11
-4.18511965E+01
 21
-3.48823672E+01
  0
LINE
  8
0
 62
4
 10
-4.09611965E+01
 20
-2.72623672E+01
 11
-4.12511965E+01
 21
-2.75523672E+01
  0
LINE
  8
0
 62
4
 10
-3.92711965E+01
 20
-2.95223672E+01
 11
-4.12511965E+01
 21
-2.75523672E+01
  0
LINE
  8
0
 62
4
 10
-3.89911965E+01
 20
-2.92423672E+01
 11
-4.09611965E+01
 21
-2.72623672E+01
  0
LINE
  8
0
 62
4
 10
-2.17411965E+01
 20
-2.72623672E+01
 11
-2.14511965E+01
 21
-2.75523672E+01
  0
LINE
  8
0
 62
4
 10
-2.37111965E+01
 20
-2.92423672E+01
 11
-2.17411965E+01
 21
-2.72723672E+01
  0
LINE
  8
0
 62
4
 10
-2.28511965E+01
 20
-3.28823672E+01
 11
-2.24511965E+01
 21
-3.28823672E+01
  0
LINE
  8
0
 62
4
 10
-2.34311965E+01
 20
-2.95223672E+01
 11
-2.14511965E+01
 21
-2.75523672E+01
  0
LINE
  8
0
 62
4
 10
-2.14511965E+01
 20
-3.88823672E+01
 11
-2.14511965E+01
 21
-3.48823672E+01
  0
LINE
  8
0
 62
4
 10
-2.24511965E+01
 20
-3.48823672E+01
 11
-2.14511965E+01
 21
-3.48823672E+01
  0
LINE
  8
0
 62
4
 10
-2.24511965E+01
 20
-3.88823672E+01
 11
-2.14511965E+01
 21
-3.88823672E+01
  0
LINE
  8
0
 62
4
 10
-2.24511965E+01
 20
-4.08823672E+01
 11
-2.24511965E+01
 21
-3.28823672E+01
  0
LINE
  8
0
 62
4
 10
-4.13511965E+01
 20
-3.93823672E+01
 11
-2.28511965E+01
 21
-3.93823672E+01
  0
LINE
  8
0
 62
4
 10
-4.13511965E+01
 20
-3.43823672E+01
 11
-2.28511965E+01
 21
-3.43823672E+01
  0
LINE
  8
0
 62
4
 10
-2.28511965E+01
 20
-3.26423672E+01
 11
-2.28511965E+01
 21
-4.11223672E+01
  0
LINE
  8
0
  6
CENTER
 62
6
 10
-4.40975864E+01
 20
-3.68823672E+01
 11
-1.95811965E+01
 21
-3.68823672E+01
  0
LINE
  8
0
  6
CENTER
 62
6
 10
6.87234426E+01
 20
-6.62702324E+01
 11
6.87234426E+01
 21
-7.42702324E+01
  0
LINE
  8
0
  6
CENTER
 62
6
 10
1.03923443E+02
 20
-6.62702324E+01
 11
1.03923443E+02
 21
-7.42702324E+01
  0
LINE
  8
0
 62
4
 10
8.31234426E+01
 20
-2.92702324E+01
 11
8.31234426E+01
 21
-5.02702324E+01
  0
LINE
  8
0
 62
4
 10
8.95234426E+01
 20
-2.92702324E+01
 11
8.95234426E+01
 21
-5.02702324E+01
  0
LINE
  8
0
  6
CENTER
 62
6
 10
8.63234426E+01
 20
-2.73460724E+01
 11
8.63234426E+01
 21
-7.42702324E+01
  0
TEXT
  8
0
 62
7
 10
9.40038098E+01
 20
-5.68045451E+01
 40
3.20000005E+00
  1
D-7
 41
1.00000000E+00
  7
MONOTXT
  0
LINE
  8
0
 62
4
 10
8.95234426E+01
 20
-5.02702324E+01
 11
9.23234426E+01
 21
-5.02702324E+01
  0
LINE
  8
0
  6
CENTER
 62
6
 10
8.17734426E+01
 20
-3.62702324E+01
 11
9.08734426E+01
 21
-3.62702324E+01
  0
LINE
  8
0
 62
4
 10
9.23234426E+01
 20
-5.02702324E+01
 11
9.23234426E+01
 21
-6.12702324E+01
  0
LINE
  8
0
 62
4
 10
7.93234426E+01
 20
-6.12702324E+01
 11
9.33234426E+01
 21
-6.12702324E+01
  0
LINE
  8
0
 62
4
 10
8.31234426E+01
 20
-5.02702324E+01
 11
8.03234426E+01
 21
-5.02702324E+01
  0
LINE
  8
0
 62
4
 10
8.03234426E+01
 20
-5.02702324E+01
 11
8.03234426E+01
 21
-6.12702324E+01
  0
LINE
  8
0
 62
4
 10
8.22234426E+01
 20
-6.92702324E+01
 11
9.04234426E+01
 21
-6.92702324E+01
  0
LINE
  8
0
 62
4
 10
8.22234426E+01
 20
-6.32702324E+01
 11
8.22234426E+01
 21
-6.92702324E+01
  0
LINE
  8
0
 62
4
 10
9.04234426E+01
 20
-6.32702324E+01
 11
9.04234426E+01
 21
-6.92702324E+01
  0
LINE
  8
0
 62
4
 10
8.22234426E+01
 20
-6.42702324E+01
 11
9.04234426E+01
 21
-6.42702324E+01
  0
LINE
  8
0
 62
4
 10
8.31234426E+01
 20
-3.08802324E+01
 11
8.95234426E+01
 21
-3.08802324E+01
  0
LINE
  8
0
 62
4
 10
7.93234426E+01
 20
-6.32702324E+01
 11
9.33234426E+01
 21
-6.32702324E+01
  0
LINE
  8
0
 62
4
 10
6.23234426E+01
 20
-7.12702324E+01
 11
7.53234426E+01
 21
-7.12702324E+01
  0
LINE
  8
0
 62
4
 10
6.23234426E+01
 20
-6.92702324E+01
 11
7.53234426E+01
 21
-6.92702324E+01
  0
LINE
  8
0
 62
4
 10
7.63234426E+01
 20
-6.42702324E+01
 11
7.63234426E+01
 21
-6.82702324E+01
  0
LINE
  8
0
 62
4
 10
7.83234426E+01
 20
-6.42702324E+01
 11
7.83234426E+01
 21
-6.82702324E+01
  0
LINE
  8
0
 62
4
 10
9.43234426E+01
 20
-6.42702324E+01
 11
9.43234426E+01
 21
-6.82702324E+01
  0
LINE
  8
0
 62
4
 10
9.63234426E+01
 20
-6.42702324E+01
 11
9.63234426E+01
 21
-6.82702324E+01
  0
LINE
  8
0
 62
4
 10
6.23234426E+01
 20
-6.92702324E+01
 11
6.23234426E+01
 21
-7.12702324E+01
  0
LINE
  8
0
 62
4
 10
1.10323443E+02
 20
-6.92702324E+01
 11
1.10323443E+02
 21
-7.12702324E+01
  0
LINE
  8
0
 62
4
 10
9.73234426E+01
 20
-7.12702324E+01
 11
1.10323443E+02
 21
-7.12702324E+01
  0
LINE
  8
0
 62
4
 10
9.73234426E+01
 20
-6.92702324E+01
 11
1.10323443E+02
 21
-6.92702324E+01
  0
ARC
  8
0
 62
4
 10
7.53234426E+01
 20
-6.82702324E+01
 40
1.00000000E+00
 50
2.70000000E+02
 51
0.00000000E+00
  0
ARC
  8
0
 62
4
 10
7.93234426E+01
 20
-6.42702324E+01
 40
1.00000000E+00
 50
9.00000002E+01
 51
1.80000000E+02
  0
ARC
  8
0
 62
4
 10
9.73234426E+01
 20
-6.82702324E+01
 40
1.00000000E+00
 50
1.80000000E+02
 51
2.70000000E+02
  0
ARC
  8
0
 62
4
 10
9.33234426E+01
 20
-6.42702324E+01
 40
1.00000000E+00
 50
0.00000000E+00
 51
9.00000002E+01
  0
ARC
  8
0
 62
4
 10
9.73234426E+01
 20
-6.82702324E+01
 40
3.00000000E+00
 50
1.80000000E+02
 51
2.70000000E+02
  0
ARC
  8
0
 62
4
 10
7.53234426E+01
 20
-6.82702324E+01
 40
3.00000000E+00
 50
2.70000000E+02
 51
0.00000000E+00
  0
ARC
  8
0
 62
4
 10
9.33234426E+01
 20
-6.42702324E+01
 40
3.00000000E+00
 50
0.00000000E+00
 51
9.00000002E+01
  0
ARC
  8
0
 62
4
 10
7.93234426E+01
 20
-6.42702324E+01
 40
3.00000000E+00
 50
9.00000002E+01
 51
1.80000000E+02
  0
LINE
  8
0
 62
4
 10
8.31234426E+01
 20
-2.92702324E+01
 11
8.95234426E+01
 21
-2.92702324E+01
  0
LINE
  8
0
 62
4
 10
1.93234426E+01
 20
-6.12702324E+01
 11
4.73234426E+01
 21
-6.12702324E+01
  0
LINE
  8
0
 62
4
 10
1.93234426E+01
 20
-7.12702324E+01
 11
4.73234426E+01
 21
-7.12702324E+01
  0
LINE
  8
0
 62
4
 10
1.93234426E+01
 20
-6.92702324E+01
 11
4.73234426E+01
 21
-6.92702324E+01
  0
LINE
  8
0
 62
4
 10
2.73234426E+01
 20
-5.02702324E+01
 11
3.93234426E+01
 21
-5.02702324E+01
  0
LINE
  8
0
  6
CENTER
 62
6
 10
3.33234426E+01
 20
-2.73460724E+01
 11
3.33234426E+01
 21
-7.42702324E+01
  0
LINE
  8
0
 62
4
 10
3.93234426E+01
 20
-3.08802324E+01
 11
3.93234426E+01
 21
-6.12702324E+01
  0
LINE
  8
0
 62
4
 10
2.73234426E+01
 20
-3.08802324E+01
 11
2.73234426E+01
 21
-6.12702324E+01
  0
LINE
  8
0
 62
4
 10
1.93234426E+01
 20
-6.12702324E+01
 11
1.93234426E+01
 21
-7.12702324E+01
  0
LINE
  8
0
 62
4
 10
3.87234426E+01
 20
-6.92702324E+01
 11
3.87234426E+01
 21
-7.12702324E+01
  0
LINE
  8
0
 62
4
 10
2.79234426E+01
 20
-6.92702324E+01
 11
2.79234426E+01
 21
-7.12702324E+01
  0
LINE
  8
0
 62
4
 10
2.27234426E+01
 20
-6.92702324E+01
 11
2.27234426E+01
 21
-7.12702324E+01
  0
LINE
  8
0
  6
CENTER
 62
6
 10
2.53234426E+01
 20
-6.62702324E+01
 11
2.53234426E+01
 21
-7.42702324E+01
  0
CIRCLE
  8
0
 62
4
 10
3.33234426E+01
 20
-3.62702324E+01
 40
2.54999924E+00
  0
ARC
  8
0
 62
4
 10
3.33234426E+01
 20
-4.12702343E+01
 40
1.19980057E+01
 50
5.99945013E+01
 51
1.20005499E+02
  0
LINE
  8
0
 62
4
 10
4.39234426E+01
 20
-6.92702324E+01
 11
4.39234426E+01
 21
-7.12702324E+01
  0
LINE
  8
0
  6
CENTER
 62
6
 10
4.13234426E+01
 20
-6.62702324E+01
 11
4.13234426E+01
 21
-7.42702324E+01
  0
LINE
  8
0
  6
CENTER
 62
6
 10
2.43234426E+01
 20
-3.62702324E+01
 11
4.23234426E+01
 21
-3.62702324E+01
  0
LINE
  8
0
 62
4
 10
4.73234426E+01
 20
-6.12702324E+01
 11
4.73234426E+01
 21
-7.12702324E+01
  0
LINE
  8
0
  6
CENTER
 62
6
 10
8.63234426E+01
 20
8.64704872E+00
 11
8.63234426E+01
 21
-2.30187629E+01
  0
LINE
  8
0
  6
CENTER
 62
6
 10
1.13323443E+02
 20
-7.27023810E+00
 11
5.93234426E+01
 21
-7.27023810E+00
  0
LINE
  8
0
 62
4
 10
7.63234426E+01
 20
6.72976190E+00
 11
7.63234426E+01
 21
-2.12702381E+01
  0
LINE
  8
0
 62
4
 10
8.03234426E+01
 20
-1.27023810E+00
 11
8.03234426E+01
 21
-1.32702381E+01
  0
LINE
  8
0
 62
4
 10
9.23234426E+01
 20
-1.27023810E+00
 11
9.23234426E+01
 21
-1.32702381E+01
  0
LINE
  8
0
 62
4
 10
9.63234426E+01
 20
6.72976190E+00
 11
9.63234426E+01
 21
-2.12702381E+01
  0
LINE
  8
0
 62
4
 10
9.23234426E+01
 20
-1.32702381E+01
 11
8.03234426E+01
 21
-1.32702381E+01
  0
LINE
  8
0
 62
4
 10
1.10323443E+02
 20
-2.12702381E+01
 11
6.23234426E+01
 21
-2.12702381E+01
  0
LINE
  8
0
 62
4
 10
9.23234426E+01
 20
-1.27023810E+00
 11
8.03234426E+01
 21
-1.27023810E+00
  0
LINE
  8
0
 62
4
 10
1.10323443E+02
 20
6.72976190E+00
 11
6.23234426E+01
 21
6.72976190E+00
  0
LINE
  8
0
 62
4
 10
8.95234426E+01
 20
-1.27023810E+00
 11
8.95234426E+01
 21
-1.32702381E+01
  0
LINE
  8
0
 62
4
 10
8.31234426E+01
 20
-1.27023810E+00
 11
8.31234426E+01
 21
-1.32702381E+01
  0
LINE
  8
0
  6
CENTER
 62
6
 10
1.10850291E+02
 20
-1.52702381E+01
 11
9.83234426E+01
 21
-1.52702381E+01
  0
LINE
  8
0
  6
CENTER
 62
6
 10
1.03923443E+02
 20
-9.67023810E+00
 11
1.03923443E+02
 21
-2.08702381E+01
  0
LINE
  8
0
 62
4
 10
1.10323443E+02
 20
-1.26702381E+01
 11
1.03923443E+02
 21
-1.26702381E+01
  0
LINE
  8
0
 62
4
 10
1.10323443E+02
 20
-1.78702381E+01
 11
1.03923443E+02
 21
-1.78702381E+01
  0
LINE
  8
0
 62
4
 10
1.10323443E+02
 20
6.72976190E+00
 11
1.10323443E+02
 21
3.32976190E+00
  0
LINE
  8
0
 62
4
 10
1.10323443E+02
 20
-1.87023810E+00
 11
1.03923443E+02
 21
-1.87023810E+00
  0
LINE
  8
0
  6
CENTER
 62
6
 10
1.10850291E+02
 20
7.29761902E-01
 11
9.83234426E+01
 21
7.29761902E-01
  0
LINE
  8
0
 62
4
 10
1.10323443E+02
 20
3.32976190E+00
 11
1.03923443E+02
 21
3.32976190E+00
  0
LINE
  8
0
  6
CENTER
 62
6
 10
1.03923443E+02
 20
-4.87023810E+00
 11
1.03923443E+02
 21
6.32976190E+00
  0
LINE
  8
0
 62
4
 10
6.23234426E+01
 20
-1.26702381E+01
 11
6.87234426E+01
 21
-1.26702381E+01
  0
LINE
  8
0
  6
CENTER
 62
6
 10
6.20722258E+01
 20
-1.52702381E+01
 11
7.43234426E+01
 21
-1.52702381E+01
  0
LINE
  8
0
 62
4
 10
6.23234426E+01
 20
-1.78702381E+01
 11
6.87234426E+01
 21
-1.78702381E+01
  0
LINE
  8
0
  6
CENTER
 62
6
 10
6.87234426E+01
 20
-9.67023810E+00
 11
6.87234426E+01
 21
-2.08702381E+01
  0
LINE
  8
0
 62
4
 10
6.23234426E+01
 20
-1.87023810E+00
 11
6.87234426E+01
 21
-1.87023810E+00
  0
LINE
  8
0
  6
CENTER
 62
6
 10
6.20722258E+01
 20
7.29761902E-01
 11
7.43234426E+01
 21
7.29761902E-01
  0
LINE
  8
0
 62
4
 10
6.23234426E+01
 20
3.32976190E+00
 11
6.87234426E+01
 21
3.32976190E+00
  0
LINE
  8
0
  6
CENTER
 62
6
 10
6.87234426E+01
 20
-4.87023810E+00
 11
6.87234426E+01
 21
6.32976190E+00
  0
LINE
  8
0
 62
4
 10
6.23234426E+01
 20
6.72976190E+00
 11
6.23234426E+01
 21
3.32976190E+00
  0
LINE
  8
0
 62
4
 10
6.23234426E+01
 20
-1.87023810E+00
 11
6.23234426E+01
 21
-1.26702381E+01
  0
LINE
  8
0
 62
4
 10
6.23234426E+01
 20
-1.78702381E+01
 11
6.23234426E+01
 21
-2.12702381E+01
  0
LINE
  8
0
 62
4
 10
1.10323443E+02
 20
-1.78702381E+01
 11
1.10323443E+02
 21
-2.12702381E+01
  0
LINE
  8
0
 62
4
 10
1.10323443E+02
 20
-1.87023810E+00
 11
1.10323443E+02
 21
-1.26702381E+01
  0
ARC
  8
0
 62
4
 10
6.87234426E+01
 20
-1.52702381E+01
 40
2.60000000E+00
 50
2.70000000E+02
 51
9.00000002E+01
  0
ARC
  8
0
 62
4
 10
1.03923443E+02
 20
7.29761902E-01
 40
2.60000000E+00
 50
9.00000002E+01
 51
2.70000000E+02
  0
ARC
  8
0
 62
4
 10
6.87234426E+01
 20
7.29761902E-01
 40
2.60000000E+00
 50
2.70000000E+02
 51
9.00000002E+01
  0
ARC
  8
0
 62
4
 10
1.03923443E+02
 20
-1.52702381E+01
 40
2.60000000E+00
 50
9.00000002E+01
 51
2.70000000E+02
  0
TEXT
  8
0
 62
7
 10
5.61500060E+01
 20
-8.84000031E+01
 40
3.20000005E+00
  1
160
 41
1.00000000E+00
  7
MONOTXT
  0
TEXT
  8
0
 62
7
 10
4.65500060E+01
 20
-8.84000031E+01
 40
3.20000005E+00
  1
135
 41
1.00000000E+00
  7
MONOTXT
  0
TEXT
  8
0
 62
7
 10
3.69500060E+01
 20
-8.84000031E+01
 40
3.20000005E+00
  1
110
 41
1.00000000E+00
  7
MONOTXT
  0
TEXT
  8
0
 62
7
 10
2.89500061E+01
 20
-8.84000031E+01
 40
3.20000005E+00
  1
85
 41
1.00000000E+00
  7
MONOTXT
  0
TEXT
  8
0
 62
7
 10
1.93500061E+01
 20
-8.84000031E+01
 40
3.20000005E+00
  1
60
 41
1.00000000E+00
  7
MONOTXT
  0
TEXT
  8
0
 62
7
 10
9.75000609E+00
 20
-8.84000031E+01
 40
3.20000005E+00
  1
35
 41
1.00000000E+00
  7
MONOTXT
  0
TEXT
  8
0
 62
7
 10
1.50006081E-01
 20
-8.84000031E+01
 40
3.20000005E+00
  1
20
 41
1.00000000E+00
  7
MONOTXT
  0
TEXT
  8
0
 62
7
 10
-9.44999392E+00
 20
-8.84000031E+01
 40
3.20000005E+00
  1
15
 41
1.00000000E+00
  7
MONOTXT
  0
TEXT
  8
0
 62
7
 10
-1.90499939E+01
 20
-8.84000031E+01
 40
3.20000005E+00
  1
10
 41
1.00000000E+00
  7
MONOTXT
  0
TEXT
  8
0
 62
7
 10
-2.70499939E+01
 20
-8.84000031E+01
 40
3.20000005E+00
  1
5
 41
1.00000000E+00
  7
MONOTXT
  0
TEXT
  8
0
 62
7
 10
-3.66499939E+01
 20
-8.84000031E+01
 40
3.20000005E+00
  1
0
 41
1.00000000E+00
  7
MONOTXT
  0
TEXT
  8
0
 62
7
 10
-4.78499939E+01
 20
-8.84000031E+01
 40
3.20000005E+00
  1
-5
 41
1.00000000E+00
  7
MONOTXT
  0
TEXT
  8
0
 62
7
 10
-5.90499940E+01
 20
-8.84000031E+01
 40
3.20000005E+00
  1
-10
 41
1.00000000E+00
  7
MONOTXT
  0
TEXT
  8
0
 62
7
 10
-6.86499940E+01
 20
-8.84000031E+01
 40
3.20000005E+00
  1
-15
 41
1.00000000E+00
  7
MONOTXT
  0
TEXT
  8
0
 62
7
 10
-7.82499940E+01
 20
-8.84000031E+01
 40
3.20000005E+00
  1
-20
 41
1.00000000E+00
  7
MONOTXT
  0
TEXT
  8
0
 62
7
 10
-8.78499940E+01
 20
-8.84000031E+01
 40
3.20000005E+00
  1
-25
 41
1.00000000E+00
  7
MONOTXT
  0
TEXT
  8
0
 62
7
 10
-9.74499940E+01
 20
-8.84000031E+01
 40
3.20000005E+00
  1
-30
 41
1.00000000E+00
  7
MONOTXT
  0
TEXT
  8
0
 62
7
 10
-1.07049994E+02
 20
-8.84000031E+01
 40
3.20000005E+00
  1
-35
 41
1.00000000E+00
  7
MONOTXT
  0
LINE
  8
0
 62
7
 10
-1.33399994E+02
 20
-8.98000031E+01
 11
6.54000061E+01
 21
-8.98000031E+01
  0
LINE
  8
0
 62
7
 10
-1.33399994E+02
 20
-8.98000031E+01
 11
-1.33399994E+02
 21
-7.78000031E+01
  0
LINE
  8
0
 62
7
 10
-1.33399994E+02
 20
-8.38000031E+01
 11
6.54000061E+01
 21
-8.38000031E+01
  0
LINE
  8
0
 62
7
 10
-1.07399994E+02
 20
-8.98000031E+01
 11
-1.07399994E+02
 21
-7.78000031E+01
  0
LINE
  8
0
 62
7
 10
-9.77999939E+01
 20
-8.98000031E+01
 11
-9.77999939E+01
 21
-7.78000031E+01
  0
LINE
  8
0
 62
7
 10
-1.33399994E+02
 20
-7.78000031E+01
 11
6.54000061E+01
 21
-7.78000031E+01
  0
TEXT
  8
0
 62
7
 10
-1.03849994E+02
 20
-8.24000031E+01
 40
3.20000005E+00
  1
5
 41
1.00000000E+00
  7
MONOTXT
  0
LINE
  8
0
 62
7
 10
-8.81999939E+01
 20
-8.98000031E+01
 11
-8.81999939E+01
 21
-7.78000031E+01
  0
TEXT
  8
0
 62
7
 10
-9.58499939E+01
 20
-8.24000031E+01
 40
3.20000005E+00
  1
10
 41
1.00000000E+00
  7
MONOTXT
  0
LINE
  8
0
 62
7
 10
-7.85999939E+01
 20
-8.98000031E+01
 11
-7.85999939E+01
 21
-7.78000031E+01
  0
TEXT
  8
0
 62
7
 10
-8.62499939E+01
 20
-8.24000031E+01
 40
3.20000005E+00
  1
15
 41
1.00000000E+00
  7
MONOTXT
  0
LINE
  8
0
 62
7
 10
-6.89999939E+01
 20
-8.98000031E+01
 11
-6.89999939E+01
 21
-7.78000031E+01
  0
TEXT
  8
0
 62
7
 10
-7.66499939E+01
 20
-8.24000031E+01
 40
3.20000005E+00
  1
20
 41
1.00000000E+00
  7
MONOTXT
  0
LINE
  8
0
 62
7
 10
-5.93999939E+01
 20
-8.98000031E+01
 11
-5.93999939E+01
 21
-7.78000031E+01
  0
TEXT
  8
0
 62
7
 10
-6.70499939E+01
 20
-8.24000031E+01
 40
3.20000005E+00
  1
25
 41
1.00000000E+00
  7
MONOTXT
  0
LINE
  8
0
 62
7
 10
-4.97999939E+01
 20
-8.98000031E+01
 11
-4.97999939E+01
 21
-7.78000031E+01
  0
TEXT
  8
0
 62
7
 10
-5.74499939E+01
 20
-8.24000031E+01
 40
3.20000005E+00
  1
30
 41
1.00000000E+00
  7
MONOTXT
  0
LINE
  8
0
 62
7
 10
-4.01999939E+01
 20
-8.98000031E+01
 11
-4.01999939E+01
 21
-7.78000031E+01
  0
TEXT
  8
0
 62
7
 10
-4.78499939E+01
 20
-8.24000031E+01
 40
3.20000005E+00
  1
35
 41
1.00000000E+00
  7
MONOTXT
  0
LINE
  8
0
 62
7
 10
-3.05999939E+01
 20
-8.98000031E+01
 11
-3.05999939E+01
 21
-7.78000031E+01
  0
TEXT
  8
0
 62
7
 10
-3.82499939E+01
 20
-8.24000031E+01
 40
3.20000005E+00
  1
40
 41
1.00000000E+00
  7
MONOTXT
  0
LINE
  8
0
 62
7
 10
-2.09999939E+01
 20
-8.98000031E+01
 11
-2.09999939E+01
 21
-7.78000031E+01
  0
TEXT
  8
0
 62
7
 10
-2.86499939E+01
 20
-8.24000031E+01
 40
3.20000005E+00
  1
45
 41
1.00000000E+00
  7
MONOTXT
  0
LINE
  8
0
 62
7
 10
-1.13999939E+01
 20
-8.98000031E+01
 11
-1.13999939E+01
 21
-7.78000031E+01
  0
TEXT
  8
0
 62
7
 10
-1.90499939E+01
 20
-8.24000031E+01
 40
3.20000005E+00
  1
50
 41
1.00000000E+00
  7
MONOTXT
  0
LINE
  8
0
 62
7
 10
-1.79999390E+00
 20
-8.98000031E+01
 11
-1.79999390E+00
 21
-7.78000031E+01
  0
TEXT
  8
0
 62
7
 10
-9.44999392E+00
 20
-8.24000031E+01
 40
3.20000005E+00
  1
55
 41
1.00000000E+00
  7
MONOTXT
  0
LINE
  8
0
 62
7
 10
7.80000610E+00
 20
-8.98000031E+01
 11
7.80000610E+00
 21
-7.78000031E+01
  0
TEXT
  8
0
 62
7
 10
1.50006081E-01
 20
-8.24000031E+01
 40
3.20000005E+00
  1
60
 41
1.00000000E+00
  7
MONOTXT
  0
TEXT
  8
0
 62
7
 10
-1.31249994E+02
 20
-8.84000031E+01
 40
3.20000005E+00
  1
STRETCH
 41
1.00000000E+00
  7
MONOTXT
  0
TEXT
  8
0
 62
7
 10
-1.29649994E+02
 20
-8.24000031E+01
 40
3.20000005E+00
  1
STROKE
 41
1.00000000E+00
  7
MONOTXT
  0
TEXT
  8
0
 62
7
 10
9.75000609E+00
 20
-8.24000031E+01
 40
3.20000005E+00
  1
75
 41
1.00000000E+00
  7
MONOTXT
  0
TEXT
  8
0
 62
7
 10
1.77500060E+01
 20
-8.24000031E+01
 40
3.20000005E+00
  1
100
 41
1.00000000E+00
  7
MONOTXT
  0
TEXT
  8
0
 62
7
 10
2.73500060E+01
 20
-8.24000031E+01
 40
3.20000005E+00
  1
125
 41
1.00000000E+00
  7
MONOTXT
  0
TEXT
  8
0
 62
7
 10
3.69500060E+01
 20
-8.24000031E+01
 40
3.20000005E+00
  1
150
 41
1.00000000E+00
  7
MONOTXT
  0
TEXT
  8
0
 62
7
 10
4.65500060E+01
 20
-8.24000031E+01
 40
3.20000005E+00
  1
175
 41
1.00000000E+00
  7
MONOTXT
  0
TEXT
  8
0
 62
7
 10
5.61500060E+01
 20
-8.24000031E+01
 40
3.20000005E+00
  1
200
 41
1.00000000E+00
  7
MONOTXT
  0
LINE
  8
0
 62
7
 10
6.54000061E+01
 20
-8.98000031E+01
 11
6.54000061E+01
 21
-7.78000031E+01
  0
LINE
  8
0
 62
7
 10
5.58000061E+01
 20
-8.98000031E+01
 11
5.58000061E+01
 21
-7.78000031E+01
  0
LINE
  8
0
 62
7
 10
4.62000061E+01
 20
-8.98000031E+01
 11
4.62000061E+01
 21
-7.78000031E+01
  0
LINE
  8
0
 62
7
 10
3.66000061E+01
 20
-8.98000031E+01
 11
3.66000061E+01
 21
-7.78000031E+01
  0
LINE
  8
0
 62
7
 10
2.70000061E+01
 20
-8.98000031E+01
 11
2.70000061E+01
 21
-7.78000031E+01
  0
LINE
  8
0
 62
7
 10
1.74000061E+01
 20
-8.98000031E+01
 11
1.74000061E+01
 21
-7.78000031E+01
  0
TEXT
  8
0
 62
7
 10
5.52641564E+01
 20
-7.62642101E+01
 40
3.20000005E+00
  1
(mm)
 41
1.00000000E+00
  7
MONOTXT
  0
TEXT
  8
0
 62
7
 10
-5.04034098E+01
 20
-7.59181426E+01
 40
3.20000005E+00
  1
STRETCH LIST
 41
1.05263158E+00
  7
MONOTXT
  0
TEXT
  8
0
 10
-1.49856184E+00
 20
8.15931045E+01
 40
3.20000005E+00
  1
STRETCH LINE
 41
1.05263158E+00
  7
MONOTXT
  0
LINE
  8
0
 62
7
 10
-1.38399994E+02
 20
9.45000000E+01
 11
1.38350006E+02
 21
9.45000000E+01
  0
LINE
  8
0
 62
7
 10
1.38350006E+02
 20
9.45000000E+01
 11
1.38350006E+02
 21
-9.48000031E+01
  0
LINE
  8
0
 62
7
 10
-1.38399994E+02
 20
-9.48000031E+01
 11
1.38350006E+02
 21
-9.48000031E+01
  0
LINE
  8
0
 62
7
 10
-1.38399994E+02
 20
9.45000000E+01
 11
-1.38399994E+02
 21
-9.48000031E+01
  0
LINE
  8
0
 62
7
 10
7.33500061E+01
 20
-8.48000031E+01
 11
1.38350006E+02
 21
-8.48000031E+01
  0
LINE
  8
0
 62
7
 10
-1.38399994E+02
 20
8.45000000E+01
 11
-7.33999939E+01
 21
8.45000000E+01
  0
LINE
  8
0
 62
7
 10
7.33500061E+01
 20
8.45000000E+01
 11
1.38350006E+02
 21
8.45000000E+01
  0
LINE
  8
0
 62
7
 10
7.33500061E+01
 20
-8.48000031E+01
 11
7.33500061E+01
 21
-9.48000031E+01
  0
LINE
  8
0
 62
7
 10
7.33500061E+01
 20
9.45000000E+01
 11
7.33500061E+01
 21
8.45000000E+01
  0
LINE
  8
0
 62
7
 10
-7.33999939E+01
 20
9.45000000E+01
 11
-7.33999939E+01
 21
8.45000000E+01
  0
TEXT
  8
0
 62
7
 10
7.72426624E+01
 20
-9.20500031E+01
 40
4.50000000E+00
  1
KOGANEI CORP.
 41
1.04838710E+00
  7
MONOTXT
  0
TEXT
  8
0
 62
7
 10
9.35071483E+01
 20
8.79000000E+01
 40
3.20000005E+00
  1
Ver. 1.0
 41
1.08108108E+00
  7
MONOTXT
  0
TEXT
  8
0
 62
7
 10
-1.31042852E+02
 20
8.79000000E+01
 40
3.20000005E+00
  1
NEW PEN CYLINDER
 41
1.08108108E+00
  7
MONOTXT
  0
TEXT
  8
0
 62
7
 10
-1.29085994E+02
 20
7.29000000E+01
 40
3.20000005E+00
  1
MODEL:PBDAS16*ST(40)-7-ZC230
 41
1.00000000E+00
  7
MONOTXT
  0
ENDSEC
  0
EOF
