  0
SECTION
  2
HEADER
  9
$ACADVER
  1
AC1003
  9
$EXTMIN
 10
-1.38399994E+02
 20
-9.48000031E+01
  9
$EXTMAX
 10
1.38350006E+02
 20
9.45000000E+01
  9
$LIMMIN
 10
-1.38400994E+02
 20
-9.48010031E+01
  9
$LIMMAX
 10
1.38351006E+02
 20
9.45010000E+01
  9
$SNAPUNIT
 10
1
 20
1
  9
$SNAPBASE
 10
0
 20
0
  9
$GRIDMODE
 70
0
  9
$GRIDUNIT
 10
0
 20
0
  9
$LTSCALE
 40
4.61250000E+00
  9
$TEXTSIZE
 40
3.2
  9
$DIMTAD
 70
0
  9
$LUNITS
 70
2
  9
$LUPREC
 70
4
  9
$FILLETRAD
 40
0
  9
$AUNITS
 70
0
  9
$AUPREC
 70
0
  0
ENDSEC
  0
SECTION
  2
TABLES
  0
TABLE
  2
LTYPE
 70
2
  0
LTYPE
  2
CONTINUOUS
 70
64
  3
Solid-Line
 72
65
 73
0
 40
0
  0
LTYPE
  2
DASHED
 70
64
  3
DASHED
 72
65
 73
2
 40
.75
 49
.5
 49
-.25
  0
LTYPE
  2
HIDDEN
 70
64
  3
HIDDEN
 72
65
 73
2
 40
.375
 49
.25
 49
-.125
  0
LTYPE
  2
CENTER
 70
64
  3
CENTER
 72
65
 73
4
 40
2
 49
1.25
 49
-.25
 49
.25
 49
-.25
  0
LTYPE
  2
PHANTOM
 70
64
  3
PHANTOM
 72
65
 73
6
 40
2.5
 49
1.25
 49
-.25
 49
.25
 49
-.25
 49
.25
 49
-.25
  0
ENDTAB
  0
TABLE
  2
LAYER
 70
1
  0
LAYER
  2
1
 70
0
 62
7
  6
CONTINUOUS
 0
ENDTAB
  0
TABLE
  2
STYLE
 70
2
  0
STYLE
  2
MONOTXT
 70
0
 40
0
 41
1
 50
0
 71
0
 42
.2
  3
monotxt
  0
STYLE
  2
BIGFONT
 70
0
 40
0
 41
1
 50
0
 71
0
 42
.2
  3
txt
  4
bigfont
  0
ENDTAB
  0
ENDSEC
  0
SECTION
  2
ENTITIES
  0
LINE
  8
0
  6
CENTER
 62
6
 10
-2.35469876E+01
 20
4.03289387E+01
 11
-2.35469876E+01
 21
1.28989387E+01
  0
LINE
  8
0
  6
CENTER
 62
6
 10
2.34430124E+01
 20
4.03289387E+01
 11
2.34430124E+01
 21
1.28989387E+01
  0
LINE
  8
0
 62
4
 10
1.64430124E+01
 20
3.06189387E+01
 11
1.09430124E+01
 21
3.06189387E+01
  0
LINE
  8
0
 62
4
 10
1.64430124E+01
 20
2.66189387E+01
 11
1.09430124E+01
 21
2.66189387E+01
  0
LINE
  8
0
 62
4
 10
3.04430124E+01
 20
2.84189387E+01
 11
3.04430124E+01
 21
2.53189387E+01
  0
LINE
  8
0
 62
4
 10
1.64430124E+01
 20
2.84189387E+01
 11
1.64430124E+01
 21
2.53189387E+01
  0
LINE
  8
0
 62
4
 10
2.79430124E+01
 20
2.88189387E+01
 11
1.89430124E+01
 21
2.88189387E+01
  0
LINE
  8
0
 62
4
 10
2.79430124E+01
 20
2.88189387E+01
 11
2.79430124E+01
 21
3.53189387E+01
  0
LINE
  8
0
 62
4
 10
1.89430124E+01
 20
2.88189387E+01
 11
1.89430124E+01
 21
3.53189387E+01
  0
LINE
  8
0
 62
4
 10
1.89430124E+01
 20
2.84189387E+01
 11
1.64430124E+01
 21
2.84189387E+01
  0
LINE
  8
0
 62
4
 10
1.89430124E+01
 20
3.16189387E+01
 11
1.64430124E+01
 21
3.16189387E+01
  0
LINE
  8
0
 62
4
 10
3.04430124E+01
 20
3.16189387E+01
 11
2.79430124E+01
 21
3.16189387E+01
  0
LINE
  8
0
 62
4
 10
3.04430124E+01
 20
2.88189387E+01
 11
2.79430124E+01
 21
2.88189387E+01
  0
LINE
  8
0
 62
4
 10
3.04430124E+01
 20
2.84189387E+01
 11
2.79430124E+01
 21
2.84189387E+01
  0
LINE
  8
0
 62
4
 10
2.79430124E+01
 20
1.46728860E+01
 11
1.89430124E+01
 21
1.46728860E+01
  0
LINE
  8
0
 62
6
 10
2.46730124E+01
 20
3.63189387E+01
 11
2.46730124E+01
 21
3.53189387E+01
  0
LINE
  8
0
 62
6
 10
2.22130124E+01
 20
3.63189387E+01
 11
2.22130124E+01
 21
3.53189387E+01
  0
LINE
  8
0
 62
4
 10
2.49430124E+01
 20
3.63189387E+01
 11
2.49430124E+01
 21
3.53189387E+01
  0
LINE
  8
0
 62
4
 10
2.19430124E+01
 20
3.63189387E+01
 11
2.19430124E+01
 21
3.53189387E+01
  0
LINE
  8
0
 62
4
 10
3.04430124E+01
 20
3.06189387E+01
 11
3.49430124E+01
 21
3.06189387E+01
  0
LINE
  8
0
 62
4
 10
1.89430124E+01
 20
2.88189387E+01
 11
1.89430124E+01
 21
1.46689387E+01
  0
LINE
  8
0
 62
4
 10
2.79430124E+01
 20
2.88189387E+01
 11
2.79430124E+01
 21
1.46689387E+01
  0
LINE
  8
0
 62
4
 10
2.79430124E+01
 20
3.53189387E+01
 11
1.89430124E+01
 21
3.53189387E+01
  0
LINE
  8
0
 62
4
 10
1.89430124E+01
 20
2.88189387E+01
 11
1.64430124E+01
 21
2.88189387E+01
  0
LINE
  8
0
 62
4
 10
3.59430124E+01
 20
2.96189387E+01
 11
3.59430124E+01
 21
2.76189387E+01
  0
LINE
  8
0
 62
4
 10
3.49430124E+01
 20
2.66189387E+01
 11
3.04430124E+01
 21
2.66189387E+01
  0
LINE
  8
0
 62
4
 10
2.59430124E+01
 20
3.63189387E+01
 11
2.09430124E+01
 21
3.63189387E+01
  0
LINE
  8
0
 62
4
 10
2.49430124E+01
 20
3.78189387E+01
 11
2.19430124E+01
 21
3.78189387E+01
  0
LINE
  8
0
 62
4
 10
2.09430124E+01
 20
3.68189387E+01
 11
2.09430124E+01
 21
3.63189387E+01
  0
LINE
  8
0
 62
4
 10
2.59430124E+01
 20
3.68189387E+01
 11
2.59430124E+01
 21
3.63189387E+01
  0
LINE
  8
0
 62
4
 10
3.49430124E+01
 20
3.06189387E+01
 11
3.49430124E+01
 21
2.66189387E+01
  0
LINE
  8
0
 62
4
 10
3.59430124E+01
 20
2.96189387E+01
 11
3.49430124E+01
 21
3.06189387E+01
  0
LINE
  8
0
 62
4
 10
3.59430124E+01
 20
2.76189387E+01
 11
3.49430124E+01
 21
2.66189387E+01
  0
LINE
  8
0
 62
4
 10
1.64430124E+01
 20
3.16189387E+01
 11
1.64430124E+01
 21
2.88189387E+01
  0
LINE
  8
0
 62
4
 10
3.04430124E+01
 20
3.16189387E+01
 11
3.04430124E+01
 21
2.88189387E+01
  0
LINE
  8
0
 62
4
 10
3.04430124E+01
 20
2.53189387E+01
 11
2.79430124E+01
 21
2.53189387E+01
  0
LINE
  8
0
 62
4
 10
1.89430124E+01
 20
2.53189387E+01
 11
1.64430124E+01
 21
2.53189387E+01
  0
ARC
  8
0
 62
4
 10
2.49422209E+01
 20
3.68181472E+01
 40
1.00079180E+00
 50
4.53129782E-02
 51
9.00000002E+01
  0
ARC
  8
0
 62
4
 10
2.19446780E+01
 20
3.68172730E+01
 40
1.00166704E+00
 50
9.00952762E+01
 51
1.79904724E+02
  0
LINE
  8
0
 62
4
 10
7.94301240E+00
 20
2.99189387E+01
 11
3.00601332E+00
 21
2.99189387E+01
  0
LINE
  8
0
 62
4
 10
7.94301240E+00
 20
2.73189387E+01
 11
5.60601332E+00
 21
2.73189387E+01
  0
LINE
  8
0
 62
4
 10
1.09430124E+01
 20
2.66189387E+01
 11
7.94301240E+00
 21
2.73189387E+01
  0
LINE
  8
0
 62
4
 10
1.09430124E+01
 20
3.06189387E+01
 11
7.94301239E+00
 21
2.99189387E+01
  0
LINE
  8
0
 62
4
 10
1.09430124E+01
 20
3.06189387E+01
 11
1.09430124E+01
 21
2.66189387E+01
  0
LINE
  8
0
 62
4
 10
7.94301239E+00
 20
2.99189387E+01
 11
7.94301239E+00
 21
2.73189387E+01
  0
LINE
  8
0
 62
6
 10
3.00601332E+00
 20
2.99189387E+01
 11
5.60601332E+00
 21
2.73189387E+01
  0
ARC
  8
0
 62
7
 10
5.52635695E+01
 20
2.03185797E+01
 40
7.68001799E+00
 50
7.01195289E-01
 51
3.88769147E+01
  0
LINE
  8
0
 62
7
 10
2.79430124E+01
 20
1.48189387E+01
 11
4.09430124E+01
 21
1.48189387E+01
  0
LINE
  8
0
 62
7
 10
3.04430124E+01
 20
2.58189387E+01
 11
4.09430124E+01
 21
2.58189387E+01
  0
LINE
  8
0
 62
7
 10
-1.90469876E+01
 20
1.48189387E+01
 11
1.89430124E+01
 21
1.48189387E+01
  0
LINE
  8
0
 62
7
 10
-1.65469876E+01
 20
2.58189387E+01
 11
1.64430124E+01
 21
2.58189387E+01
  0
LINE
  8
0
 62
4
 10
-1.65469876E+01
 20
3.06189387E+01
 11
-1.10469876E+01
 21
3.06189387E+01
  0
LINE
  8
0
 62
4
 10
-1.65469876E+01
 20
2.66189387E+01
 11
-1.10469876E+01
 21
2.66189387E+01
  0
LINE
  8
0
 62
4
 10
-3.05469876E+01
 20
2.84189387E+01
 11
-3.05469876E+01
 21
2.53189387E+01
  0
LINE
  8
0
 62
4
 10
-1.65469876E+01
 20
2.84189387E+01
 11
-1.65469876E+01
 21
2.53189387E+01
  0
LINE
  8
0
 62
4
 10
-2.80469876E+01
 20
2.88189387E+01
 11
-1.90469876E+01
 21
2.88189387E+01
  0
LINE
  8
0
 62
4
 10
-2.80469876E+01
 20
1.46689387E+01
 11
-2.80469876E+01
 21
3.53189387E+01
  0
LINE
  8
0
 62
4
 10
-1.90469876E+01
 20
1.46689387E+01
 11
-1.90469876E+01
 21
3.53189387E+01
  0
LINE
  8
0
 62
4
 10
-1.90469876E+01
 20
2.84189387E+01
 11
-1.65469876E+01
 21
2.84189387E+01
  0
LINE
  8
0
 62
4
 10
-1.90469876E+01
 20
3.16189387E+01
 11
-1.65469876E+01
 21
3.16189387E+01
  0
LINE
  8
0
 62
4
 10
-3.05469876E+01
 20
3.16189387E+01
 11
-2.80469876E+01
 21
3.16189387E+01
  0
LINE
  8
0
 62
4
 10
-3.05469876E+01
 20
2.88189387E+01
 11
-2.80469876E+01
 21
2.88189387E+01
  0
LINE
  8
0
 62
4
 10
-3.05469876E+01
 20
2.84189387E+01
 11
-2.80469876E+01
 21
2.84189387E+01
  0
LINE
  8
0
 62
4
 10
-2.80469876E+01
 20
1.46728860E+01
 11
-1.90469876E+01
 21
1.46728860E+01
  0
LINE
  8
0
 62
6
 10
-2.47769876E+01
 20
3.63189387E+01
 11
-2.47769876E+01
 21
3.53189387E+01
  0
LINE
  8
0
 62
6
 10
-2.23169876E+01
 20
3.63189387E+01
 11
-2.23169876E+01
 21
3.53189387E+01
  0
LINE
  8
0
 62
4
 10
-2.50469876E+01
 20
3.63189387E+01
 11
-2.50469876E+01
 21
3.53189387E+01
  0
LINE
  8
0
 62
4
 10
-2.20469876E+01
 20
3.63189387E+01
 11
-2.20469876E+01
 21
3.53189387E+01
  0
LINE
  8
0
 62
4
 10
-3.05469876E+01
 20
3.06189387E+01
 11
-3.50469876E+01
 21
3.06189387E+01
  0
LINE
  8
0
 62
4
 10
-2.80469876E+01
 20
3.53189387E+01
 11
-1.90469876E+01
 21
3.53189387E+01
  0
LINE
  8
0
 62
4
 10
-1.90469876E+01
 20
2.88189387E+01
 11
-1.65469876E+01
 21
2.88189387E+01
  0
LINE
  8
0
 62
4
 10
-2.80469876E+01
 20
1.46689387E+01
 11
-1.90469876E+01
 21
1.46689387E+01
  0
LINE
  8
0
 62
4
 10
-3.60469876E+01
 20
2.96189387E+01
 11
-3.60469876E+01
 21
2.76189387E+01
  0
LINE
  8
0
 62
4
 10
-3.50469876E+01
 20
2.66189387E+01
 11
-3.05469876E+01
 21
2.66189387E+01
  0
LINE
  8
0
 62
4
 10
-2.60469876E+01
 20
3.63189387E+01
 11
-2.10469876E+01
 21
3.63189387E+01
  0
LINE
  8
0
 62
4
 10
-2.50469876E+01
 20
3.78189387E+01
 11
-2.20469876E+01
 21
3.78189387E+01
  0
LINE
  8
0
 62
4
 10
-2.10469876E+01
 20
3.68189387E+01
 11
-2.10469876E+01
 21
3.63189387E+01
  0
LINE
  8
0
 62
4
 10
-2.60469876E+01
 20
3.68189387E+01
 11
-2.60469876E+01
 21
3.63189387E+01
  0
LINE
  8
0
 62
4
 10
-3.50469876E+01
 20
3.06189387E+01
 11
-3.50469876E+01
 21
2.66189387E+01
  0
LINE
  8
0
 62
4
 10
-3.60469876E+01
 20
2.96189387E+01
 11
-3.50469876E+01
 21
3.06189387E+01
  0
LINE
  8
0
 62
4
 10
-3.60469876E+01
 20
2.76189387E+01
 11
-3.50469876E+01
 21
2.66189387E+01
  0
LINE
  8
0
 62
4
 10
-1.65469876E+01
 20
3.16189387E+01
 11
-1.65469876E+01
 21
2.88189387E+01
  0
LINE
  8
0
 62
4
 10
-3.05469876E+01
 20
3.16189387E+01
 11
-3.05469876E+01
 21
2.88189387E+01
  0
LINE
  8
0
 62
4
 10
-3.05469876E+01
 20
2.53189387E+01
 11
-2.80469876E+01
 21
2.53189387E+01
  0
LINE
  8
0
 62
4
 10
-1.90469876E+01
 20
2.53189387E+01
 11
-1.65469876E+01
 21
2.53189387E+01
  0
ARC
  8
0
 62
4
 10
-2.50461961E+01
 20
3.68181472E+01
 40
1.00079180E+00
 50
9.00000002E+01
 51
1.79954687E+02
  0
ARC
  8
0
 62
4
 10
-2.20486533E+01
 20
3.68172730E+01
 40
1.00166704E+00
 50
9.52762946E-02
 51
8.99047236E+01
  0
LINE
  8
0
 62
4
 10
-8.04698761E+00
 20
2.99189387E+01
 11
-3.10998852E+00
 21
2.99189387E+01
  0
LINE
  8
0
 62
4
 10
-8.04698761E+00
 20
2.73189387E+01
 11
-5.70998852E+00
 21
2.73189387E+01
  0
LINE
  8
0
 62
4
 10
-1.10469876E+01
 20
2.66189387E+01
 11
-8.04698761E+00
 21
2.73189387E+01
  0
LINE
  8
0
 62
4
 10
-1.10469876E+01
 20
3.06189387E+01
 11
-8.04698760E+00
 21
2.99189387E+01
  0
LINE
  8
0
 62
4
 10
-1.10469876E+01
 20
3.06189387E+01
 11
-1.10469876E+01
 21
2.66189387E+01
  0
LINE
  8
0
 62
4
 10
-8.04698760E+00
 20
2.99189387E+01
 11
-8.04698760E+00
 21
2.73189387E+01
  0
LINE
  8
0
 62
6
 10
-3.10998852E+00
 20
2.99189387E+01
 11
-5.70998852E+00
 21
2.73189387E+01
  0
LINE
  8
0
 62
7
 10
4.26430124E+01
 20
2.51389387E+01
 11
6.12430124E+01
 21
2.51389387E+01
  0
LINE
  8
0
  6
CENTER
 62
2
 10
4.54430124E+01
 20
2.51389387E+01
 11
4.54430124E+01
 21
2.89073763E+01
  0
LINE
  8
0
 62
7
 10
6.12430124E+01
 20
1.54989387E+01
 11
6.12430124E+01
 21
1.33189387E+01
  0
ARC
  8
0
 62
7
 10
5.52635695E+01
 20
2.03185797E+01
 40
7.68001799E+00
 50
3.21129966E+02
 51
3.59298805E+02
  0
LINE
  8
0
 62
7
 10
6.12430124E+01
 20
2.51389387E+01
 11
6.12430124E+01
 21
2.73089387E+01
  0
LINE
  8
0
 62
7
 10
4.26430124E+01
 20
1.54989387E+01
 11
4.26430124E+01
 21
1.33189387E+01
  0
LINE
  8
0
 62
7
 10
4.26430124E+01
 20
1.54989387E+01
 11
6.12430124E+01
 21
1.54989387E+01
  0
LINE
  8
0
 62
7
 10
4.26430124E+01
 20
2.51389387E+01
 11
4.26430124E+01
 21
2.73089387E+01
  0
ARC
  8
0
 62
7
 10
4.86378238E+01
 20
2.03139387E+01
 40
7.68908244E+00
 50
1.41133118E+02
 51
2.18771241E+02
  0
LINE
  8
0
 62
7
 10
-3.80469876E+01
 20
2.73189387E+01
 11
-3.80469876E+01
 21
1.33289387E+01
  0
LINE
  8
0
 62
7
 10
-5.03469876E+01
 20
1.55089387E+01
 11
-3.97469876E+01
 21
1.55089387E+01
  0
LINE
  8
0
 62
7
 10
-6.12469876E+01
 20
1.43289387E+01
 11
-5.20469876E+01
 21
1.43289387E+01
  0
LINE
  8
0
 62
7
 10
-5.03469876E+01
 20
1.55089387E+01
 11
-5.03469876E+01
 21
1.33289387E+01
  0
LINE
  8
0
 62
7
 10
-3.97469876E+01
 20
1.55089387E+01
 11
-3.97469876E+01
 21
1.33289387E+01
  0
LINE
  8
0
 62
7
 10
-6.12469876E+01
 20
1.43289387E+01
 11
-6.20469876E+01
 21
1.51289387E+01
  0
LINE
  8
0
 62
2
 10
-6.20469876E+01
 20
1.52759387E+01
 11
-5.35469876E+01
 21
1.52759387E+01
  0
LINE
  8
0
 62
7
 10
-6.20469876E+01
 20
1.51289387E+01
 11
-6.20469876E+01
 21
2.03189387E+01
  0
LINE
  8
0
 62
7
 10
-5.20469876E+01
 20
1.33289387E+01
 11
-3.80469876E+01
 21
1.33289387E+01
  0
LINE
  8
0
 62
7
 10
-5.35469876E+01
 20
1.43289387E+01
 11
-5.35469876E+01
 21
2.03189387E+01
  0
LINE
  8
0
 62
7
 10
-6.12469876E+01
 20
2.03189387E+01
 11
-6.12469876E+01
 21
1.43289387E+01
  0
LINE
  8
0
 62
7
 10
-5.03469876E+01
 20
2.51389387E+01
 11
-3.97469876E+01
 21
2.51389387E+01
  0
LINE
  8
0
 62
7
 10
-6.12469876E+01
 20
2.63189387E+01
 11
-5.20469876E+01
 21
2.63189387E+01
  0
LINE
  8
0
 62
7
 10
-6.12469876E+01
 20
2.63189387E+01
 11
-6.20469876E+01
 21
2.55189387E+01
  0
LINE
  8
0
 62
7
 10
-5.03469876E+01
 20
2.51389387E+01
 11
-5.03469876E+01
 21
2.73189387E+01
  0
LINE
  8
0
 62
7
 10
-3.97469876E+01
 20
2.51389387E+01
 11
-3.97469876E+01
 21
2.73189387E+01
  0
LINE
  8
0
 62
2
 10
-6.20469876E+01
 20
2.53719387E+01
 11
-5.35469876E+01
 21
2.53719387E+01
  0
LINE
  8
0
 62
7
 10
-6.20469876E+01
 20
2.55189387E+01
 11
-6.20469876E+01
 21
2.03189387E+01
  0
LINE
  8
0
 62
7
 10
-5.20469876E+01
 20
2.73189387E+01
 11
-5.20469876E+01
 21
1.33289387E+01
  0
LINE
  8
0
 62
7
 10
-5.35469876E+01
 20
2.63189387E+01
 11
-5.35469876E+01
 21
2.03189387E+01
  0
LINE
  8
0
 62
7
 10
-6.12469876E+01
 20
2.03189387E+01
 11
-6.12469876E+01
 21
2.63189387E+01
  0
LINE
  8
0
 62
7
 10
-5.20469876E+01
 20
2.73189387E+01
 11
-3.80469876E+01
 21
2.73189387E+01
  0
ARC
  8
0
 62
7
 10
-4.43621762E+01
 20
2.03239387E+01
 40
7.68128847E+00
 50
1.41182048E+02
 51
2.18817952E+02
  0
ARC
  8
0
 62
7
 10
-4.57386258E+01
 20
2.03239387E+01
 40
7.68660869E+00
 50
3.21213947E+02
 51
3.87860535E+01
  0
LINE
  8
0
  6
CENTER
 62
2
 10
-4.25469876E+01
 20
2.51389387E+01
 11
-4.25469876E+01
 21
2.89073763E+01
  0
LINE
  8
0
 62
7
 10
4.09430124E+01
 20
2.73189387E+01
 11
4.09430124E+01
 21
1.33189387E+01
  0
LINE
  8
0
 62
7
 10
4.09430124E+01
 20
1.33189387E+01
 11
6.29430124E+01
 21
1.33189387E+01
  0
LINE
  8
0
 62
7
 10
6.29430124E+01
 20
2.73189387E+01
 11
6.29430124E+01
 21
1.33189387E+01
  0
LINE
  8
0
 62
7
 10
4.09430124E+01
 20
2.73189387E+01
 11
6.29430124E+01
 21
2.73189387E+01
  0
LINE
  8
0
 62
2
 10
-7.02669876E+01
 20
1.86979387E+01
 11
-6.60469876E+01
 21
1.86979387E+01
  0
LINE
  8
0
 62
2
 10
-7.02669876E+01
 20
2.19399387E+01
 11
-6.60469876E+01
 21
2.19399387E+01
  0
LINE
  8
0
 62
2
 10
-7.77259876E+01
 20
1.86979387E+01
 11
-7.34669876E+01
 21
1.86979387E+01
  0
LINE
  8
0
 62
2
 10
-7.77259876E+01
 20
2.19399387E+01
 11
-7.34669876E+01
 21
2.19399387E+01
  0
LINE
  8
0
 62
7
 10
-3.80469876E+01
 20
1.48189387E+01
 11
-2.80469876E+01
 21
1.48189387E+01
  0
LINE
  8
0
 62
7
 10
-3.80469876E+01
 20
2.58189387E+01
 11
-3.05469876E+01
 21
2.58189387E+01
  0
LINE
  8
0
 62
7
 10
-7.80469876E+01
 20
2.16189387E+01
 11
-7.80469876E+01
 21
1.90189387E+01
  0
LINE
  8
0
 62
7
 10
-6.60469876E+01
 20
2.23189387E+01
 11
-6.60469876E+01
 21
1.83189387E+01
  0
LINE
  8
0
 62
7
 10
-7.73469876E+01
 20
2.23189387E+01
 11
-7.34669876E+01
 21
2.23189387E+01
  0
LINE
  8
0
 62
7
 10
-7.73469876E+01
 20
1.83189387E+01
 11
-7.34669876E+01
 21
1.83189387E+01
  0
LINE
  8
0
 62
7
 10
-7.73469876E+01
 20
2.23189387E+01
 11
-7.80469876E+01
 21
2.16189387E+01
  0
LINE
  8
0
 62
7
 10
-7.80469876E+01
 20
1.90189387E+01
 11
-7.73469876E+01
 21
1.83189387E+01
  0
LINE
  8
0
 62
7
 10
-7.73469876E+01
 20
2.23189387E+01
 11
-7.73469876E+01
 21
1.83189387E+01
  0
LINE
  8
0
  6
CENTER
 62
2
 10
-8.00469876E+01
 20
2.03189387E+01
 11
6.44642458E+01
 21
2.03189387E+01
  0
LINE
  8
0
 62
4
 10
-7.34669876E+01
 20
2.37189387E+01
 11
-7.34669876E+01
 21
1.69189387E+01
  0
LINE
  8
0
 62
4
 10
-7.02669876E+01
 20
2.37189387E+01
 11
-7.02669876E+01
 21
1.69189387E+01
  0
LINE
  8
0
 62
4
 10
-7.30969876E+01
 20
2.43589387E+01
 11
-7.06369876E+01
 21
2.43589387E+01
  0
LINE
  8
0
 62
4
 10
-7.30969876E+01
 20
1.62789387E+01
 11
-7.06369876E+01
 21
1.62789387E+01
  0
LINE
  8
0
 62
4
 10
-7.30969876E+01
 20
2.23389387E+01
 11
-7.06369876E+01
 21
2.23389387E+01
  0
LINE
  8
0
 62
4
 10
-7.30969876E+01
 20
1.82989387E+01
 11
-7.06369876E+01
 21
1.82989387E+01
  0
LINE
  8
0
 62
7
 10
-7.02669876E+01
 20
2.23189387E+01
 11
-6.20469876E+01
 21
2.23189387E+01
  0
LINE
  8
0
 62
7
 10
-7.02669876E+01
 20
1.83189387E+01
 11
-6.20469876E+01
 21
1.83189387E+01
  0
LINE
  8
0
 62
4
 10
-7.34669876E+01
 20
2.37189387E+01
 11
-7.30969876E+01
 21
2.43589387E+01
  0
LINE
  8
0
 62
4
 10
-7.06369876E+01
 20
2.43589387E+01
 11
-7.02669876E+01
 21
2.37189387E+01
  0
LINE
  8
0
 62
4
 10
-7.34669876E+01
 20
1.69189387E+01
 11
-7.30969876E+01
 21
1.62789387E+01
  0
LINE
  8
0
 62
4
 10
-7.06369876E+01
 20
1.62789387E+01
 11
-7.02669876E+01
 21
1.69189387E+01
  0
LINE
  8
0
  6
CENTER
 62
2
 10
5.79430124E+01
 20
2.49289387E+01
 11
5.79430124E+01
 21
1.57089387E+01
  0
ARC
  8
0
 62
4
 10
-7.19103086E+01
 20
2.33489387E+01
 40
1.55830260E+00
 50
1.39598403E+02
 51
2.20401597E+02
  0
ARC
  8
0
 62
4
 10
-6.77756263E+01
 20
2.03189387E+01
 40
5.69186140E+00
 50
1.59213132E+02
 51
2.00786868E+02
  0
ARC
  8
0
 62
4
 10
-7.59718126E+01
 20
2.03189387E+01
 40
5.70445074E+00
 50
3.39261125E+02
 51
2.07388754E+01
  0
ARC
  8
0
 62
4
 10
-7.18371303E+01
 20
2.33489387E+01
 40
1.56857978E+00
 50
3.19917156E+02
 51
4.00828446E+01
  0
ARC
  8
0
 62
4
 10
-7.19103139E+01
 20
1.72889387E+01
 40
1.55829855E+00
 50
1.39598276E+02
 51
2.20401723E+02
  0
ARC
  8
0
 62
4
 10
-7.18371250E+01
 20
1.72889387E+01
 40
1.56857572E+00
 50
3.19917031E+02
 51
4.00829695E+01
  0
CIRCLE
  8
0
 62
7
 10
5.79495914E+01
 20
2.03239389E+01
 40
1.59999943E+00
  0
TEXT
  8
0
 62
7
 10
-1.63829251E+01
 20
1.59228860E+01
 40
1.50000000E+00
  1
PBDAAS10-7
 41
1.00000000E+00
  7
MONOTXT
  0
LINE
  8
0
  6
PHANTOM
 10
-5.19876037E-02
 20
6.71046486E+00
 11
-5.19876037E-02
 21
4.29898116E+01
  0
LINE
  8
0
 62
4
 10
-1.04216988E+02
 20
2.73089387E+01
 11
-1.04006988E+02
 21
2.75189387E+01
  0
LINE
  8
0
 62
4
 10
-1.01696988E+02
 20
2.73089387E+01
 11
-1.01906988E+02
 21
2.75189387E+01
  0
LINE
  8
0
 62
4
 10
-1.00906988E+02
 20
3.06189387E+01
 11
-1.01906988E+02
 21
2.96189387E+01
  0
LINE
  8
0
 62
4
 10
-1.05006988E+02
 20
3.06189387E+01
 11
-1.04006988E+02
 21
2.96189387E+01
  0
LINE
  8
0
 62
4
 10
-1.01906988E+02
 20
2.75189387E+01
 11
-1.04006988E+02
 21
2.75189387E+01
  0
LINE
  8
0
 62
4
 10
-1.01906988E+02
 20
2.96189387E+01
 11
-1.04006988E+02
 21
2.96189387E+01
  0
LINE
  8
0
 62
4
 10
-1.01906988E+02
 20
2.96189387E+01
 11
-1.01906988E+02
 21
2.75189387E+01
  0
LINE
  8
0
 62
4
 10
-1.04006988E+02
 20
2.96189387E+01
 11
-1.04006988E+02
 21
2.75189387E+01
  0
LINE
  8
0
 62
4
 10
-1.01456988E+02
 20
3.26189387E+01
 11
-1.01756988E+02
 21
3.23189387E+01
  0
LINE
  8
0
 62
4
 10
-1.04456988E+02
 20
3.26189387E+01
 11
-1.04156988E+02
 21
3.23189387E+01
  0
LINE
  8
0
 62
4
 10
-1.07306535E+02
 20
3.39528931E+01
 11
-1.07804183E+02
 21
3.40013352E+01
  0
LINE
  8
0
 62
4
 10
-1.07804183E+02
 20
3.40013352E+01
 11
-1.08510799E+02
 21
2.67422296E+01
  0
LINE
  8
0
 62
4
 10
-1.07786988E+02
 20
2.74689387E+01
 11
-1.07936282E+02
 21
2.74834713E+01
  0
LINE
  8
0
 62
4
 10
-1.07306535E+02
 20
3.39528931E+01
 11
-1.07966338E+02
 21
2.71747010E+01
  0
LINE
  8
0
 62
4
 10
-1.07786988E+02
 20
2.74689387E+01
 11
-1.07804408E+02
 21
2.72899771E+01
  0
LINE
  8
0
 62
4
 10
-9.94569876E+01
 20
2.88189387E+01
 11
-9.90369343E+01
 21
2.73089387E+01
  0
LINE
  8
0
 62
4
 10
-9.96069876E+01
 20
2.88189387E+01
 11
-9.91881580E+01
 21
2.73089387E+01
  0
LINE
  8
0
 62
4
 10
-1.06206988E+02
 20
3.23189387E+01
 11
-1.06206988E+02
 21
2.73089387E+01
  0
LINE
  8
0
 62
4
 10
-9.97069876E+01
 20
3.23189387E+01
 11
-9.97069876E+01
 21
2.88189387E+01
  0
LINE
  8
0
 62
4
 10
-9.97069876E+01
 20
3.23189387E+01
 11
-1.06206988E+02
 21
3.23189387E+01
  0
LINE
  8
0
 62
4
 10
-1.05006988E+02
 20
3.06189387E+01
 11
-1.05006988E+02
 21
2.73089387E+01
  0
LINE
  8
0
 62
4
 10
-1.00906988E+02
 20
3.06189387E+01
 11
-1.05006988E+02
 21
3.06189387E+01
  0
LINE
  8
0
 62
4
 10
-1.01956988E+02
 20
3.09189387E+01
 11
-1.01956988E+02
 21
3.06189387E+01
  0
LINE
  8
0
 62
4
 10
-1.03956988E+02
 20
3.09189387E+01
 11
-1.03956988E+02
 21
3.06189387E+01
  0
LINE
  8
0
 62
4
 10
-1.01956988E+02
 20
3.09189387E+01
 11
-1.03956988E+02
 21
3.09189387E+01
  0
LINE
  8
0
 62
4
 10
-9.97069876E+01
 20
3.16189387E+01
 11
-1.06206988E+02
 21
3.16189387E+01
  0
LINE
  8
0
 62
4
 10
-9.97069876E+01
 20
2.84189387E+01
 11
-1.00906988E+02
 21
2.84189387E+01
  0
LINE
  8
0
 62
4
 10
-9.97069876E+01
 20
2.88189387E+01
 11
-1.00906988E+02
 21
2.88189387E+01
  0
LINE
  8
0
 62
4
 10
-9.97069876E+01
 20
2.84189387E+01
 11
-9.97069876E+01
 21
2.73089387E+01
  0
LINE
  8
0
 62
4
 10
-1.00906988E+02
 20
3.06189387E+01
 11
-1.00906988E+02
 21
2.73089387E+01
  0
LINE
  8
0
 62
4
 10
-1.06456988E+02
 20
3.40189387E+01
 11
-1.06456988E+02
 21
2.81189387E+01
  0
LINE
  8
0
 62
4
 10
-9.94569876E+01
 20
3.40189387E+01
 11
-9.94569876E+01
 21
2.88189387E+01
  0
LINE
  8
0
 62
4
 10
-1.00456988E+02
 20
3.63189387E+01
 11
-1.05456988E+02
 21
3.63189387E+01
  0
LINE
  8
0
 62
4
 10
-9.94569876E+01
 20
3.53189387E+01
 11
-1.06456988E+02
 21
3.53189387E+01
  0
LINE
  8
0
 62
4
 10
-1.00956988E+02
 20
3.38189387E+01
 11
-1.04956988E+02
 21
3.38189387E+01
  0
LINE
  8
0
 62
4
 10
-9.99569876E+01
 20
3.45189387E+01
 11
-1.05956988E+02
 21
3.45189387E+01
  0
LINE
  8
0
 62
4
 10
-1.07256988E+02
 20
3.45189387E+01
 11
-1.07256988E+02
 21
2.81189387E+01
  0
LINE
  8
0
 62
4
 10
-9.86569876E+01
 20
3.45189387E+01
 11
-9.86569876E+01
 21
2.88189387E+01
  0
LINE
  8
0
 62
4
 10
-1.05016988E+02
 20
3.45189387E+01
 11
-1.04956988E+02
 21
3.38189387E+01
  0
LINE
  8
0
 62
4
 10
-1.00896988E+02
 20
3.45189387E+01
 11
-1.00956988E+02
 21
3.38189387E+01
  0
LINE
  8
0
 62
4
 10
-9.86569876E+01
 20
2.88189387E+01
 11
-9.94569876E+01
 21
2.88189387E+01
  0
LINE
  8
0
 62
4
 10
-1.06456988E+02
 20
2.81189387E+01
 11
-1.07256988E+02
 21
2.81189387E+01
  0
LINE
  8
0
 62
4
 10
-1.07256988E+02
 20
3.03189387E+01
 11
-1.07638602E+02
 21
3.05415473E+01
  0
LINE
  8
0
 62
4
 10
-1.08856988E+02
 20
3.36189387E+01
 11
-1.08856988E+02
 21
3.12489387E+01
  0
LINE
  8
0
 62
4
 10
-1.08056988E+02
 20
3.36189387E+01
 11
-1.08856988E+02
 21
3.36189387E+01
  0
LINE
  8
0
 62
4
 10
-1.08056988E+02
 20
3.36189387E+01
 11
-1.08056988E+02
 21
3.17089387E+01
  0
LINE
  8
0
 62
4
 10
-1.07256988E+02
 20
3.12489387E+01
 11
-1.07553698E+02
 21
3.14137776E+01
  0
LINE
  8
0
 62
4
 10
-9.96069876E+01
 20
3.40189387E+01
 11
-9.96069876E+01
 21
2.88189387E+01
  0
LINE
  8
0
 62
4
 10
-9.94569876E+01
 20
3.40189387E+01
 11
-9.96069876E+01
 21
3.40189387E+01
  0
LINE
  8
0
 62
4
 10
-1.08029137E+02
 20
3.16903714E+01
 11
-1.08056988E+02
 21
3.17089387E+01
  0
LINE
  8
0
 62
4
 10
-1.08114879E+02
 20
3.08095325E+01
 11
-1.08856988E+02
 21
3.12489387E+01
  0
LINE
  8
0
 62
4
 10
-1.01456988E+02
 20
3.63189387E+01
 11
-1.01456988E+02
 21
3.53189387E+01
  0
LINE
  8
0
 62
4
 10
-1.04456988E+02
 20
3.63189387E+01
 11
-1.04456988E+02
 21
3.53189387E+01
  0
LINE
  8
0
 62
6
 10
-1.04186988E+02
 20
3.63189387E+01
 11
-1.04186988E+02
 21
3.53189387E+01
  0
LINE
  8
0
 62
6
 10
-1.01726988E+02
 20
3.63189387E+01
 11
-1.01726988E+02
 21
3.53189387E+01
  0
LINE
  8
0
 62
4
 10
-1.05456988E+02
 20
3.68189387E+01
 11
-1.05456988E+02
 21
3.63189387E+01
  0
LINE
  8
0
 62
4
 10
-1.00456988E+02
 20
3.68189387E+01
 11
-1.00456988E+02
 21
3.63189387E+01
  0
LINE
  8
0
 62
4
 10
-1.01456988E+02
 20
3.78189387E+01
 11
-1.04456988E+02
 21
3.78189387E+01
  0
LINE
  8
0
 62
4
 10
-1.01456988E+02
 20
3.38189387E+01
 11
-1.01456988E+02
 21
3.26189387E+01
  0
LINE
  8
0
 62
6
 10
-1.01726988E+02
 20
3.38189387E+01
 11
-1.01726988E+02
 21
3.23489387E+01
  0
LINE
  8
0
 62
6
 10
-1.04186988E+02
 20
3.38189387E+01
 11
-1.04186988E+02
 21
3.23489387E+01
  0
LINE
  8
0
 62
4
 10
-1.04456988E+02
 20
3.38189387E+01
 11
-1.04456988E+02
 21
3.26189387E+01
  0
LINE
  8
0
 62
4
 10
-1.01656988E+02
 20
2.73189387E+01
 11
-1.04256988E+02
 21
2.73189387E+01
  0
ARC
  8
0
 62
4
 10
-9.99571478E+01
 20
3.40187785E+01
 40
5.00160181E-01
 50
1.83465799E-02
 51
9.00000002E+01
  0
ARC
  8
0
 62
4
 10
-1.05964613E+02
 20
3.40265639E+01
 40
4.92433852E-01
 50
8.91127567E+01
 51
1.80887243E+02
  0
ARC
  8
0
 62
4
 10
-9.94571259E+01
 20
3.45188003E+01
 40
8.00138358E-01
 50
9.90662024E-03
 51
9.00000002E+01
  0
ARC
  8
0
 62
4
 10
-1.06464613E+02
 20
3.45265639E+01
 40
7.92411497E-01
 50
8.94486475E+01
 51
1.80551352E+02
  0
ARC
  8
0
 62
4
 10
-1.01457117E+02
 20
3.68188091E+01
 40
1.00012957E+00
 50
7.42247612E-03
 51
9.00000002E+01
  0
ARC
  8
0
 62
4
 10
-1.04464614E+02
 20
3.68265654E+01
 40
9.92402587E-01
 50
8.95596718E+01
 51
1.80440329E+02
  0
CIRCLE
  8
0
 62
2
 10
-1.02956988E+02
 20
2.03189387E+01
 40
1.62100000E+00
  0
CIRCLE
  8
0
 62
2
 10
-1.02956988E+02
 20
2.03189387E+01
 40
5.05300000E+00
  0
LINE
  8
0
 62
7
 10
-9.59569876E+01
 20
1.54989387E+01
 11
-9.59569876E+01
 21
2.51289387E+01
  0
LINE
  8
0
 62
7
 10
-1.09956988E+02
 20
1.54989387E+01
 11
-1.09956988E+02
 21
2.51289387E+01
  0
LINE
  8
0
 62
7
 10
-9.81369876E+01
 20
2.73089387E+01
 11
-1.07776988E+02
 21
2.73089387E+01
  0
LINE
  8
0
 62
7
 10
-9.81369876E+01
 20
1.33189387E+01
 11
-1.07776988E+02
 21
1.33189387E+01
  0
LINE
  8
0
 62
4
 10
-9.94569876E+01
 20
1.82989387E+01
 11
-1.02956988E+02
 21
1.62789387E+01
  0
LINE
  8
0
 62
4
 10
-1.02956988E+02
 20
2.43489387E+01
 11
-1.06456988E+02
 21
2.23389387E+01
  0
LINE
  8
0
 62
4
 10
-9.94569876E+01
 20
1.82989387E+01
 11
-9.94569876E+01
 21
2.23389387E+01
  0
LINE
  8
0
 62
4
 10
-1.06456988E+02
 20
1.82989387E+01
 11
-1.06456988E+02
 21
2.23389387E+01
  0
LINE
  8
0
 62
4
 10
-9.94569876E+01
 20
2.23389387E+01
 11
-1.02956988E+02
 21
2.43489387E+01
  0
LINE
  8
0
 62
4
 10
-1.02956988E+02
 20
1.62789387E+01
 11
-1.06456988E+02
 21
1.82989387E+01
  0
LINE
  8
0
  6
CENTER
 62
2
 10
-1.02956988E+02
 20
1.19660625E+01
 11
-1.02956988E+02
 21
3.92836416E+01
  0
CIRCLE
  8
0
 62
7
 10
-1.02949940E+02
 20
2.03139385E+01
 40
2.00000000E+00
  0
CIRCLE
  8
0
 62
4
 10
-1.02949940E+02
 20
2.03139385E+01
 40
3.50000000E+00
  0
CIRCLE
  8
0
 62
7
 10
-1.02949940E+02
 20
2.03139385E+01
 40
6.00000000E+00
  0
ARC
  8
0
 62
7
 10
-1.02955961E+02
 20
2.03199651E+01
 40
8.50039217E+00
 50
2.14551962E+02
 51
2.35448038E+02
  0
ARC
  8
0
 62
7
 10
-1.02955961E+02
 20
2.03079120E+01
 40
8.50039243E+00
 50
1.24551963E+02
 51
1.45448037E+02
  0
CIRCLE
  8
0
 62
7
 10
-1.02949940E+02
 20
2.03139385E+01
 40
7.00000000E+00
  0
ARC
  8
0
 62
7
 10
-1.02950964E+02
 20
2.03149620E+01
 40
8.49058772E+00
 50
3.45397616E+01
 51
5.54602383E+01
  0
ARC
  8
0
 62
7
 10
-1.02950964E+02
 20
2.03129151E+01
 40
8.49058746E+00
 50
3.04539761E+02
 51
3.25460239E+02
  0
LINE
  8
0
  6
CENTER
 62
2
 10
-9.44677606E+01
 20
2.03189387E+01
 11
-1.11481263E+02
 21
2.03189387E+01
  0
ARC
  8
0
 62
7
 10
9.62280122E+01
 20
2.03230298E+01
 40
7.00000000E+00
 50
1.82165747E+02
 51
2.56829056E+02
  0
LINE
  8
0
 62
4
 10
9.47330124E+01
 20
3.26189387E+01
 11
9.50330124E+01
 21
3.23189387E+01
  0
LINE
  8
0
 62
4
 10
9.77330124E+01
 20
3.26189387E+01
 11
9.74330124E+01
 21
3.23189387E+01
  0
LINE
  8
0
 62
4
 10
1.00582560E+02
 20
3.39528931E+01
 11
1.01080207E+02
 21
3.40013352E+01
  0
LINE
  8
0
 62
4
 10
1.01080207E+02
 20
3.40013352E+01
 11
1.01786665E+02
 21
2.67438671E+01
  0
LINE
  8
0
 62
4
 10
1.01063012E+02
 20
2.74689387E+01
 11
1.01212307E+02
 21
2.74834713E+01
  0
LINE
  8
0
 62
4
 10
1.00582560E+02
 20
3.39528931E+01
 11
1.01242076E+02
 21
2.71776503E+01
  0
LINE
  8
0
 62
4
 10
1.01063012E+02
 20
2.74689387E+01
 11
1.01080114E+02
 21
2.72932536E+01
  0
LINE
  8
0
 62
4
 10
9.27330124E+01
 20
2.88189387E+01
 11
9.23157409E+01
 21
2.73189387E+01
  0
LINE
  8
0
 62
4
 10
9.28830124E+01
 20
2.88189387E+01
 11
9.24669565E+01
 21
2.73189387E+01
  0
CIRCLE
  8
0
 62
4
 10
9.62330124E+01
 20
2.86189387E+01
 40
1.30000000E+00
  0
LINE
  8
0
 62
4
 10
9.94830124E+01
 20
3.23189387E+01
 11
9.94830124E+01
 21
2.73189387E+01
  0
LINE
  8
0
 62
4
 10
9.29830124E+01
 20
3.23189387E+01
 11
9.29830124E+01
 21
2.88189387E+01
  0
LINE
  8
0
 62
4
 10
9.29830124E+01
 20
3.23189387E+01
 11
9.94830124E+01
 21
3.23189387E+01
  0
LINE
  8
0
 62
4
 10
9.82830124E+01
 20
3.06189387E+01
 11
9.82830124E+01
 21
2.73189387E+01
  0
LINE
  8
0
 62
4
 10
9.41830124E+01
 20
3.06189387E+01
 11
9.82830124E+01
 21
3.06189387E+01
  0
LINE
  8
0
 62
4
 10
9.52330124E+01
 20
3.09189387E+01
 11
9.52330124E+01
 21
3.06189387E+01
  0
LINE
  8
0
 62
4
 10
9.72330124E+01
 20
3.09189387E+01
 11
9.72330124E+01
 21
3.06189387E+01
  0
LINE
  8
0
 62
4
 10
9.52330124E+01
 20
3.09189387E+01
 11
9.72330124E+01
 21
3.09189387E+01
  0
LINE
  8
0
 62
4
 10
9.29830124E+01
 20
3.16189387E+01
 11
9.94830124E+01
 21
3.16189387E+01
  0
LINE
  8
0
 62
4
 10
9.29830124E+01
 20
2.84189387E+01
 11
9.41830124E+01
 21
2.84189387E+01
  0
LINE
  8
0
 62
4
 10
9.29830124E+01
 20
2.88189387E+01
 11
9.41830124E+01
 21
2.88189387E+01
  0
LINE
  8
0
 62
4
 10
9.29830124E+01
 20
2.84189387E+01
 11
9.29830124E+01
 21
2.73189387E+01
  0
LINE
  8
0
 62
4
 10
9.41830124E+01
 20
3.06189387E+01
 11
9.41830124E+01
 21
2.73189387E+01
  0
LINE
  8
0
 62
4
 10
9.97330124E+01
 20
3.40189387E+01
 11
9.97330124E+01
 21
2.81189387E+01
  0
LINE
  8
0
 62
4
 10
9.27330124E+01
 20
3.40189387E+01
 11
9.27330124E+01
 21
2.88189387E+01
  0
LINE
  8
0
 62
4
 10
9.37330124E+01
 20
3.63189387E+01
 11
9.87330124E+01
 21
3.63189387E+01
  0
LINE
  8
0
 62
4
 10
9.27330124E+01
 20
3.53189387E+01
 11
9.97330124E+01
 21
3.53189387E+01
  0
LINE
  8
0
 62
4
 10
9.42330124E+01
 20
3.38189387E+01
 11
9.82330124E+01
 21
3.38189387E+01
  0
LINE
  8
0
 62
4
 10
9.32330124E+01
 20
3.45189387E+01
 11
9.92330124E+01
 21
3.45189387E+01
  0
LINE
  8
0
 62
4
 10
1.00533012E+02
 20
3.45189387E+01
 11
1.00533012E+02
 21
2.81189387E+01
  0
LINE
  8
0
 62
4
 10
9.19330124E+01
 20
3.45189387E+01
 11
9.19330124E+01
 21
2.88189387E+01
  0
LINE
  8
0
 62
4
 10
9.82930124E+01
 20
3.45189387E+01
 11
9.82330124E+01
 21
3.38189387E+01
  0
LINE
  8
0
 62
4
 10
9.41730124E+01
 20
3.45189387E+01
 11
9.42330124E+01
 21
3.38189387E+01
  0
LINE
  8
0
 62
4
 10
9.19330124E+01
 20
2.88189387E+01
 11
9.27330124E+01
 21
2.88189387E+01
  0
LINE
  8
0
 62
4
 10
9.97330124E+01
 20
2.81189387E+01
 11
1.00533012E+02
 21
2.81189387E+01
  0
LINE
  8
0
 62
4
 10
1.00533012E+02
 20
3.03189387E+01
 11
1.00914627E+02
 21
3.05415473E+01
  0
LINE
  8
0
 62
4
 10
1.02133012E+02
 20
3.36189387E+01
 11
1.02133012E+02
 21
3.12489387E+01
  0
LINE
  8
0
 62
4
 10
1.01333012E+02
 20
3.36189387E+01
 11
1.02133012E+02
 21
3.36189387E+01
  0
LINE
  8
0
 62
4
 10
1.01333012E+02
 20
3.36189387E+01
 11
1.01333012E+02
 21
3.17089387E+01
  0
LINE
  8
0
 62
4
 10
1.00533012E+02
 20
3.12489387E+01
 11
1.00829722E+02
 21
3.14137776E+01
  0
LINE
  8
0
 62
4
 10
9.28830124E+01
 20
3.40189387E+01
 11
9.28830124E+01
 21
2.88189387E+01
  0
LINE
  8
0
 62
4
 10
9.27330124E+01
 20
3.40189387E+01
 11
9.28830124E+01
 21
3.40189387E+01
  0
LINE
  8
0
 62
4
 10
1.01305161E+02
 20
3.16903714E+01
 11
1.01333012E+02
 21
3.17089387E+01
  0
LINE
  8
0
 62
4
 10
1.01390904E+02
 20
3.08095325E+01
 11
1.02133012E+02
 21
3.12489387E+01
  0
LINE
  8
0
 62
4
 10
9.47330124E+01
 20
3.63189387E+01
 11
9.47330124E+01
 21
3.53189387E+01
  0
LINE
  8
0
 62
4
 10
9.77330124E+01
 20
3.63189387E+01
 11
9.77330124E+01
 21
3.53189387E+01
  0
LINE
  8
0
 62
6
 10
9.74630124E+01
 20
3.63189387E+01
 11
9.74630124E+01
 21
3.53189387E+01
  0
LINE
  8
0
 62
6
 10
9.50030124E+01
 20
3.63189387E+01
 11
9.50030124E+01
 21
3.53189387E+01
  0
LINE
  8
0
 62
4
 10
9.87330124E+01
 20
3.68189387E+01
 11
9.87330124E+01
 21
3.63189387E+01
  0
LINE
  8
0
 62
4
 10
9.37330124E+01
 20
3.68189387E+01
 11
9.37330124E+01
 21
3.63189387E+01
  0
LINE
  8
0
 62
4
 10
9.47330124E+01
 20
3.78189387E+01
 11
9.77330124E+01
 21
3.78189387E+01
  0
LINE
  8
0
 62
4
 10
9.47330124E+01
 20
3.38189387E+01
 11
9.47330124E+01
 21
3.26189387E+01
  0
LINE
  8
0
 62
6
 10
9.50030124E+01
 20
3.38189387E+01
 11
9.50030124E+01
 21
3.23489387E+01
  0
LINE
  8
0
 62
6
 10
9.74630124E+01
 20
3.38189387E+01
 11
9.74630124E+01
 21
3.23489387E+01
  0
LINE
  8
0
 62
4
 10
9.77330124E+01
 20
3.38189387E+01
 11
9.77330124E+01
 21
3.26189387E+01
  0
LINE
  8
0
 62
4
 10
9.49330124E+01
 20
2.99189387E+01
 11
9.75330124E+01
 21
2.99189387E+01
  0
LINE
  8
0
 62
4
 10
9.75330124E+01
 20
2.99189387E+01
 11
9.75330124E+01
 21
2.73189387E+01
  0
LINE
  8
0
 62
4
 10
9.49330124E+01
 20
2.99189387E+01
 11
9.49330124E+01
 21
2.73189387E+01
  0
LINE
  8
0
 62
4
 10
9.41830124E+01
 20
3.06189387E+01
 11
9.49330124E+01
 21
2.99189387E+01
  0
LINE
  8
0
 62
4
 10
9.75330124E+01
 20
2.99189387E+01
 11
9.82830124E+01
 21
3.06189387E+01
  0
ARC
  8
0
 62
4
 10
9.32331726E+01
 20
3.40187785E+01
 40
5.00160181E-01
 50
9.00000002E+01
 51
1.79981654E+02
  0
ARC
  8
0
 62
4
 10
9.92406376E+01
 20
3.40265639E+01
 40
4.92433852E-01
 50
3.59112757E+02
 51
9.08872431E+01
  0
ARC
  8
0
 62
4
 10
9.27331507E+01
 20
3.45188003E+01
 40
8.00138358E-01
 50
9.00000002E+01
 51
1.79990093E+02
  0
ARC
  8
0
 62
4
 10
9.97406376E+01
 20
3.45265639E+01
 40
7.92411497E-01
 50
3.59448647E+02
 51
9.05513523E+01
  0
ARC
  8
0
 62
4
 10
9.47331420E+01
 20
3.68188091E+01
 40
1.00012957E+00
 50
9.00000002E+01
 51
1.79992578E+02
  0
ARC
  8
0
 62
4
 10
9.77406391E+01
 20
3.68265654E+01
 40
9.92402587E-01
 50
3.59559672E+02
 51
9.04403286E+01
  0
LINE
  8
0
  6
CENTER
 62
2
 10
1.05063012E+02
 20
2.03189387E+01
 11
8.77330124E+01
 21
2.03189387E+01
  0
LINE
  8
0
  6
CENTER
 62
2
 10
9.62330124E+01
 20
1.16118065E+01
 11
9.62330124E+01
 21
3.92594322E+01
  0
LINE
  8
0
 62
7
 10
9.46330124E+01
 20
1.33189387E+01
 11
9.46330124E+01
 21
2.73189387E+01
  0
LINE
  8
0
 62
7
 10
9.78330124E+01
 20
1.33189387E+01
 11
9.78330124E+01
 21
2.73189387E+01
  0
LINE
  8
0
 62
7
 10
1.01043012E+02
 20
1.33189387E+01
 11
9.14130124E+01
 21
1.33189387E+01
  0
LINE
  8
0
 62
7
 10
8.92330124E+01
 20
1.54989387E+01
 11
8.92330124E+01
 21
2.51389387E+01
  0
LINE
  8
0
 62
7
 10
1.03223012E+02
 20
1.54989387E+01
 11
1.03223012E+02
 21
2.51389387E+01
  0
LINE
  8
0
 62
7
 10
1.01043012E+02
 20
2.73189387E+01
 11
9.14130124E+01
 21
2.73189387E+01
  0
ARC
  8
0
 62
7
 10
9.62234650E+01
 20
2.03184860E+01
 40
8.49833516E+00
 50
3.04549405E+02
 51
3.25450595E+02
  0
ARC
  8
0
 62
7
 10
9.62325596E+01
 20
2.03184859E+01
 40
8.49833489E+00
 50
2.14549405E+02
 51
2.35450596E+02
  0
ARC
  8
0
 62
7
 10
9.62275579E+01
 20
2.03234841E+01
 40
8.49264306E+00
 50
3.45423216E+01
 51
5.54576784E+01
  0
ARC
  8
0
 62
7
 10
9.62284667E+01
 20
2.03234843E+01
 40
8.49264280E+00
 50
1.24542322E+02
 51
1.45457679E+02
  0
ARC
  8
0
 62
7
 10
9.62280122E+01
 20
2.03230298E+01
 40
7.00000000E+00
 50
1.03170944E+02
 51
1.77834253E+02
  0
ARC
  8
0
 62
7
 10
9.62230124E+01
 20
2.03189387E+01
 40
7.00000000E+00
 50
2.83297072E+02
 51
7.67029280E+01
  0
LINE
  8
0
  6
CENTER
 62
2
 10
5.79430124E+01
 20
6.40256053E+01
 11
5.79430124E+01
 21
4.65631391E+01
  0
LINE
  8
0
  6
CENTER
 62
6
 10
-2.35469876E+01
 20
6.26189387E+01
 11
-2.35469876E+01
 21
4.71389387E+01
  0
LINE
  8
0
  6
CENTER
 62
6
 10
2.34430124E+01
 20
6.26189387E+01
 11
2.34430124E+01
 21
4.71389387E+01
  0
LINE
  8
0
 62
7
 10
4.99430124E+01
 20
5.69189387E+01
 11
4.99430124E+01
 21
5.37189387E+01
  0
LINE
  8
0
 62
7
 10
4.09430124E+01
 20
4.83289387E+01
 11
4.09430124E+01
 21
6.23189387E+01
  0
CIRCLE
  8
0
 62
7
 10
4.54430124E+01
 20
5.53189387E+01
 40
2.06700000E+00
  0
CIRCLE
  8
0
 62
2
 10
4.54396066E+01
 20
5.53239389E+01
 40
2.50000000E+00
  0
LINE
  8
0
 62
4
 10
2.14430124E+01
 20
6.11834176E+01
 11
2.14430124E+01
 21
6.01661336E+01
  0
LINE
  8
0
 62
4
 10
1.89430124E+01
 20
4.96689387E+01
 11
1.89430124E+01
 21
6.11834176E+01
  0
LINE
  8
0
 62
4
 10
2.79430124E+01
 20
4.96689387E+01
 11
2.79430124E+01
 21
6.11834176E+01
  0
LINE
  8
0
 62
4
 10
2.79430124E+01
 20
6.01661336E+01
 11
1.89430124E+01
 21
6.01661336E+01
  0
LINE
  8
0
 62
6
 10
3.00601333E+00
 20
5.66189387E+01
 11
5.60601333E+00
 21
5.40189387E+01
  0
LINE
  8
0
 62
4
 10
1.09430124E+01
 20
5.33189387E+01
 11
7.94301241E+00
 21
5.40189387E+01
  0
LINE
  8
0
 62
4
 10
7.94301240E+00
 20
5.66189387E+01
 11
7.94301240E+00
 21
5.40189387E+01
  0
LINE
  8
0
 62
4
 10
7.94301241E+00
 20
5.40189387E+01
 11
5.60601333E+00
 21
5.40189387E+01
  0
LINE
  8
0
 62
4
 10
7.94301241E+00
 20
5.66189387E+01
 11
3.00601333E+00
 21
5.66189387E+01
  0
LINE
  8
0
 62
4
 10
1.09430124E+01
 20
5.73189387E+01
 11
7.94301240E+00
 21
5.66189387E+01
  0
LINE
  8
0
 62
4
 10
2.79430124E+01
 20
5.96189754E+01
 11
1.89430124E+01
 21
5.96189754E+01
  0
LINE
  8
0
 62
4
 10
2.79430124E+01
 20
5.10189387E+01
 11
1.89430124E+01
 21
5.10189387E+01
  0
LINE
  8
0
 62
4
 10
3.04430124E+01
 20
5.20689387E+01
 11
3.04430124E+01
 21
5.85689387E+01
  0
LINE
  8
0
 62
4
 10
2.79430124E+01
 20
4.96689387E+01
 11
1.89430124E+01
 21
4.96689387E+01
  0
LINE
  8
0
 62
4
 10
2.23330124E+01
 20
5.42189387E+01
 11
2.23830124E+01
 21
5.42589387E+01
  0
LINE
  8
0
 62
4
 10
2.45030124E+01
 20
5.42589387E+01
 11
2.23830124E+01
 21
5.63789387E+01
  0
LINE
  8
0
 62
4
 10
2.24330124E+01
 20
5.43189387E+01
 11
2.45030124E+01
 21
5.63789387E+01
  0
LINE
  8
0
 62
4
 10
1.09430124E+01
 20
5.73189387E+01
 11
1.09430124E+01
 21
5.33189387E+01
  0
LINE
  8
0
 62
4
 10
3.59430124E+01
 20
5.63189387E+01
 11
3.59430124E+01
 21
5.43189387E+01
  0
LINE
  8
0
 62
4
 10
3.49430124E+01
 20
5.33189387E+01
 11
3.04430124E+01
 21
5.33189387E+01
  0
LINE
  8
0
 62
4
 10
3.49430124E+01
 20
5.73189387E+01
 11
3.04430124E+01
 21
5.73189387E+01
  0
LINE
  8
0
 62
4
 10
3.49430124E+01
 20
5.73189387E+01
 11
3.49430124E+01
 21
5.33189387E+01
  0
LINE
  8
0
 62
4
 10
3.59430124E+01
 20
5.63189387E+01
 11
3.49430124E+01
 21
5.73189387E+01
  0
LINE
  8
0
 62
4
 10
3.59430124E+01
 20
5.43189387E+01
 11
3.49430124E+01
 21
5.33189387E+01
  0
LINE
  8
0
 62
4
 10
3.04430124E+01
 20
5.20689387E+01
 11
2.79430124E+01
 21
5.20689387E+01
  0
LINE
  8
0
 62
4
 10
3.04430124E+01
 20
5.85689387E+01
 11
2.79430124E+01
 21
5.85689387E+01
  0
LINE
  8
0
 62
4
 10
1.64430124E+01
 20
5.20689387E+01
 11
1.64430124E+01
 21
5.85689387E+01
  0
LINE
  8
0
 62
4
 10
1.89430124E+01
 20
5.85689387E+01
 11
1.64430124E+01
 21
5.85689387E+01
  0
LINE
  8
0
 62
4
 10
1.89430124E+01
 20
5.20689387E+01
 11
1.64430124E+01
 21
5.20689387E+01
  0
LINE
  8
0
 62
4
 10
1.64430124E+01
 20
5.73189387E+01
 11
1.09430124E+01
 21
5.73189387E+01
  0
LINE
  8
0
 62
4
 10
1.64430124E+01
 20
5.33189387E+01
 11
1.09430124E+01
 21
5.33189387E+01
  0
CIRCLE
  8
0
 62
4
 10
2.34438876E+01
 20
5.53164802E+01
 40
2.50000000E+00
  0
LINE
  8
0
 62
4
 10
2.54430124E+01
 20
6.04189387E+01
 11
2.14430124E+01
 21
6.04189387E+01
  0
LINE
  8
0
 62
4
 10
2.79430124E+01
 20
6.11834176E+01
 11
1.89430124E+01
 21
6.11834176E+01
  0
LINE
  8
0
 62
4
 10
2.54430124E+01
 20
6.01661336E+01
 11
2.54430124E+01
 21
6.11834176E+01
  0
LINE
  8
0
 62
7
 10
2.79430124E+01
 20
4.98289387E+01
 11
4.09430124E+01
 21
4.98289387E+01
  0
LINE
  8
0
 62
7
 10
1.89430124E+01
 20
6.08189387E+01
 11
-1.90469876E+01
 21
6.08189387E+01
  0
LINE
  8
0
 62
7
 10
-1.90469876E+01
 20
4.98289387E+01
 11
1.89430124E+01
 21
4.98289387E+01
  0
LINE
  8
0
 62
7
 10
-2.80469876E+01
 20
6.08189387E+01
 11
-3.80469876E+01
 21
6.08189387E+01
  0
LINE
  8
0
 62
4
 10
-2.15469876E+01
 20
6.11834176E+01
 11
-2.15469876E+01
 21
6.01661336E+01
  0
LINE
  8
0
 62
4
 10
-1.90469876E+01
 20
4.96689387E+01
 11
-1.90469876E+01
 21
6.11834176E+01
  0
LINE
  8
0
 62
4
 10
-2.80469876E+01
 20
4.96689387E+01
 11
-2.80469876E+01
 21
6.11834176E+01
  0
LINE
  8
0
 62
4
 10
-2.80469876E+01
 20
6.01661336E+01
 11
-1.90469876E+01
 21
6.01661336E+01
  0
LINE
  8
0
 62
6
 10
-3.10998852E+00
 20
5.66189387E+01
 11
-5.70998852E+00
 21
5.40189387E+01
  0
LINE
  8
0
 62
4
 10
-1.10469876E+01
 20
5.33189387E+01
 11
-8.04698761E+00
 21
5.40189387E+01
  0
LINE
  8
0
 62
4
 10
-8.04698760E+00
 20
5.66189387E+01
 11
-8.04698760E+00
 21
5.40189387E+01
  0
LINE
  8
0
 62
4
 10
-8.04698761E+00
 20
5.40189387E+01
 11
-5.70998852E+00
 21
5.40189387E+01
  0
LINE
  8
0
 62
4
 10
-8.04698761E+00
 20
5.66189387E+01
 11
-3.10998852E+00
 21
5.66189387E+01
  0
LINE
  8
0
 62
4
 10
-1.10469876E+01
 20
5.73189387E+01
 11
-8.04698760E+00
 21
5.66189387E+01
  0
LINE
  8
0
 62
4
 10
-2.80469876E+01
 20
5.96189754E+01
 11
-1.90469876E+01
 21
5.96189754E+01
  0
LINE
  8
0
 62
4
 10
-2.80469876E+01
 20
5.10189387E+01
 11
-1.90469876E+01
 21
5.10189387E+01
  0
LINE
  8
0
 62
4
 10
-3.05469876E+01
 20
5.20689387E+01
 11
-3.05469876E+01
 21
5.85689387E+01
  0
LINE
  8
0
 62
4
 10
-2.80469876E+01
 20
4.96689387E+01
 11
-1.90469876E+01
 21
4.96689387E+01
  0
LINE
  8
0
 62
4
 10
-2.24369876E+01
 20
5.42189387E+01
 11
-2.24869876E+01
 21
5.42589387E+01
  0
LINE
  8
0
 62
4
 10
-2.46069876E+01
 20
5.42589387E+01
 11
-2.24869876E+01
 21
5.63789387E+01
  0
LINE
  8
0
 62
4
 10
-2.25369876E+01
 20
5.43189387E+01
 11
-2.46069876E+01
 21
5.63789387E+01
  0
LINE
  8
0
 62
4
 10
-1.10469876E+01
 20
5.73189387E+01
 11
-1.10469876E+01
 21
5.33189387E+01
  0
LINE
  8
0
 62
4
 10
-3.60469876E+01
 20
5.63189387E+01
 11
-3.60469876E+01
 21
5.43189387E+01
  0
LINE
  8
0
 62
4
 10
-3.50469876E+01
 20
5.33189387E+01
 11
-3.05469876E+01
 21
5.33189387E+01
  0
LINE
  8
0
 62
4
 10
-3.50469876E+01
 20
5.73189387E+01
 11
-3.05469876E+01
 21
5.73189387E+01
  0
LINE
  8
0
 62
4
 10
-3.50469876E+01
 20
5.73189387E+01
 11
-3.50469876E+01
 21
5.33189387E+01
  0
LINE
  8
0
 62
4
 10
-3.60469876E+01
 20
5.63189387E+01
 11
-3.50469876E+01
 21
5.73189387E+01
  0
LINE
  8
0
 62
4
 10
-3.60469876E+01
 20
5.43189387E+01
 11
-3.50469876E+01
 21
5.33189387E+01
  0
LINE
  8
0
 62
4
 10
-3.05469876E+01
 20
5.20689387E+01
 11
-2.80469876E+01
 21
5.20689387E+01
  0
LINE
  8
0
 62
4
 10
-3.05469876E+01
 20
5.85689387E+01
 11
-2.80469876E+01
 21
5.85689387E+01
  0
LINE
  8
0
 62
4
 10
-1.65469876E+01
 20
5.20689387E+01
 11
-1.65469876E+01
 21
5.85689387E+01
  0
LINE
  8
0
 62
4
 10
-1.90469876E+01
 20
5.85689387E+01
 11
-1.65469876E+01
 21
5.85689387E+01
  0
LINE
  8
0
 62
4
 10
-1.90469876E+01
 20
5.20689387E+01
 11
-1.65469876E+01
 21
5.20689387E+01
  0
LINE
  8
0
 62
4
 10
-1.65469876E+01
 20
5.73189387E+01
 11
-1.10469876E+01
 21
5.73189387E+01
  0
LINE
  8
0
 62
4
 10
-1.65469876E+01
 20
5.33189387E+01
 11
-1.10469876E+01
 21
5.33189387E+01
  0
CIRCLE
  8
0
 62
4
 10
-2.35478628E+01
 20
5.53164802E+01
 40
2.50000000E+00
  0
LINE
  8
0
 62
4
 10
-2.55469876E+01
 20
6.04189387E+01
 11
-2.15469876E+01
 21
6.04189387E+01
  0
LINE
  8
0
 62
4
 10
-2.80469876E+01
 20
6.11834176E+01
 11
-1.90469876E+01
 21
6.11834176E+01
  0
LINE
  8
0
 62
4
 10
-2.55469876E+01
 20
6.01661336E+01
 11
-2.55469876E+01
 21
6.11834176E+01
  0
ARC
  8
0
 62
7
 10
4.54430124E+01
 20
5.53189387E+01
 40
2.06700000E+00
 50
2.44155050E+02
 51
3.21028716E+02
  0
LINE
  8
0
  6
CENTER
 62
2
 10
4.54430124E+01
 20
5.05089387E+01
 11
4.54430124E+01
 21
6.01389387E+01
  0
ARC
  8
0
 62
2
 10
4.54396066E+01
 20
5.53239389E+01
 40
2.50000000E+00
 50
2.33299136E+02
 51
3.28533492E+02
  0
CIRCLE
  8
0
 62
7
 10
-4.25469876E+01
 20
5.53189387E+01
 40
2.06700000E+00
  0
LINE
  8
0
  6
CENTER
 62
2
 10
-4.25469876E+01
 20
5.05089387E+01
 11
-4.25469876E+01
 21
6.01389387E+01
  0
LINE
  8
0
 62
2
 10
-6.20469876E+01
 20
6.03719387E+01
 11
-5.35469876E+01
 21
6.03719387E+01
  0
LINE
  8
0
 62
2
 10
-6.20469876E+01
 20
5.02759387E+01
 11
-5.35469876E+01
 21
5.02759387E+01
  0
LINE
  8
0
 62
7
 10
4.09430124E+01
 20
4.83289387E+01
 11
6.29430124E+01
 21
4.83289387E+01
  0
LINE
  8
0
 62
7
 10
-6.20469876E+01
 20
5.01289387E+01
 11
-6.20469876E+01
 21
5.53189387E+01
  0
LINE
  8
0
 62
7
 10
-6.12469876E+01
 20
4.93289387E+01
 11
-6.20469876E+01
 21
5.01289387E+01
  0
LINE
  8
0
 62
7
 10
-5.20469876E+01
 20
4.83289387E+01
 11
-3.80469876E+01
 21
4.83289387E+01
  0
LINE
  8
0
 62
7
 10
-5.35469876E+01
 20
4.93289387E+01
 11
-5.35469876E+01
 21
5.53189387E+01
  0
LINE
  8
0
 62
7
 10
-6.12469876E+01
 20
5.53189387E+01
 11
-6.12469876E+01
 21
4.93289387E+01
  0
LINE
  8
0
 62
7
 10
4.26430124E+01
 20
5.05089387E+01
 11
4.26430124E+01
 21
4.83289387E+01
  0
LINE
  8
0
 62
7
 10
-3.97469876E+01
 20
5.05089387E+01
 11
-3.97469876E+01
 21
4.83289387E+01
  0
LINE
  8
0
 62
7
 10
-5.03469876E+01
 20
5.05089387E+01
 11
-5.03469876E+01
 21
4.83289387E+01
  0
LINE
  8
0
 62
7
 10
-6.12469876E+01
 20
4.93289387E+01
 11
-5.20469876E+01
 21
4.93289387E+01
  0
LINE
  8
0
 62
7
 10
-3.80469876E+01
 20
6.23189387E+01
 11
-3.80469876E+01
 21
4.83289387E+01
  0
LINE
  8
0
 62
7
 10
-6.20469876E+01
 20
6.05189387E+01
 11
-6.20469876E+01
 21
5.53189387E+01
  0
LINE
  8
0
 62
7
 10
-5.20469876E+01
 20
6.23189387E+01
 11
-5.20469876E+01
 21
4.83289387E+01
  0
LINE
  8
0
 62
7
 10
-5.35469876E+01
 20
6.13189387E+01
 11
-5.35469876E+01
 21
5.53189387E+01
  0
LINE
  8
0
 62
7
 10
-6.12469876E+01
 20
5.53189387E+01
 11
-6.12469876E+01
 21
6.13189387E+01
  0
LINE
  8
0
 62
7
 10
4.09430124E+01
 20
6.23189387E+01
 11
6.29430124E+01
 21
6.23189387E+01
  0
LINE
  8
0
 62
7
 10
-5.20469876E+01
 20
6.23189387E+01
 11
-3.80469876E+01
 21
6.23189387E+01
  0
LINE
  8
0
 62
7
 10
4.26430124E+01
 20
6.01389387E+01
 11
4.26430124E+01
 21
6.23189387E+01
  0
LINE
  8
0
 62
7
 10
-3.97469876E+01
 20
6.01389387E+01
 11
-3.97469876E+01
 21
6.23189387E+01
  0
LINE
  8
0
 62
7
 10
-5.03469876E+01
 20
6.01389387E+01
 11
-5.03469876E+01
 21
6.23189387E+01
  0
LINE
  8
0
 62
7
 10
-6.12469876E+01
 20
6.13189387E+01
 11
-6.20469876E+01
 21
6.05189387E+01
  0
LINE
  8
0
 62
7
 10
-6.12469876E+01
 20
6.13189387E+01
 11
-5.20469876E+01
 21
6.13189387E+01
  0
LINE
  8
0
 62
7
 10
4.26430124E+01
 20
6.01389387E+01
 11
6.12430124E+01
 21
6.01389387E+01
  0
LINE
  8
0
 62
7
 10
4.26430124E+01
 20
5.05089387E+01
 11
6.12430124E+01
 21
5.05089387E+01
  0
LINE
  8
0
 62
7
 10
-5.03469876E+01
 20
6.01389387E+01
 11
-3.97469876E+01
 21
6.01389387E+01
  0
LINE
  8
0
 62
7
 10
-5.03469876E+01
 20
5.05089387E+01
 11
-3.97469876E+01
 21
5.05089387E+01
  0
LINE
  8
0
 62
7
 10
6.29430124E+01
 20
4.83289387E+01
 11
6.29430124E+01
 21
5.37189387E+01
  0
LINE
  8
0
 62
7
 10
4.09430124E+01
 20
6.08189387E+01
 11
2.79430124E+01
 21
6.08189387E+01
  0
LINE
  8
0
 62
7
 10
-3.80469876E+01
 20
4.98289387E+01
 11
-2.80469876E+01
 21
4.98289387E+01
  0
LINE
  8
0
 62
7
 10
4.99430124E+01
 20
5.69189387E+01
 11
6.29430124E+01
 21
5.69189387E+01
  0
LINE
  8
0
 62
7
 10
4.99430124E+01
 20
5.37189387E+01
 11
6.29430124E+01
 21
5.37189387E+01
  0
LINE
  8
0
 62
7
 10
6.29430124E+01
 20
5.69189387E+01
 11
6.29430124E+01
 21
6.23189387E+01
  0
LINE
  8
0
 62
7
 10
6.12430124E+01
 20
6.01389387E+01
 11
6.12430124E+01
 21
6.23189387E+01
  0
LINE
  8
0
 62
7
 10
6.12430124E+01
 20
5.05089387E+01
 11
6.12430124E+01
 21
4.83289387E+01
  0
ARC
  8
0
 62
7
 10
4.86378238E+01
 20
5.53239387E+01
 40
7.68908244E+00
 50
1.41228758E+02
 51
2.18771241E+02
  0
ARC
  8
0
 62
7
 10
-4.43621762E+01
 20
5.53239387E+01
 40
7.68128847E+00
 50
1.41182048E+02
 51
2.18817952E+02
  0
ARC
  8
0
 62
7
 10
-4.57386258E+01
 20
5.53239387E+01
 40
7.68660869E+00
 50
3.21213947E+02
 51
3.87860535E+01
  0
CIRCLE
  8
0
 62
2
 10
-4.25503934E+01
 20
5.53239389E+01
 40
2.50000000E+00
  0
ARC
  8
0
 62
7
 10
5.52635695E+01
 20
5.53285797E+01
 40
7.68001799E+00
 50
3.21129966E+02
 51
3.47901780E+02
  0
ARC
  8
0
 62
7
 10
5.52616331E+01
 20
5.53233609E+01
 40
7.67897699E+00
 50
1.19925907E+01
 51
3.88373628E+01
  0
ARC
  8
0
 62
4
 10
-7.45905011E+01
 20
5.35689387E+01
 40
4.32351351E+00
 50
3.36123699E+02
 51
2.38763010E+01
  0
ARC
  8
0
 62
4
 10
-7.45905011E+01
 20
5.70689387E+01
 40
4.32351351E+00
 50
3.36123699E+02
 51
2.38763010E+01
  0
ARC
  8
0
 62
4
 10
-6.91434741E+01
 20
5.35689387E+01
 40
4.32351351E+00
 50
1.56123699E+02
 51
2.03876301E+02
  0
ARC
  8
0
 62
4
 10
-6.91434741E+01
 20
5.70689387E+01
 40
4.32351351E+00
 50
1.56123699E+02
 51
2.03876301E+02
  0
LINE
  8
0
 62
4
 10
-7.30969876E+01
 20
5.53189387E+01
 11
-7.06369876E+01
 21
5.53189387E+01
  0
LINE
  8
0
 62
4
 10
-7.34669876E+01
 20
5.18189387E+01
 11
-7.02669876E+01
 21
5.18189387E+01
  0
LINE
  8
0
 62
4
 10
-7.34669876E+01
 20
5.88189387E+01
 11
-7.02669876E+01
 21
5.88189387E+01
  0
LINE
  8
0
 62
4
 10
-7.02669876E+01
 20
5.88189387E+01
 11
-7.02669876E+01
 21
5.18189387E+01
  0
LINE
  8
0
 62
4
 10
-7.34669876E+01
 20
5.88189387E+01
 11
-7.34669876E+01
 21
5.18189387E+01
  0
LINE
  8
0
 62
7
 10
-7.02669876E+01
 20
5.33189387E+01
 11
-6.20469876E+01
 21
5.33189387E+01
  0
LINE
  8
0
 62
7
 10
-7.02669876E+01
 20
5.73189387E+01
 11
-6.20469876E+01
 21
5.73189387E+01
  0
LINE
  8
0
 62
7
 10
-7.73469876E+01
 20
5.73189387E+01
 11
-7.73469876E+01
 21
5.33189387E+01
  0
LINE
  8
0
 62
7
 10
-7.80469876E+01
 20
5.40189387E+01
 11
-7.73469876E+01
 21
5.33189387E+01
  0
LINE
  8
0
 62
7
 10
-7.73469876E+01
 20
5.73189387E+01
 11
-7.80469876E+01
 21
5.66189387E+01
  0
LINE
  8
0
 62
7
 10
-7.73469876E+01
 20
5.33189387E+01
 11
-7.34669876E+01
 21
5.33189387E+01
  0
LINE
  8
0
 62
7
 10
-7.73469876E+01
 20
5.73189387E+01
 11
-7.34669876E+01
 21
5.73189387E+01
  0
LINE
  8
0
 62
7
 10
-6.60469876E+01
 20
5.73189387E+01
 11
-6.60469876E+01
 21
5.33189387E+01
  0
LINE
  8
0
 62
7
 10
-7.80469876E+01
 20
5.66189387E+01
 11
-7.80469876E+01
 21
5.40189387E+01
  0
LINE
  8
0
 62
2
 10
-7.77259876E+01
 20
5.69399387E+01
 11
-7.34669876E+01
 21
5.69399387E+01
  0
LINE
  8
0
 62
2
 10
-7.77259876E+01
 20
5.36979387E+01
 11
-7.34669876E+01
 21
5.36979387E+01
  0
LINE
  8
0
 62
2
 10
-7.02669876E+01
 20
5.69399387E+01
 11
-6.60469876E+01
 21
5.69399387E+01
  0
LINE
  8
0
 62
2
 10
-7.02669876E+01
 20
5.36979387E+01
 11
-6.60469876E+01
 21
5.36979387E+01
  0
LINE
  8
0
  6
CENTER
 62
2
 10
-8.00469876E+01
 20
5.53189387E+01
 11
5.26703489E+01
 21
5.53189387E+01
  0
TEXT
  8
0
 62
7
 10
-1.63829251E+01
 20
5.09189387E+01
 40
1.50000000E+00
  1
PBDAAS10-7
 41
1.00000000E+00
  7
MONOTXT
  0
LINE
  8
0
  6
PHANTOM
 10
-5.19875982E-02
 20
4.12123441E+01
 11
-5.19875982E-02
 21
7.17852136E+01
  0
CIRCLE
  8
0
 62
4
 10
-5.21942011E+01
 20
-4.39593359E+01
 40
3.00000000E+00
  0
CIRCLE
  8
0
 62
4
 10
-5.21942011E+01
 20
-4.39593359E+01
 40
1.60000000E+00
  0
LINE
  8
0
  6
CENTER
 62
6
 10
-5.21942011E+01
 20
-4.88037681E+01
 11
-5.21942011E+01
 21
-3.94186237E+01
  0
LINE
  8
0
  6
CENTER
 62
6
 10
-5.74883851E+01
 20
-4.39593359E+01
 11
-4.70555484E+01
 21
-4.39593359E+01
  0
LINE
  8
0
 62
4
 10
-2.09011534E+01
 20
-4.55593359E+01
 11
-6.41115338E+00
 21
-4.55593359E+01
  0
LINE
  8
0
 62
4
 10
-6.01115338E+00
 20
-4.55593359E+01
 11
-4.91115338E+00
 21
-4.55593359E+01
  0
LINE
  8
0
  6
CENTER
 62
6
 10
-2.41407454E+01
 20
-4.39593359E+01
 11
-3.21287957E+00
 21
-4.39593359E+01
  0
LINE
  8
0
 62
4
 10
-4.91115338E+00
 20
-4.55593359E+01
 11
-4.91115338E+00
 21
-4.23593359E+01
  0
LINE
  8
0
 62
4
 10
-6.41115338E+00
 20
-4.69593359E+01
 11
-6.01115338E+00
 21
-4.69593359E+01
  0
LINE
  8
0
 62
4
 10
-6.41115338E+00
 20
-4.09593359E+01
 11
-6.01115338E+00
 21
-4.09593359E+01
  0
LINE
  8
0
 62
4
 10
-6.41115338E+00
 20
-4.69593359E+01
 11
-6.41115338E+00
 21
-4.09593359E+01
  0
LINE
  8
0
 62
4
 10
-6.01115338E+00
 20
-4.69593359E+01
 11
-6.01115338E+00
 21
-4.09593359E+01
  0
LINE
  8
0
 62
4
 10
-6.01115338E+00
 20
-4.23593359E+01
 11
-4.91115338E+00
 21
-4.23593359E+01
  0
LINE
  8
0
 62
4
 10
-2.24011534E+01
 20
-4.23593359E+01
 11
-2.13011534E+01
 21
-4.23593359E+01
  0
LINE
  8
0
 62
4
 10
-2.24011534E+01
 20
-4.55593359E+01
 11
-2.13011534E+01
 21
-4.55593359E+01
  0
LINE
  8
0
 62
4
 10
-2.24011534E+01
 20
-4.55593359E+01
 11
-2.24011534E+01
 21
-4.23593359E+01
  0
LINE
  8
0
 62
4
 10
-2.13011534E+01
 20
-4.09593359E+01
 11
-2.09011534E+01
 21
-4.09593359E+01
  0
LINE
  8
0
 62
4
 10
-2.13011534E+01
 20
-4.69593359E+01
 11
-2.09011534E+01
 21
-4.69593359E+01
  0
LINE
  8
0
 62
4
 10
-2.09011534E+01
 20
-4.69593359E+01
 11
-2.09011534E+01
 21
-4.09593359E+01
  0
LINE
  8
0
 62
4
 10
-2.13011534E+01
 20
-4.69593359E+01
 11
-2.13011534E+01
 21
-4.09593359E+01
  0
LINE
  8
0
 62
4
 10
-2.09011534E+01
 20
-4.23593359E+01
 11
-6.41115338E+00
 21
-4.23593359E+01
  0
LINE
  8
0
  6
CENTER
 62
6
 10
9.97642961E+01
 20
-3.43716428E+01
 11
9.97642961E+01
 21
-7.63716428E+01
  0
LINE
  8
0
  6
CENTER
 62
6
 10
8.46642961E+01
 20
-6.83716428E+01
 11
8.46642961E+01
 21
-7.63716428E+01
  0
LINE
  8
0
  6
CENTER
 62
6
 10
1.14864296E+02
 20
-6.83716428E+01
 11
1.14864296E+02
 21
-7.63716428E+01
  0
ARC
  8
0
 62
4
 10
1.09764296E+02
 20
-7.03716428E+01
 40
3.00000000E+00
 50
1.80000000E+02
 51
2.70000000E+02
  0
ARC
  8
0
 62
4
 10
1.05764296E+02
 20
-6.83716428E+01
 40
3.00000000E+00
 50
0.00000000E+00
 51
9.00000002E+01
  0
ARC
  8
0
 62
4
 10
1.05764296E+02
 20
-6.83716428E+01
 40
1.00000000E+00
 50
0.00000000E+00
 51
9.00000002E+01
  0
ARC
  8
0
 62
4
 10
9.37642961E+01
 20
-6.83716428E+01
 40
3.00000000E+00
 50
9.00000002E+01
 51
1.80000000E+02
  0
ARC
  8
0
 62
4
 10
1.09764296E+02
 20
-7.03716428E+01
 40
1.00000000E+00
 50
1.80000000E+02
 51
2.70000000E+02
  0
ARC
  8
0
 62
4
 10
9.37642961E+01
 20
-6.83716428E+01
 40
1.00000000E+00
 50
9.00000002E+01
 51
1.80000000E+02
  0
ARC
  8
0
 62
4
 10
8.97642961E+01
 20
-7.03716428E+01
 40
1.00000000E+00
 50
2.70000000E+02
 51
0.00000000E+00
  0
ARC
  8
0
 62
4
 10
8.97642961E+01
 20
-7.03716428E+01
 40
3.00000000E+00
 50
2.70000000E+02
 51
0.00000000E+00
  0
LINE
  8
0
 62
4
 10
9.82142961E+01
 20
-3.89816428E+01
 11
1.01314296E+02
 21
-3.89816428E+01
  0
LINE
  8
0
 62
4
 10
9.56642961E+01
 20
-6.83716428E+01
 11
1.03864296E+02
 21
-6.83716428E+01
  0
LINE
  8
0
 62
4
 10
1.03864296E+02
 20
-6.73716428E+01
 11
1.03864296E+02
 21
-7.33716428E+01
  0
LINE
  8
0
 62
4
 10
9.56642961E+01
 20
-6.73716428E+01
 11
9.56642961E+01
 21
-7.33716428E+01
  0
LINE
  8
0
 62
4
 10
9.56642961E+01
 20
-7.33716428E+01
 11
1.03864296E+02
 21
-7.33716428E+01
  0
LINE
  8
0
 62
4
 10
9.27642961E+01
 20
-6.83716428E+01
 11
9.27642961E+01
 21
-7.03716428E+01
  0
LINE
  8
0
 62
4
 10
8.97642961E+01
 20
-7.33716428E+01
 11
7.97642961E+01
 21
-7.33716428E+01
  0
LINE
  8
0
 62
4
 10
7.97642961E+01
 20
-7.13716428E+01
 11
7.97642961E+01
 21
-7.33716428E+01
  0
LINE
  8
0
 62
4
 10
8.97642961E+01
 20
-7.13716428E+01
 11
7.97642961E+01
 21
-7.13716428E+01
  0
LINE
  8
0
 62
4
 10
9.07642961E+01
 20
-6.83716428E+01
 11
9.07642961E+01
 21
-7.03716428E+01
  0
LINE
  8
0
 62
4
 10
9.37642961E+01
 20
-5.63716428E+01
 11
9.37642961E+01
 21
-6.53716428E+01
  0
LINE
  8
0
 62
4
 10
9.82142961E+01
 20
-5.63716428E+01
 11
9.37642961E+01
 21
-5.63716428E+01
  0
LINE
  8
0
 62
4
 10
9.82142961E+01
 20
-3.73716428E+01
 11
9.82142961E+01
 21
-5.63716428E+01
  0
LINE
  8
0
 62
4
 10
9.37642961E+01
 20
-6.73716428E+01
 11
1.05764296E+02
 21
-6.73716428E+01
  0
LINE
  8
0
 62
4
 10
9.37642961E+01
 20
-6.53716428E+01
 11
1.05764296E+02
 21
-6.53716428E+01
  0
LINE
  8
0
 62
4
 10
1.09764296E+02
 20
-7.33716428E+01
 11
1.19764296E+02
 21
-7.33716428E+01
  0
LINE
  8
0
 62
4
 10
1.06764296E+02
 20
-6.83716428E+01
 11
1.06764296E+02
 21
-7.03716428E+01
  0
LINE
  8
0
 62
4
 10
1.01314296E+02
 20
-3.73716428E+01
 11
1.01314296E+02
 21
-5.63716428E+01
  0
LINE
  8
0
 62
4
 10
1.05764296E+02
 20
-5.63716428E+01
 11
1.05764296E+02
 21
-6.53716428E+01
  0
LINE
  8
0
 62
4
 10
1.08764296E+02
 20
-6.83716428E+01
 11
1.08764296E+02
 21
-7.03716428E+01
  0
LINE
  8
0
 62
4
 10
1.19764296E+02
 20
-7.13716428E+01
 11
1.19764296E+02
 21
-7.33716428E+01
  0
LINE
  8
0
 62
4
 10
9.82142961E+01
 20
-3.73716428E+01
 11
1.01314296E+02
 21
-3.73716428E+01
  0
LINE
  8
0
  6
CENTER
 62
6
 10
9.52142961E+01
 20
-4.43716428E+01
 11
1.04314296E+02
 21
-4.43716428E+01
  0
LINE
  8
0
 62
4
 10
1.01314296E+02
 20
-5.63716428E+01
 11
1.05764296E+02
 21
-5.63716428E+01
  0
LINE
  8
0
 62
4
 10
1.09764296E+02
 20
-7.13716428E+01
 11
1.19764296E+02
 21
-7.13716428E+01
  0
LINE
  8
0
  6
CENTER
 62
6
 10
5.87642961E+01
 20
-3.43666426E+01
 11
5.87642961E+01
 21
-7.63666426E+01
  0
LINE
  8
0
  6
CENTER
 62
6
 10
5.27642961E+01
 20
-6.83666426E+01
 11
5.27642961E+01
 21
-7.63666426E+01
  0
LINE
  8
0
  6
CENTER
 62
6
 10
6.47642961E+01
 20
-6.83666426E+01
 11
6.47642961E+01
 21
-7.63666426E+01
  0
LINE
  8
0
 62
4
 10
5.48642961E+01
 20
-7.13666426E+01
 11
5.48642961E+01
 21
-7.33666426E+01
  0
LINE
  8
0
 62
4
 10
5.06642961E+01
 20
-7.13666426E+01
 11
5.06642961E+01
 21
-7.33666426E+01
  0
LINE
  8
0
 62
4
 10
4.77642961E+01
 20
-7.13666426E+01
 11
6.97642961E+01
 21
-7.13666426E+01
  0
LINE
  8
0
 62
4
 10
6.68642961E+01
 20
-7.13666426E+01
 11
6.68642961E+01
 21
-7.33666426E+01
  0
LINE
  8
0
 62
4
 10
6.26642961E+01
 20
-7.13666426E+01
 11
6.26642961E+01
 21
-7.33666426E+01
  0
LINE
  8
0
 62
4
 10
4.77642961E+01
 20
-7.33666426E+01
 11
6.97642961E+01
 21
-7.33666426E+01
  0
ARC
  8
0
 62
4
 10
5.87642961E+01
 20
-4.93666445E+01
 40
1.19980057E+01
 50
5.99945013E+01
 51
1.20005499E+02
  0
CIRCLE
  8
0
 62
4
 10
5.87642961E+01
 20
-4.43666426E+01
 40
1.64999962E+00
  0
LINE
  8
0
 62
4
 10
5.27642961E+01
 20
-3.89766426E+01
 11
5.27642961E+01
 21
-6.53666426E+01
  0
LINE
  8
0
 62
4
 10
6.47642961E+01
 20
-3.89766426E+01
 11
6.47642961E+01
 21
-6.53666426E+01
  0
LINE
  8
0
 62
4
 10
4.77642961E+01
 20
-6.53666426E+01
 11
6.97642961E+01
 21
-6.53666426E+01
  0
LINE
  8
0
 62
4
 10
5.27642961E+01
 20
-5.63666426E+01
 11
6.47642961E+01
 21
-5.63666426E+01
  0
LINE
  8
0
  6
CENTER
 62
6
 10
4.97642961E+01
 20
-4.43666426E+01
 11
6.77642961E+01
 21
-4.43666426E+01
  0
LINE
  8
0
 62
4
 10
6.97642961E+01
 20
-6.53666426E+01
 11
6.97642961E+01
 21
-7.33666426E+01
  0
LINE
  8
0
 62
4
 10
4.77642961E+01
 20
-6.53666426E+01
 11
4.77642961E+01
 21
-7.33666426E+01
  0
ARC
  8
0
 62
4
 10
8.46642961E+01
 20
-8.37164848E+00
 40
2.10000000E+00
 50
2.70000000E+02
 51
9.00000002E+01
  0
ARC
  8
0
 62
4
 10
8.46642961E+01
 20
-2.03716485E+01
 40
2.10000000E+00
 50
2.70000000E+02
 51
9.00000002E+01
  0
ARC
  8
0
 62
4
 10
1.14864296E+02
 20
-2.03716485E+01
 40
2.10000000E+00
 50
9.00000002E+01
 51
2.70000000E+02
  0
LINE
  8
0
  6
CENTER
 62
6
 10
8.97642961E+01
 20
-2.03716485E+01
 11
7.67642961E+01
 21
-2.03716485E+01
  0
LINE
  8
0
  6
CENTER
 62
6
 10
8.46642961E+01
 20
-2.66410813E+00
 11
8.46642961E+01
 21
-2.62890869E+01
  0
LINE
  8
0
 62
4
 10
7.97642961E+01
 20
-2.24716485E+01
 11
7.97642961E+01
 21
-2.53716485E+01
  0
LINE
  8
0
 62
4
 10
7.97642961E+01
 20
-1.04716485E+01
 11
7.97642961E+01
 21
-1.82716485E+01
  0
LINE
  8
0
 62
4
 10
1.19764296E+02
 20
-2.24716485E+01
 11
1.19764296E+02
 21
-2.53716485E+01
  0
LINE
  8
0
 62
4
 10
8.46642961E+01
 20
-2.24716485E+01
 11
7.97642961E+01
 21
-2.24716485E+01
  0
LINE
  8
0
 62
4
 10
8.46642961E+01
 20
-1.82716485E+01
 11
7.97642961E+01
 21
-1.82716485E+01
  0
LINE
  8
0
 62
4
 10
8.46642961E+01
 20
-1.04716485E+01
 11
7.97642961E+01
 21
-1.04716485E+01
  0
LINE
  8
0
 62
4
 10
8.46642961E+01
 20
-6.27164848E+00
 11
7.97642961E+01
 21
-6.27164848E+00
  0
LINE
  8
0
  6
CENTER
 62
6
 10
1.22764296E+02
 20
-2.03716485E+01
 11
1.09764296E+02
 21
-2.03716485E+01
  0
LINE
  8
0
 62
4
 10
9.82142961E+01
 20
-8.37164848E+00
 11
9.82142961E+01
 21
-2.03716485E+01
  0
LINE
  8
0
 62
4
 10
1.01314296E+02
 20
-8.37164848E+00
 11
1.01314296E+02
 21
-2.03716485E+01
  0
LINE
  8
0
 62
4
 10
1.19764296E+02
 20
-2.24716485E+01
 11
1.14864296E+02
 21
-2.24716485E+01
  0
LINE
  8
0
 62
4
 10
1.19764296E+02
 20
-1.82716485E+01
 11
1.14864296E+02
 21
-1.82716485E+01
  0
LINE
  8
0
 62
4
 10
1.05764296E+02
 20
-8.37164848E+00
 11
9.37642961E+01
 21
-8.37164848E+00
  0
LINE
  8
0
 62
4
 10
1.19764296E+02
 20
-2.53716485E+01
 11
7.97642961E+01
 21
-2.53716485E+01
  0
LINE
  8
0
 62
4
 10
1.05764296E+02
 20
-2.03716485E+01
 11
9.37642961E+01
 21
-2.03716485E+01
  0
LINE
  8
0
 62
4
 10
1.08764296E+02
 20
-3.37164848E+00
 11
1.08764296E+02
 21
-2.53716485E+01
  0
LINE
  8
0
 62
4
 10
1.05764296E+02
 20
-8.37164848E+00
 11
1.05764296E+02
 21
-2.03716485E+01
  0
LINE
  8
0
  6
CENTER
 62
6
 10
9.97642961E+01
 20
-2.66410813E+00
 11
9.97642961E+01
 21
-2.62890869E+01
  0
LINE
  8
0
 62
4
 10
9.37642961E+01
 20
-8.37164848E+00
 11
9.37642961E+01
 21
-2.03716485E+01
  0
LINE
  8
0
 62
4
 10
9.07642961E+01
 20
-3.37164848E+00
 11
9.07642961E+01
 21
-2.53716485E+01
  0
LINE
  8
0
 62
4
 10
7.97642961E+01
 20
-3.37164848E+00
 11
7.97642961E+01
 21
-6.27164848E+00
  0
LINE
  8
0
 62
4
 10
1.19764296E+02
 20
-1.04716485E+01
 11
1.14864296E+02
 21
-1.04716485E+01
  0
LINE
  8
0
 62
4
 10
1.19764296E+02
 20
-6.27164848E+00
 11
1.14864296E+02
 21
-6.27164848E+00
  0
LINE
  8
0
 62
4
 10
1.19764296E+02
 20
-3.37164848E+00
 11
1.19764296E+02
 21
-6.27164848E+00
  0
LINE
  8
0
  6
CENTER
 62
6
 10
1.22764296E+02
 20
-1.43716485E+01
 11
7.67642961E+01
 21
-1.43716485E+01
  0
LINE
  8
0
 62
4
 10
1.19764296E+02
 20
-3.37164848E+00
 11
7.97642961E+01
 21
-3.37164848E+00
  0
LINE
  8
0
  6
CENTER
 62
6
 10
1.22764296E+02
 20
-8.37164848E+00
 11
1.09764296E+02
 21
-8.37164848E+00
  0
LINE
  8
0
 62
4
 10
1.19764296E+02
 20
-1.06316485E+01
 11
1.19764296E+02
 21
-1.82716485E+01
  0
LINE
  8
0
  6
CENTER
 62
6
 10
1.14864296E+02
 20
-2.48096876E+00
 11
1.14864296E+02
 21
-2.62890869E+01
  0
ARC
  8
0
 62
4
 10
1.14864296E+02
 20
-8.37164848E+00
 40
2.10000000E+00
 50
9.00000002E+01
 51
2.70000000E+02
  0
LINE
  8
0
  6
CENTER
 62
6
 10
8.97642961E+01
 20
-8.37164848E+00
 11
7.67642961E+01
 21
-8.37164848E+00
  0
TEXT
  8
0
 10
-2.15178903E+01
 20
7.53891590E+01
 40
3.20000005E+00
  1
STRETCH LINE
 41
1.05263158E+00
  7
MONOTXT
  0
TEXT
  8
0
 62
7
 10
-1.05449994E+02
 20
-8.24000031E+01
 40
3.20000005E+00
  1
25
 41
1.00000000E+00
  7
MONOTXT
  0
TEXT
  8
0
 62
7
 10
-1.07049994E+02
 20
-8.84000031E+01
 40
3.20000005E+00
  1
-25
 41
1.00000000E+00
  7
MONOTXT
  0
TEXT
  8
0
 62
7
 10
-9.58499939E+01
 20
-8.24000031E+01
 40
3.20000005E+00
  1
50
 41
1.00000000E+00
  7
MONOTXT
  0
TEXT
  8
0
 62
7
 10
-8.62499939E+01
 20
-8.24000031E+01
 40
3.20000005E+00
  1
75
 41
1.00000000E+00
  7
MONOTXT
  0
TEXT
  8
0
 62
7
 10
-7.82499940E+01
 20
-8.24000031E+01
 40
3.20000005E+00
  1
100
 41
1.00000000E+00
  7
MONOTXT
  0
TEXT
  8
0
 62
7
 10
-9.42499939E+01
 20
-8.84000031E+01
 40
3.20000005E+00
  1
0
 41
1.00000000E+00
  7
MONOTXT
  0
TEXT
  8
0
 62
7
 10
-8.62499939E+01
 20
-8.84000031E+01
 40
3.20000005E+00
  1
25
 41
1.00000000E+00
  7
MONOTXT
  0
TEXT
  8
0
 62
7
 10
-7.66499939E+01
 20
-8.84000031E+01
 40
3.20000005E+00
  1
50
 41
1.00000000E+00
  7
MONOTXT
  0
LINE
  8
0
 62
7
 10
-1.33399994E+02
 20
-8.98000031E+01
 11
-6.89999939E+01
 21
-8.98000031E+01
  0
LINE
  8
0
 62
7
 10
-1.33399994E+02
 20
-8.98000031E+01
 11
-1.33399994E+02
 21
-7.78000031E+01
  0
LINE
  8
0
 62
7
 10
-1.33399994E+02
 20
-8.38000031E+01
 11
-6.89999939E+01
 21
-8.38000031E+01
  0
LINE
  8
0
 62
7
 10
-1.07399994E+02
 20
-8.98000031E+01
 11
-1.07399994E+02
 21
-7.78000031E+01
  0
LINE
  8
0
 62
7
 10
-9.77999939E+01
 20
-8.98000031E+01
 11
-9.77999939E+01
 21
-7.78000031E+01
  0
LINE
  8
0
 62
7
 10
-1.33399994E+02
 20
-7.78000031E+01
 11
-6.89999939E+01
 21
-7.78000031E+01
  0
LINE
  8
0
 62
7
 10
-8.81999939E+01
 20
-8.98000031E+01
 11
-8.81999939E+01
 21
-7.78000031E+01
  0
LINE
  8
0
 62
7
 10
-7.85999939E+01
 20
-8.98000031E+01
 11
-7.85999939E+01
 21
-7.78000031E+01
  0
LINE
  8
0
 62
7
 10
-6.89999939E+01
 20
-8.98000031E+01
 11
-6.89999939E+01
 21
-7.78000031E+01
  0
TEXT
  8
0
 62
7
 10
-1.29649994E+02
 20
-8.24000031E+01
 40
3.20000005E+00
  1
STROKE
 41
1.00000000E+00
  7
MONOTXT
  0
TEXT
  8
0
 62
7
 10
-1.31249994E+02
 20
-8.84000031E+01
 40
3.20000005E+00
  1
STRETCH
 41
1.00000000E+00
  7
MONOTXT
  0
TEXT
  8
0
 62
7
 10
-1.20049994E+02
 20
-7.57696827E+01
 40
3.20000005E+00
  1
STRETCH LIST
 41
1.05263158E+00
  7
MONOTXT
  0
TEXT
  8
0
 62
7
 10
-8.14499941E+01
 20
-7.72000032E+01
 40
3.20000005E+00
  1
(mm)
 41
1.00000000E+00
  7
MONOTXT
  0
LINE
  8
0
 62
7
 10
-1.38399994E+02
 20
9.45000000E+01
 11
1.38350006E+02
 21
9.45000000E+01
  0
LINE
  8
0
 62
7
 10
1.38350006E+02
 20
9.45000000E+01
 11
1.38350006E+02
 21
-9.48000031E+01
  0
LINE
  8
0
 62
7
 10
-1.38399994E+02
 20
-9.48000031E+01
 11
1.38350006E+02
 21
-9.48000031E+01
  0
LINE
  8
0
 62
7
 10
-1.38399994E+02
 20
9.45000000E+01
 11
-1.38399994E+02
 21
-9.48000031E+01
  0
LINE
  8
0
 62
7
 10
7.33500061E+01
 20
-8.48000031E+01
 11
1.38350006E+02
 21
-8.48000031E+01
  0
LINE
  8
0
 62
7
 10
-1.38399994E+02
 20
8.45000000E+01
 11
-7.33999939E+01
 21
8.45000000E+01
  0
LINE
  8
0
 62
7
 10
7.33500061E+01
 20
8.45000000E+01
 11
1.38350006E+02
 21
8.45000000E+01
  0
LINE
  8
0
 62
7
 10
7.33500061E+01
 20
-8.48000031E+01
 11
7.33500061E+01
 21
-9.48000031E+01
  0
LINE
  8
0
 62
7
 10
7.33500061E+01
 20
9.45000000E+01
 11
7.33500061E+01
 21
8.45000000E+01
  0
LINE
  8
0
 62
7
 10
-7.33999939E+01
 20
9.45000000E+01
 11
-7.33999939E+01
 21
8.45000000E+01
  0
TEXT
  8
0
 62
7
 10
7.72426624E+01
 20
-9.20500031E+01
 40
4.50000000E+00
  1
KOGANEI CORP.
 41
1.04838710E+00
  7
MONOTXT
  0
TEXT
  8
0
 62
7
 10
9.35071483E+01
 20
8.79000000E+01
 40
3.20000005E+00
  1
Ver. 1.1
 41
1.08108108E+00
  7
MONOTXT
  0
TEXT
  8
0
 62
7
 10
-1.31042852E+02
 20
8.79000000E+01
 40
3.20000005E+00
  1
NEW PEN CYLINDER
 41
1.08108108E+00
  7
MONOTXT
  0
TEXT
  8
0
 62
7
 10
-1.29085994E+02
 20
7.29000000E+01
 40
3.20000005E+00
  1
MODEL:PBDAAS10*ST(50)-7-ZC230
 41
1.00000000E+00
  7
MONOTXT
  0
ENDSEC
  0
EOF
