  0
SECTION
  2
HEADER
  9
$ACADVER
  1
AC1003
  9
$EXTMIN
 10
-1.38399994E+02
 20
-9.48000031E+01
  9
$EXTMAX
 10
1.38350006E+02
 20
9.45000000E+01
  9
$LIMMIN
 10
-1.38400994E+02
 20
-9.48010031E+01
  9
$LIMMAX
 10
1.38351006E+02
 20
9.45010000E+01
  9
$SNAPUNIT
 10
1
 20
1
  9
$SNAPBASE
 10
0
 20
0
  9
$GRIDMODE
 70
0
  9
$GRIDUNIT
 10
0
 20
0
  9
$LTSCALE
 40
4.61250000E+00
  9
$TEXTSIZE
 40
3.2
  9
$DIMTAD
 70
0
  9
$LUNITS
 70
2
  9
$LUPREC
 70
4
  9
$FILLETRAD
 40
0
  9
$AUNITS
 70
0
  9
$AUPREC
 70
0
  0
ENDSEC
  0
SECTION
  2
TABLES
  0
TABLE
  2
LTYPE
 70
2
  0
LTYPE
  2
CONTINUOUS
 70
64
  3
Solid-Line
 72
65
 73
0
 40
0
  0
LTYPE
  2
DASHED
 70
64
  3
DASHED
 72
65
 73
2
 40
.75
 49
.5
 49
-.25
  0
LTYPE
  2
HIDDEN
 70
64
  3
HIDDEN
 72
65
 73
2
 40
.375
 49
.25
 49
-.125
  0
LTYPE
  2
CENTER
 70
64
  3
CENTER
 72
65
 73
4
 40
2
 49
1.25
 49
-.25
 49
.25
 49
-.25
  0
LTYPE
  2
PHANTOM
 70
64
  3
PHANTOM
 72
65
 73
6
 40
2.5
 49
1.25
 49
-.25
 49
.25
 49
-.25
 49
.25
 49
-.25
  0
ENDTAB
  0
TABLE
  2
LAYER
 70
1
  0
LAYER
  2
1
 70
0
 62
7
  6
CONTINUOUS
 0
ENDTAB
  0
TABLE
  2
STYLE
 70
2
  0
STYLE
  2
MONOTXT
 70
0
 40
0
 41
1
 50
0
 71
0
 42
.2
  3
monotxt
  0
STYLE
  2
BIGFONT
 70
0
 40
0
 41
1
 50
0
 71
0
 42
.2
  3
txt
  4
bigfont
  0
ENDTAB
  0
ENDSEC
  0
SECTION
  2
ENTITIES
  0
LINE
  8
0
  6
CENTER
 62
2
 10
-8.44939341E+01
 20
2.67412262E+01
 11
7.39060659E+01
 21
2.67412262E+01
  0
LINE
  8
0
  6
CENTER
 62
6
 10
-1.41939341E+01
 20
4.96451049E+01
 11
-1.41939341E+01
 21
1.56886440E+01
  0
LINE
  8
0
 62
4
 10
-1.86939341E+01
 20
3.79412262E+01
 11
-1.86939341E+01
 21
4.47412262E+01
  0
LINE
  8
0
 62
4
 10
-9.69393409E+00
 20
3.79412262E+01
 11
-9.69393409E+00
 21
4.47412262E+01
  0
LINE
  8
0
  6
CENTER
 62
6
 10
3.77960659E+01
 20
5.00512262E+01
 11
3.77960659E+01
 21
1.70065671E+01
  0
LINE
  8
0
 62
4
 10
3.32960659E+01
 20
3.79412262E+01
 11
3.32960659E+01
 21
4.47412262E+01
  0
LINE
  8
0
 62
4
 10
4.22960659E+01
 20
3.79412262E+01
 11
4.22960659E+01
 21
4.47412262E+01
  0
LINE
  8
0
  6
PHANTOM
 10
1.47737259E+01
 20
1.12506910E+01
 11
1.47737259E+01
 21
4.94501034E+01
  0
TEXT
  8
0
 62
7
 10
-7.52987159E+00
 20
1.93412415E+01
 40
1.50000000E+00
  1
PBDAAS16
 41
1.00000000E+00
  7
MONOTXT
  0
LINE
  8
0
 62
4
 10
4.47960659E+01
 20
4.00412262E+01
 11
5.02960659E+01
 21
4.00412262E+01
  0
LINE
  8
0
 62
4
 10
4.47960659E+01
 20
3.60412262E+01
 11
5.02960659E+01
 21
3.60412262E+01
  0
LINE
  8
0
 62
4
 10
3.07960659E+01
 20
3.78412262E+01
 11
3.07960659E+01
 21
3.47731084E+01
  0
LINE
  8
0
 62
4
 10
4.47960659E+01
 20
3.78412262E+01
 11
4.47960659E+01
 21
3.47731084E+01
  0
LINE
  8
0
 62
4
 10
3.32960659E+01
 20
3.82412262E+01
 11
4.22960659E+01
 21
3.82412262E+01
  0
LINE
  8
0
 62
4
 10
3.07960659E+01
 20
3.47731084E+01
 11
3.32960659E+01
 21
3.47731084E+01
  0
LINE
  8
0
 62
4
 10
4.47960659E+01
 20
3.47731084E+01
 11
4.22960659E+01
 21
3.47731084E+01
  0
LINE
  8
0
 62
4
 10
4.22960659E+01
 20
3.78412262E+01
 11
4.47960659E+01
 21
3.78412262E+01
  0
LINE
  8
0
 62
4
 10
4.22960659E+01
 20
3.82412262E+01
 11
4.47960659E+01
 21
3.82412262E+01
  0
LINE
  8
0
 62
4
 10
4.22960659E+01
 20
4.10412262E+01
 11
4.47960659E+01
 21
4.10412262E+01
  0
LINE
  8
0
 62
4
 10
3.07960659E+01
 20
3.78412262E+01
 11
3.32960659E+01
 21
3.78412262E+01
  0
LINE
  8
0
 62
4
 10
3.07960659E+01
 20
3.82412262E+01
 11
3.32960659E+01
 21
3.82412262E+01
  0
LINE
  8
0
 62
4
 10
3.07960659E+01
 20
4.10412262E+01
 11
3.32960659E+01
 21
4.10412262E+01
  0
LINE
  8
0
 62
4
 10
3.32960659E+01
 20
1.80912415E+01
 11
4.22960659E+01
 21
1.80912415E+01
  0
LINE
  8
0
 62
4
 10
4.47960659E+01
 20
4.10412262E+01
 11
4.47960659E+01
 21
3.82412262E+01
  0
LINE
  8
0
 62
4
 10
3.07960659E+01
 20
4.10412262E+01
 11
3.07960659E+01
 21
3.82412262E+01
  0
LINE
  8
0
 62
4
 10
2.52960659E+01
 20
3.90412262E+01
 11
2.62960659E+01
 21
4.00412262E+01
  0
LINE
  8
0
 62
4
 10
2.52960659E+01
 20
3.90412262E+01
 11
2.52960659E+01
 21
3.70412262E+01
  0
LINE
  8
0
 62
4
 10
2.62960659E+01
 20
3.60412262E+01
 11
3.07960659E+01
 21
3.60412262E+01
  0
LINE
  8
0
 62
4
 10
2.62960659E+01
 20
4.00412262E+01
 11
3.07960659E+01
 21
4.00412262E+01
  0
LINE
  8
0
 62
4
 10
2.52960659E+01
 20
3.70412262E+01
 11
2.62960659E+01
 21
3.60412262E+01
  0
LINE
  8
0
 62
4
 10
2.62960659E+01
 20
4.00412262E+01
 11
2.62960659E+01
 21
3.60412262E+01
  0
LINE
  8
0
 62
4
 10
4.22960659E+01
 20
3.79412262E+01
 11
4.22960659E+01
 21
1.80912415E+01
  0
LINE
  8
0
 62
4
 10
3.32960659E+01
 20
3.79412262E+01
 11
3.32960659E+01
 21
1.80912415E+01
  0
LINE
  8
0
 62
4
 10
5.02960659E+01
 20
4.00412262E+01
 11
5.32960659E+01
 21
3.93412262E+01
  0
LINE
  8
0
 62
4
 10
5.02960659E+01
 20
3.60412262E+01
 11
5.32960659E+01
 21
3.67412262E+01
  0
LINE
  8
0
 62
4
 10
5.02960659E+01
 20
4.00412262E+01
 11
5.02960659E+01
 21
3.60412262E+01
  0
LINE
  8
0
 62
6
 10
5.82330650E+01
 20
3.93412262E+01
 11
5.56330650E+01
 21
3.67412262E+01
  0
LINE
  8
0
 62
4
 10
5.32960659E+01
 20
3.67412262E+01
 11
5.56330650E+01
 21
3.67412262E+01
  0
LINE
  8
0
 62
4
 10
5.32960659E+01
 20
3.93412262E+01
 11
5.32960659E+01
 21
3.67412262E+01
  0
LINE
  8
0
 62
4
 10
5.32960659E+01
 20
3.93412262E+01
 11
5.82330650E+01
 21
3.93412262E+01
  0
LINE
  8
0
 62
7
 10
4.22960659E+01
 20
1.82512262E+01
 11
5.12960659E+01
 21
1.82512262E+01
  0
LINE
  8
0
 62
7
 10
4.47960659E+01
 20
3.52412262E+01
 11
5.12960659E+01
 21
3.52412262E+01
  0
LINE
  8
0
 62
7
 10
-9.69393409E+00
 20
1.82512262E+01
 11
3.32960659E+01
 21
1.82512262E+01
  0
LINE
  8
0
 62
7
 10
-7.19393409E+00
 20
3.52412262E+01
 11
3.07960659E+01
 21
3.52412262E+01
  0
LINE
  8
0
 62
4
 10
-7.19393409E+00
 20
4.00412262E+01
 11
-1.69393409E+00
 21
4.00412262E+01
  0
LINE
  8
0
 62
4
 10
-7.19393409E+00
 20
3.60412262E+01
 11
-1.69393409E+00
 21
3.60412262E+01
  0
LINE
  8
0
 62
4
 10
-2.11939341E+01
 20
3.78412262E+01
 11
-2.11939341E+01
 21
3.47731084E+01
  0
LINE
  8
0
 62
4
 10
-7.19393409E+00
 20
3.78412262E+01
 11
-7.19393409E+00
 21
3.47731084E+01
  0
LINE
  8
0
 62
4
 10
-1.86939341E+01
 20
3.82412262E+01
 11
-9.69393409E+00
 21
3.82412262E+01
  0
LINE
  8
0
 62
4
 10
-2.11939341E+01
 20
3.47731084E+01
 11
-1.86939341E+01
 21
3.47731084E+01
  0
LINE
  8
0
 62
4
 10
-7.19393411E+00
 20
3.47731084E+01
 11
-9.69393411E+00
 21
3.47731084E+01
  0
LINE
  8
0
 62
4
 10
-9.69393409E+00
 20
3.78412262E+01
 11
-7.19393409E+00
 21
3.78412262E+01
  0
LINE
  8
0
 62
4
 10
-9.69393409E+00
 20
3.82412262E+01
 11
-7.19393409E+00
 21
3.82412262E+01
  0
LINE
  8
0
 62
4
 10
-9.69393409E+00
 20
4.10412262E+01
 11
-7.19393409E+00
 21
4.10412262E+01
  0
LINE
  8
0
 62
4
 10
-2.11939341E+01
 20
3.78412262E+01
 11
-1.86939341E+01
 21
3.78412262E+01
  0
LINE
  8
0
 62
4
 10
-2.11939341E+01
 20
3.82412262E+01
 11
-1.86939341E+01
 21
3.82412262E+01
  0
LINE
  8
0
 62
4
 10
-2.11939341E+01
 20
4.10412262E+01
 11
-1.86939341E+01
 21
4.10412262E+01
  0
LINE
  8
0
 62
4
 10
-1.86939341E+01
 20
1.80912415E+01
 11
-9.69393409E+00
 21
1.80912415E+01
  0
LINE
  8
0
 62
4
 10
-7.19393409E+00
 20
4.10412262E+01
 11
-7.19393409E+00
 21
3.82412262E+01
  0
LINE
  8
0
 62
4
 10
-2.11939341E+01
 20
4.10412262E+01
 11
-2.11939341E+01
 21
3.82412262E+01
  0
LINE
  8
0
 62
4
 10
-2.66939341E+01
 20
3.90412262E+01
 11
-2.56939341E+01
 21
4.00412262E+01
  0
LINE
  8
0
 62
4
 10
-2.66939341E+01
 20
3.90412262E+01
 11
-2.66939341E+01
 21
3.70412262E+01
  0
LINE
  8
0
 62
4
 10
-2.56939341E+01
 20
3.60412262E+01
 11
-2.11939341E+01
 21
3.60412262E+01
  0
LINE
  8
0
 62
4
 10
-2.56939341E+01
 20
4.00412262E+01
 11
-2.11939341E+01
 21
4.00412262E+01
  0
LINE
  8
0
 62
4
 10
-2.66939341E+01
 20
3.70412262E+01
 11
-2.56939341E+01
 21
3.60412262E+01
  0
LINE
  8
0
 62
4
 10
-2.56939341E+01
 20
4.00412262E+01
 11
-2.56939341E+01
 21
3.60412262E+01
  0
LINE
  8
0
 62
4
 10
-9.69393409E+00
 20
3.79412262E+01
 11
-9.69393409E+00
 21
1.80912415E+01
  0
LINE
  8
0
 62
4
 10
-1.86939341E+01
 20
3.79412262E+01
 11
-1.86939341E+01
 21
1.80912415E+01
  0
LINE
  8
0
 62
4
 10
-1.69393409E+00
 20
4.00412262E+01
 11
1.30606591E+00
 21
3.93412262E+01
  0
LINE
  8
0
 62
4
 10
-1.69393409E+00
 20
3.60412262E+01
 11
1.30606591E+00
 21
3.67412262E+01
  0
LINE
  8
0
 62
4
 10
-1.69393409E+00
 20
4.00412262E+01
 11
-1.69393409E+00
 21
3.60412262E+01
  0
LINE
  8
0
 62
6
 10
6.24306499E+00
 20
3.93412262E+01
 11
3.64306499E+00
 21
3.67412262E+01
  0
LINE
  8
0
 62
4
 10
1.30606591E+00
 20
3.67412262E+01
 11
3.64306499E+00
 21
3.67412262E+01
  0
LINE
  8
0
 62
4
 10
1.30606591E+00
 20
3.93412262E+01
 11
1.30606591E+00
 21
3.67412262E+01
  0
LINE
  8
0
 62
4
 10
1.30606591E+00
 20
3.93412262E+01
 11
6.24306499E+00
 21
3.93412262E+01
  0
ARC
  8
0
 62
4
 10
7.00874990E+01
 20
1.80930221E+01
 40
7.25143332E+00
 50
1.56528414E+02
 51
2.03502530E+02
  0
ARC
  8
0
 62
4
 10
6.05952142E+01
 20
1.80952189E+01
 40
7.24085284E+00
 50
3.59968406E+02
 51
2.34889901E+01
  0
ARC
  8
0
 62
7
 10
7.00854047E+01
 20
1.80889955E+01
 40
7.24933909E+00
 50
1.79982369E+02
 51
1.80000000E+02
  0
ARC
  8
0
 62
4
 10
6.05973116E+01
 20
1.80867980E+01
 40
7.23875567E+00
 50
3.36507554E+02
 51
3.50495911E-02
  0
LINE
  8
0
 62
4
 10
6.72360659E+01
 20
1.52012262E+01
 11
6.34360659E+01
 21
1.52012262E+01
  0
LINE
  8
0
 62
4
 10
6.72360659E+01
 20
2.09812262E+01
 11
6.34360659E+01
 21
2.09812262E+01
  0
LINE
  8
0
 62
7
 10
6.94960659E+01
 20
1.87512262E+01
 11
6.78360659E+01
 21
1.87512262E+01
  0
LINE
  8
0
 62
7
 10
6.94960659E+01
 20
1.87512262E+01
 11
7.02960659E+01
 21
1.95512262E+01
  0
LINE
  8
0
 62
2
 10
7.02960659E+01
 20
1.98337262E+01
 11
6.78360659E+01
 21
1.98337262E+01
  0
LINE
  8
0
 62
2
 10
6.28360659E+01
 20
1.98337262E+01
 11
6.17960659E+01
 21
1.98337262E+01
  0
LINE
  8
0
 62
7
 10
6.94960659E+01
 20
2.67412262E+01
 11
6.94960659E+01
 21
1.87512262E+01
  0
LINE
  8
0
 62
7
 10
6.28360659E+01
 20
1.87512262E+01
 11
6.02960659E+01
 21
1.87512262E+01
  0
ARC
  8
0
 62
4
 10
7.00874990E+01
 20
3.53894303E+01
 40
7.25143332E+00
 50
1.56497470E+02
 51
2.03471586E+02
  0
ARC
  8
0
 62
7
 10
7.00874991E+01
 20
3.53994303E+01
 40
7.25143340E+00
 50
1.79985810E+02
 51
1.80000000E+02
  0
ARC
  8
0
 62
4
 10
6.05952141E+01
 20
3.53972335E+01
 40
7.24085291E+00
 50
3.36511010E+02
 51
3.15936637E-02
  0
ARC
  8
0
 62
7
 10
7.00854046E+01
 20
3.54034569E+01
 40
7.24933901E+00
 50
1.80000000E+02
 51
1.80017631E+02
  0
ARC
  8
0
 62
4
 10
6.05973117E+01
 20
3.54056544E+01
 40
7.23875560E+00
 50
3.59964950E+02
 51
2.34924461E+01
  0
LINE
  8
0
 62
4
 10
6.72360659E+01
 20
3.82912262E+01
 11
6.34360659E+01
 21
3.82912262E+01
  0
LINE
  8
0
 62
4
 10
6.72360659E+01
 20
3.25112262E+01
 11
6.34360659E+01
 21
3.25112262E+01
  0
LINE
  8
0
 62
7
 10
6.94960659E+01
 20
3.47412262E+01
 11
6.78360659E+01
 21
3.47412262E+01
  0
LINE
  8
0
 62
7
 10
6.94960659E+01
 20
3.47412262E+01
 11
7.02960659E+01
 21
3.39412262E+01
  0
LINE
  8
0
 62
2
 10
7.02960659E+01
 20
3.36587262E+01
 11
6.78360659E+01
 21
3.36587262E+01
  0
LINE
  8
0
 62
2
 10
6.28360659E+01
 20
3.36587262E+01
 11
6.17960659E+01
 21
3.36587262E+01
  0
LINE
  8
0
 62
4
 10
6.28360659E+01
 20
3.60912262E+01
 11
6.28360659E+01
 21
1.80930221E+01
  0
LINE
  8
0
 62
7
 10
7.02960659E+01
 20
3.39412262E+01
 11
7.02960659E+01
 21
1.95512262E+01
  0
LINE
  8
0
 62
7
 10
6.94960659E+01
 20
2.67412262E+01
 11
6.94960659E+01
 21
3.47412262E+01
  0
LINE
  8
0
 62
7
 10
6.28360659E+01
 20
3.47412262E+01
 11
6.02960659E+01
 21
3.47412262E+01
  0
LINE
  8
0
 62
4
 10
6.78360659E+01
 20
1.80992116E+01
 11
6.78360659E+01
 21
3.54100825E+01
  0
LINE
  8
0
 62
7
 10
6.17960659E+01
 20
1.87512262E+01
 11
6.17960659E+01
 21
3.47412262E+01
  0
ARC
  8
0
 62
4
 10
3.97646265E+01
 20
2.67383815E+01
 40
2.80714395E+01
 50
3.48154601E+02
 51
1.18674543E+01
  0
ARC
  8
0
 62
4
 10
9.09184427E+01
 20
2.67372442E+01
 40
2.80823770E+01
 50
1.68134864E+02
 51
1.91827687E+02
  0
CIRCLE
  8
0
 62
7
 10
5.57960659E+01
 20
2.67412262E+01
 40
2.06700000E+00
  0
CIRCLE
  8
0
 62
7
 10
-3.41939341E+01
 20
2.67412262E+01
 40
2.06700000E+00
  0
LINE
  8
0
 62
2
 10
-8.36269341E+01
 20
2.88082262E+01
 11
-8.01439341E+01
 21
2.88082262E+01
  0
LINE
  8
0
 62
2
 10
-8.36269341E+01
 20
2.46742262E+01
 11
-8.01439341E+01
 21
2.46742262E+01
  0
LINE
  8
0
 62
2
 10
-7.61439341E+01
 20
2.88082262E+01
 11
-6.86939341E+01
 21
2.88082262E+01
  0
LINE
  8
0
 62
2
 10
-7.61439341E+01
 20
2.46742262E+01
 11
-6.86939341E+01
 21
2.46742262E+01
  0
LINE
  8
0
 62
2
 10
-5.42339341E+01
 20
3.36587262E+01
 11
-5.31939341E+01
 21
3.36587262E+01
  0
LINE
  8
0
 62
2
 10
-5.42339341E+01
 20
1.98337262E+01
 11
-5.31939341E+01
 21
1.98337262E+01
  0
LINE
  8
0
 62
2
 10
-6.36939341E+01
 20
3.36587262E+01
 11
-5.92339341E+01
 21
3.36587262E+01
  0
LINE
  8
0
 62
2
 10
-6.36939341E+01
 20
1.98337262E+01
 11
-5.92339341E+01
 21
1.98337262E+01
  0
LINE
  8
0
 62
4
 10
-5.42339341E+01
 20
3.60912262E+01
 11
-5.42339341E+01
 21
1.80930221E+01
  0
LINE
  8
0
  6
CENTER
 62
2
 10
-3.41939341E+01
 20
3.04181105E+01
 11
-3.41939341E+01
 21
2.32812262E+01
  0
LINE
  8
0
  6
CENTER
 62
2
 10
5.57960659E+01
 20
3.02718821E+01
 11
5.57960659E+01
 21
2.31612262E+01
  0
LINE
  8
0
 62
7
 10
5.12960659E+01
 20
1.72512262E+01
 11
6.02960659E+01
 21
1.72512262E+01
  0
LINE
  8
0
 62
7
 10
6.02960659E+01
 20
3.62412262E+01
 11
6.02960659E+01
 21
1.72512262E+01
  0
LINE
  8
0
 62
7
 10
-5.16939341E+01
 20
1.67512262E+01
 11
-2.96939341E+01
 21
1.67512262E+01
  0
LINE
  8
0
 62
7
 10
5.29960659E+01
 20
2.03812262E+01
 11
5.85960659E+01
 21
2.03812262E+01
  0
LINE
  8
0
 62
7
 10
5.85960659E+01
 20
2.03812262E+01
 11
5.85960659E+01
 21
1.72512262E+01
  0
LINE
  8
0
 62
7
 10
5.29960659E+01
 20
2.03812262E+01
 11
5.29960659E+01
 21
1.72512262E+01
  0
LINE
  8
0
 62
7
 10
-3.13939341E+01
 20
1.98812262E+01
 11
-3.13939341E+01
 21
1.67512262E+01
  0
LINE
  8
0
 62
7
 10
-3.13939341E+01
 20
1.98812262E+01
 11
-4.99939341E+01
 21
1.98812262E+01
  0
LINE
  8
0
 62
7
 10
-4.99939341E+01
 20
1.98812262E+01
 11
-4.99939341E+01
 21
1.67512262E+01
  0
LINE
  8
0
 62
7
 10
-2.96939341E+01
 20
1.82512262E+01
 11
-1.86939341E+01
 21
1.82512262E+01
  0
LINE
  8
0
 62
7
 10
-6.36939341E+01
 20
1.95512262E+01
 11
-6.36939341E+01
 21
3.39412262E+01
  0
LINE
  8
0
 62
7
 10
-6.28939341E+01
 20
1.87512262E+01
 11
-6.36939341E+01
 21
1.95512262E+01
  0
LINE
  8
0
 62
7
 10
-6.28939341E+01
 20
1.87512262E+01
 11
-5.92339341E+01
 21
1.87512262E+01
  0
LINE
  8
0
 62
7
 10
-6.66939341E+01
 20
2.37412262E+01
 11
-6.36939341E+01
 21
2.37412262E+01
  0
LINE
  8
0
 62
7
 10
-6.28939341E+01
 20
3.47412262E+01
 11
-6.28939341E+01
 21
1.87512262E+01
  0
LINE
  8
0
 62
7
 10
-5.42339341E+01
 20
1.87512262E+01
 11
-5.16939341E+01
 21
1.87512262E+01
  0
LINE
  8
0
 62
7
 10
-6.86939341E+01
 20
2.42412262E+01
 11
-6.86939341E+01
 21
2.92412262E+01
  0
LINE
  8
0
 62
7
 10
-8.31939341E+01
 20
2.92412262E+01
 11
-8.01439341E+01
 21
2.92412262E+01
  0
LINE
  8
0
 62
7
 10
-8.36939341E+01
 20
2.87412262E+01
 11
-8.31939341E+01
 21
2.92412262E+01
  0
LINE
  8
0
 62
7
 10
-6.71939341E+01
 20
2.42412262E+01
 11
-6.66939341E+01
 21
2.37412262E+01
  0
LINE
  8
0
 62
7
 10
-6.71939341E+01
 20
2.42412262E+01
 11
-6.71939341E+01
 21
2.92412262E+01
  0
LINE
  8
0
 62
7
 10
-8.31939341E+01
 20
2.42412262E+01
 11
-8.36939341E+01
 21
2.47412262E+01
  0
LINE
  8
0
 62
7
 10
-8.31939341E+01
 20
2.42412262E+01
 11
-8.31939341E+01
 21
2.92412262E+01
  0
LINE
  8
0
 62
4
 10
-8.01439341E+01
 20
3.02012262E+01
 11
-8.01439341E+01
 21
2.32812262E+01
  0
LINE
  8
0
 62
4
 10
-7.61439341E+01
 20
3.02012262E+01
 11
-7.61439341E+01
 21
2.32812262E+01
  0
LINE
  8
0
 62
4
 10
-7.96439341E+01
 20
2.21312262E+01
 11
-7.66439341E+01
 21
2.21312262E+01
  0
LINE
  8
0
 62
4
 10
-7.96439341E+01
 20
2.44312262E+01
 11
-7.66439341E+01
 21
2.44312262E+01
  0
LINE
  8
0
 62
4
 10
-7.96439341E+01
 20
2.90512262E+01
 11
-7.66439341E+01
 21
2.90512262E+01
  0
LINE
  8
0
 62
4
 10
-7.96439341E+01
 20
3.13612262E+01
 11
-7.66439341E+01
 21
3.13612262E+01
  0
LINE
  8
0
 62
7
 10
-7.61439341E+01
 20
2.92412262E+01
 11
-6.71939341E+01
 21
2.92412262E+01
  0
LINE
  8
0
 62
4
 10
-5.86339341E+01
 20
2.09812262E+01
 11
-5.48339341E+01
 21
2.09812262E+01
  0
LINE
  8
0
 62
4
 10
-5.86339341E+01
 20
1.52012262E+01
 11
-5.48339341E+01
 21
1.52012262E+01
  0
LINE
  8
0
 62
7
 10
-6.66939341E+01
 20
2.97412262E+01
 11
-6.36939341E+01
 21
2.97412262E+01
  0
LINE
  8
0
 62
7
 10
-8.36939341E+01
 20
2.87412262E+01
 11
-8.36939341E+01
 21
2.47412262E+01
  0
LINE
  8
0
 62
7
 10
-8.31939341E+01
 20
2.42412262E+01
 11
-8.01439341E+01
 21
2.42412262E+01
  0
LINE
  8
0
 62
7
 10
-6.71939341E+01
 20
2.92412262E+01
 11
-6.66939341E+01
 21
2.97412262E+01
  0
LINE
  8
0
 62
7
 10
-7.61439341E+01
 20
2.42412262E+01
 11
-6.71939341E+01
 21
2.42412262E+01
  0
LINE
  8
0
 62
7
 10
-5.16939341E+01
 20
3.67412262E+01
 11
-2.96939341E+01
 21
3.67412262E+01
  0
LINE
  8
0
 62
7
 10
-3.13939341E+01
 20
3.36112262E+01
 11
-4.99939341E+01
 21
3.36112262E+01
  0
LINE
  8
0
 62
7
 10
-4.99939341E+01
 20
3.36112262E+01
 11
-4.99939341E+01
 21
3.67412262E+01
  0
LINE
  8
0
 62
7
 10
-5.16939341E+01
 20
3.67412262E+01
 11
-5.16939341E+01
 21
1.67512262E+01
  0
LINE
  8
0
 62
7
 10
-6.28939341E+01
 20
3.47412262E+01
 11
-6.36939341E+01
 21
3.39412262E+01
  0
LINE
  8
0
 62
7
 10
-6.28939341E+01
 20
3.47412262E+01
 11
-5.92339341E+01
 21
3.47412262E+01
  0
LINE
  8
0
 62
7
 10
-5.42339341E+01
 20
3.47412262E+01
 11
-5.16939341E+01
 21
3.47412262E+01
  0
LINE
  8
0
 62
4
 10
-5.86339341E+01
 20
3.25112262E+01
 11
-5.48339341E+01
 21
3.25112262E+01
  0
LINE
  8
0
 62
4
 10
-5.86339341E+01
 20
3.82912262E+01
 11
-5.48339341E+01
 21
3.82912262E+01
  0
LINE
  8
0
 62
4
 10
-5.92339341E+01
 20
1.80992116E+01
 11
-5.92339341E+01
 21
3.54100825E+01
  0
LINE
  8
0
 62
7
 10
-2.96939341E+01
 20
1.67512262E+01
 11
-2.96939341E+01
 21
3.67412262E+01
  0
LINE
  8
0
 62
7
 10
-3.13939341E+01
 20
3.36112262E+01
 11
-3.13939341E+01
 21
3.67412262E+01
  0
LINE
  8
0
 62
7
 10
-2.96939341E+01
 20
3.52412262E+01
 11
-2.11939341E+01
 21
3.52412262E+01
  0
LINE
  8
0
 62
7
 10
5.12960659E+01
 20
1.72512262E+01
 11
5.12960659E+01
 21
3.62412262E+01
  0
LINE
  8
0
 62
7
 10
5.12960659E+01
 20
3.62412262E+01
 11
6.02960659E+01
 21
3.62412262E+01
  0
LINE
  8
0
 62
7
 10
5.29960659E+01
 20
3.31112262E+01
 11
5.85960659E+01
 21
3.31112262E+01
  0
LINE
  8
0
 62
7
 10
5.85960659E+01
 20
3.31112262E+01
 11
5.85960659E+01
 21
3.62412262E+01
  0
LINE
  8
0
 62
7
 10
5.29960659E+01
 20
3.31112262E+01
 11
5.29960659E+01
 21
3.62412262E+01
  0
LINE
  8
0
 62
7
 10
-5.31939341E+01
 20
1.87512262E+01
 11
-5.31939341E+01
 21
3.47412262E+01
  0
ARC
  8
0
 62
7
 10
5.50427626E+01
 20
2.42505048E+01
 40
5.25331152E+00
 50
3.12562421E+02
 51
3.59898801E+02
  0
ARC
  8
0
 62
7
 10
5.65603958E+01
 20
2.42553611E+01
 40
5.26434888E+00
 50
1.80153841E+02
 51
2.27384936E+02
  0
ARC
  8
0
 62
7
 10
-3.49556044E+01
 20
2.37541898E+01
 40
5.26168626E+00
 50
3.12602386E+02
 51
3.59858836E+02
  0
ARC
  8
0
 62
7
 10
-4.64379720E+01
 20
2.37516758E+01
 40
5.25597251E+00
 50
1.80113912E+02
 51
2.27424865E+02
  0
ARC
  8
0
 62
4
 10
-7.85685929E+01
 20
3.02099584E+01
 40
1.57536538E+00
 50
1.33046991E+02
 51
1.80317592E+02
  0
ARC
  8
0
 62
4
 10
-7.45689925E+01
 20
2.67436414E+01
 40
5.57494213E+00
 50
1.55548625E+02
 51
2.04505923E+02
  0
ARC
  8
0
 62
4
 10
-7.85655688E+01
 20
3.02037763E+01
 40
1.57836738E+00
 50
1.80092572E+02
 51
2.26904559E+02
  0
ARC
  8
0
 62
4
 10
-7.77354526E+01
 20
3.02094951E+01
 40
1.59153996E+00
 50
3.13300552E+02
 51
3.59702317E+02
  0
ARC
  8
0
 62
4
 10
-7.77324894E+01
 20
3.02042627E+01
 40
1.58855818E+00
 50
3.59890479E+02
 51
4.67449373E+01
  0
ARC
  8
0
 62
4
 10
-8.17338330E+01
 20
2.67404039E+01
 40
5.58989897E+00
 50
3.35600386E+02
 51
2.44181249E+01
  0
ARC
  8
0
 62
4
 10
-7.85692380E+01
 20
2.32802714E+01
 40
1.57469633E+00
 50
1.33037609E+02
 51
1.79965259E+02
  0
ARC
  8
0
 62
4
 10
-7.85685821E+01
 20
2.32824662E+01
 40
1.57535250E+00
 50
1.80045099E+02
 51
2.26952032E+02
  0
ARC
  8
0
 62
4
 10
-7.77324642E+01
 20
2.32881958E+01
 40
1.58854543E+00
 50
3.13254251E+02
 51
3.59748618E+02
  0
ARC
  8
0
 62
4
 10
-7.77318137E+01
 20
2.32745394E+01
 40
1.58789371E+00
 50
2.41279579E-01
 51
4.67558518E+01
  0
ARC
  8
0
 62
4
 10
-5.19951798E+01
 20
1.80867980E+01
 40
7.23875567E+00
 50
1.79964950E+02
 51
2.03492446E+02
  0
ARC
  8
0
 62
7
 10
-6.14832728E+01
 20
1.80889955E+01
 40
7.24933909E+00
 50
0.00000000E+00
 51
1.76306121E-02
  0
ARC
  8
0
 62
4
 10
-5.19930824E+01
 20
1.80952189E+01
 40
7.24085284E+00
 50
1.56511010E+02
 51
1.80031594E+02
  0
ARC
  8
0
 62
4
 10
-6.14853672E+01
 20
1.80930221E+01
 40
7.25143332E+00
 50
3.36497470E+02
 51
2.34715862E+01
  0
ARC
  8
0
 62
7
 10
5.50427546E+01
 20
2.92419550E+01
 40
5.25331138E+00
 50
3.59992050E+02
 51
4.74374590E+01
  0
ARC
  8
0
 62
7
 10
5.65604130E+01
 20
2.92371073E+01
 40
5.26434874E+00
 50
1.32615319E+02
 51
1.79955171E+02
  0
ARC
  8
0
 62
7
 10
-4.64379617E+01
 20
2.97407861E+01
 40
5.25597237E+00
 50
1.32575287E+02
 51
1.79995203E+02
  0
ARC
  8
0
 62
4
 10
-3.11624947E+01
 20
2.67383815E+01
 40
2.80714395E+01
 50
1.68132546E+02
 51
1.91845399E+02
  0
ARC
  8
0
 62
4
 10
-5.19951798E+01
 20
3.54056544E+01
 40
7.23875560E+00
 50
1.56507554E+02
 51
1.80035050E+02
  0
ARC
  8
0
 62
7
 10
-6.14832728E+01
 20
3.54034569E+01
 40
7.24933901E+00
 50
3.59982369E+02
 51
0.00000000E+00
  0
ARC
  8
0
 62
4
 10
-8.23163108E+01
 20
2.67372442E+01
 40
2.80823770E+01
 50
3.48172313E+02
 51
1.18651360E+01
  0
ARC
  8
0
 62
4
 10
-5.19930823E+01
 20
3.53972335E+01
 40
7.24085291E+00
 50
1.79968406E+02
 51
2.03488990E+02
  0
ARC
  8
0
 62
7
 10
-6.14853673E+01
 20
3.53994303E+01
 40
7.25143340E+00
 50
0.00000000E+00
 51
1.41897939E-02
  0
ARC
  8
0
 62
7
 10
-3.49556194E+01
 20
2.97382766E+01
 40
5.26168612E+00
 50
3.21190238E-02
 51
4.73973904E+01
  0
CIRCLE
  8
0
 62
2
 10
-3.41973398E+01
 20
2.67462264E+01
 40
2.50000000E+00
  0
CIRCLE
  8
0
 62
2
 10
5.58026449E+01
 20
2.67462264E+01
 40
2.50000000E+00
  0
ARC
  8
0
 62
4
 10
-6.14853672E+01
 20
3.53894303E+01
 40
7.25143332E+00
 50
3.36528414E+02
 51
2.35025297E+01
  0
ARC
  8
0
 62
4
 10
3.92944003E+01
 20
4.62395605E+01
 40
1.00166704E+00
 50
9.52762946E-02
 51
8.99047236E+01
  0
ARC
  8
0
 62
4
 10
3.62968574E+01
 20
4.62404347E+01
 40
1.00079180E+00
 50
9.00000002E+01
 51
1.79954687E+02
  0
LINE
  8
0
 62
6
 10
3.65660659E+01
 20
4.57412262E+01
 11
3.65660659E+01
 21
4.47412262E+01
  0
LINE
  8
0
 62
6
 10
3.90260659E+01
 20
4.57412262E+01
 11
3.90260659E+01
 21
4.47412262E+01
  0
LINE
  8
0
 62
4
 10
3.62960659E+01
 20
4.57412262E+01
 11
3.62960659E+01
 21
4.47412262E+01
  0
LINE
  8
0
 62
4
 10
3.92960659E+01
 20
4.57412262E+01
 11
3.92960659E+01
 21
4.47412262E+01
  0
LINE
  8
0
 62
4
 10
3.62960659E+01
 20
4.72412262E+01
 11
3.92960659E+01
 21
4.72412262E+01
  0
LINE
  8
0
 62
4
 10
3.52960659E+01
 20
4.57412262E+01
 11
4.02960659E+01
 21
4.57412262E+01
  0
LINE
  8
0
 62
4
 10
3.32960659E+01
 20
4.47412262E+01
 11
4.22960659E+01
 21
4.47412262E+01
  0
LINE
  8
0
 62
4
 10
4.02960659E+01
 20
4.62412262E+01
 11
4.02960659E+01
 21
4.57412262E+01
  0
LINE
  8
0
 62
4
 10
3.52960659E+01
 20
4.62412262E+01
 11
3.52960659E+01
 21
4.57412262E+01
  0
ARC
  8
0
 62
4
 10
-1.26955997E+01
 20
4.62395605E+01
 40
1.00166704E+00
 50
9.52762946E-02
 51
8.99047236E+01
  0
ARC
  8
0
 62
4
 10
-1.56931426E+01
 20
4.62404347E+01
 40
1.00079180E+00
 50
9.00000002E+01
 51
1.79954687E+02
  0
LINE
  8
0
 62
6
 10
-1.54239341E+01
 20
4.57412262E+01
 11
-1.54239341E+01
 21
4.47412262E+01
  0
LINE
  8
0
 62
6
 10
-1.29639341E+01
 20
4.57412262E+01
 11
-1.29639341E+01
 21
4.47412262E+01
  0
LINE
  8
0
 62
4
 10
-1.56939341E+01
 20
4.57412262E+01
 11
-1.56939341E+01
 21
4.47412262E+01
  0
LINE
  8
0
 62
4
 10
-1.26939341E+01
 20
4.57412262E+01
 11
-1.26939341E+01
 21
4.47412262E+01
  0
LINE
  8
0
 62
4
 10
-1.56939341E+01
 20
4.72412262E+01
 11
-1.26939341E+01
 21
4.72412262E+01
  0
LINE
  8
0
 62
4
 10
-1.66939341E+01
 20
4.57412262E+01
 11
-1.16939341E+01
 21
4.57412262E+01
  0
LINE
  8
0
 62
4
 10
-1.86939341E+01
 20
4.47412262E+01
 11
-9.69393409E+00
 21
4.47412262E+01
  0
LINE
  8
0
 62
4
 10
-1.16939341E+01
 20
4.62412262E+01
 11
-1.16939341E+01
 21
4.57412262E+01
  0
LINE
  8
0
 62
4
 10
-1.66939341E+01
 20
4.62412262E+01
 11
-1.66939341E+01
 21
4.57412262E+01
  0
LINE
  8
0
  6
CENTER
 62
2
 10
-1.06633934E+02
 20
4.82439303E+01
 11
-1.06633934E+02
 21
1.31259456E+01
  0
LINE
  8
0
 62
4
 10
-1.04583934E+02
 20
4.00412262E+01
 11
-1.05583934E+02
 21
3.90412262E+01
  0
LINE
  8
0
 62
4
 10
-1.08683934E+02
 20
4.00412262E+01
 11
-1.07683934E+02
 21
3.90412262E+01
  0
LINE
  8
0
 62
4
 10
-1.05583934E+02
 20
3.90412262E+01
 11
-1.05583934E+02
 21
3.76843262E+01
  0
LINE
  8
0
 62
4
 10
-1.05583934E+02
 20
3.90412262E+01
 11
-1.07683934E+02
 21
3.90412262E+01
  0
LINE
  8
0
 62
4
 10
-1.07683934E+02
 20
3.90412262E+01
 11
-1.07683934E+02
 21
3.76843262E+01
  0
LINE
  8
0
 62
4
 10
-1.05133934E+02
 20
4.20412262E+01
 11
-1.05433934E+02
 21
4.17412262E+01
  0
LINE
  8
0
 62
4
 10
-1.08133934E+02
 20
4.20412262E+01
 11
-1.07833934E+02
 21
4.17412262E+01
  0
LINE
  8
0
 62
4
 10
-1.05133934E+02
 20
4.20412262E+01
 11
-1.05433934E+02
 21
4.17412262E+01
  0
LINE
  8
0
 62
4
 10
-1.08133934E+02
 20
4.20412262E+01
 11
-1.07833934E+02
 21
4.17412262E+01
  0
LINE
  8
0
 62
4
 10
-1.12299630E+02
 20
3.72635069E+01
 11
-1.12157028E+02
 21
3.72169808E+01
  0
LINE
  8
0
 62
4
 10
-1.11558934E+02
 20
4.11457302E+01
 11
-1.13439501E+02
 21
3.53818131E+01
  0
LINE
  8
0
 62
4
 10
-1.12157043E+02
 20
3.72169360E+01
 11
-1.12550118E+02
 21
3.60121645E+01
  0
LINE
  8
0
 62
4
 10
-1.11058934E+02
 20
4.10662262E+01
 11
-1.12750542E+02
 21
3.58814651E+01
  0
LINE
  8
0
 62
4
 10
-1.03133934E+02
 20
3.82412262E+01
 11
-1.02021081E+02
 21
3.62412262E+01
  0
LINE
  8
0
 62
4
 10
-1.03283934E+02
 20
3.82412262E+01
 11
-1.02176954E+02
 21
3.62412262E+01
  0
LINE
  8
0
 62
4
 10
-1.03133934E+02
 20
4.47412262E+01
 11
-1.10133934E+02
 21
4.47412262E+01
  0
LINE
  8
0
 62
4
 10
-1.10133934E+02
 20
4.34412262E+01
 11
-1.10133934E+02
 21
3.75412262E+01
  0
LINE
  8
0
 62
4
 10
-1.03133934E+02
 20
4.34412262E+01
 11
-1.03133934E+02
 21
3.82412262E+01
  0
LINE
  8
0
 62
4
 10
-1.10933934E+02
 20
3.97390040E+01
 11
-1.11403452E+02
 21
4.00102812E+01
  0
LINE
  8
0
 62
4
 10
-1.11633934E+02
 20
4.30412262E+01
 11
-1.11633934E+02
 21
4.13562262E+01
  0
LINE
  8
0
 62
4
 10
-1.11633934E+02
 20
4.30412262E+01
 11
-1.12433934E+02
 21
4.30412262E+01
  0
LINE
  8
0
 62
4
 10
-1.08918934E+02
 20
4.39412262E+01
 11
-1.08778934E+02
 21
4.31412262E+01
  0
LINE
  8
0
 62
4
 10
-1.04348934E+02
 20
4.39412262E+01
 11
-1.04488934E+02
 21
4.31412262E+01
  0
LINE
  8
0
 62
4
 10
-1.04488934E+02
 20
4.31412262E+01
 11
-1.08778934E+02
 21
4.31412262E+01
  0
LINE
  8
0
 62
6
 10
-1.07863934E+02
 20
4.52412262E+01
 11
-1.07863934E+02
 21
4.47412262E+01
  0
LINE
  8
0
 62
6
 10
-1.05403934E+02
 20
4.52412262E+01
 11
-1.05403934E+02
 21
4.47412262E+01
  0
LINE
  8
0
 62
4
 10
-1.02333934E+02
 20
4.39412262E+01
 11
-1.02333934E+02
 21
3.82412262E+01
  0
LINE
  8
0
 62
4
 10
-1.10933934E+02
 20
3.75412262E+01
 11
-1.10933934E+02
 21
4.39412262E+01
  0
LINE
  8
0
 62
4
 10
-1.03633934E+02
 20
4.39412262E+01
 11
-1.09633934E+02
 21
4.39412262E+01
  0
LINE
  8
0
 62
4
 10
-1.12433934E+02
 20
4.30412262E+01
 11
-1.12433934E+02
 21
4.08962262E+01
  0
LINE
  8
0
 62
4
 10
-1.10933934E+02
 20
4.06652262E+01
 11
-1.11148039E+02
 21
4.07894069E+01
  0
LINE
  8
0
 62
4
 10
-1.03283934E+02
 20
4.34412262E+01
 11
-1.03283934E+02
 21
3.82412262E+01
  0
LINE
  8
0
 62
4
 10
-1.03133934E+02
 20
4.34412262E+01
 11
-1.03283934E+02
 21
4.34412262E+01
  0
LINE
  8
0
 62
4
 10
-1.03383934E+02
 20
4.17412262E+01
 11
-1.09883934E+02
 21
4.17412262E+01
  0
LINE
  8
0
 62
4
 10
-1.03383934E+02
 20
4.10412262E+01
 11
-1.09883934E+02
 21
4.10412262E+01
  0
LINE
  8
0
 62
4
 10
-1.11058934E+02
 20
4.35662262E+01
 11
-1.11058934E+02
 21
4.10662262E+01
  0
LINE
  8
0
 62
4
 10
-1.11558934E+02
 20
4.35662262E+01
 11
-1.11558934E+02
 21
4.11457302E+01
  0
LINE
  8
0
 62
4
 10
-1.11058934E+02
 20
4.35662262E+01
 11
-1.11558934E+02
 21
4.35662262E+01
  0
LINE
  8
0
 62
4
 10
-1.08133934E+02
 20
4.57412262E+01
 11
-1.08133934E+02
 21
4.47412262E+01
  0
LINE
  8
0
 62
4
 10
-1.05133934E+02
 20
4.57412262E+01
 11
-1.05133934E+02
 21
4.47412262E+01
  0
LINE
  8
0
 62
4
 10
-1.02333934E+02
 20
3.82412262E+01
 11
-1.03133934E+02
 21
3.82412262E+01
  0
LINE
  8
0
 62
4
 10
-1.10133934E+02
 20
3.75412262E+01
 11
-1.10933934E+02
 21
3.75412262E+01
  0
LINE
  8
0
 62
4
 10
-1.04133934E+02
 20
4.57412262E+01
 11
-1.09133934E+02
 21
4.57412262E+01
  0
LINE
  8
0
 62
4
 10
-1.05133934E+02
 20
4.72412262E+01
 11
-1.08133934E+02
 21
4.72412262E+01
  0
LINE
  8
0
 62
4
 10
-1.04133934E+02
 20
4.62412262E+01
 11
-1.04133934E+02
 21
4.57412262E+01
  0
LINE
  8
0
 62
4
 10
-1.09133934E+02
 20
4.62412262E+01
 11
-1.09133934E+02
 21
4.57412262E+01
  0
LINE
  8
0
 62
4
 10
-1.05133934E+02
 20
4.52412262E+01
 11
-1.08133934E+02
 21
4.52412262E+01
  0
ARC
  8
0
 62
4
 10
-1.03133937E+02
 20
4.39412229E+01
 40
8.00003254E-01
 50
2.33015759E-04
 51
9.00000002E+01
  0
ARC
  8
0
 62
4
 10
-1.10135597E+02
 20
4.39428888E+01
 40
7.98339134E-01
 50
8.98806771E+01
 51
1.80119323E+02
  0
ARC
  8
0
 62
4
 10
-1.03633938E+02
 20
4.34412219E+01
 40
5.00004290E-01
 50
4.91607912E-04
 51
9.00000002E+01
  0
ARC
  8
0
 62
4
 10
-1.09635597E+02
 20
4.34428888E+01
 40
4.98340176E-01
 50
8.98088454E+01
 51
1.80191155E+02
  0
ARC
  8
0
 62
4
 10
-1.11933730E+02
 20
4.08943605E+01
 40
5.00207143E-01
 50
1.79786293E+02
 51
2.39986760E+02
  0
ARC
  8
0
 62
4
 10
-1.11135082E+02
 20
4.13585819E+01
 40
4.98857363E-01
 50
1.80270562E+02
 51
2.09445368E+02
  0
ARC
  8
0
 62
4
 10
-1.08135346E+02
 20
4.62426385E+01
 40
9.98588677E-01
 50
8.99189656E+01
 51
1.80081034E+02
  0
ARC
  8
0
 62
4
 10
-1.05134187E+02
 20
4.62409734E+01
 40
1.00025280E+00
 50
1.44788446E-02
 51
9.00000002E+01
  0
LINE
  8
0
 62
4
 10
-1.09883934E+02
 20
4.17412262E+01
 11
-1.09883934E+02
 21
3.64127262E+01
  0
LINE
  8
0
 62
4
 10
-1.03383934E+02
 20
3.78412262E+01
 11
-1.03383934E+02
 21
3.64127262E+01
  0
LINE
  8
0
 62
4
 10
-1.03383934E+02
 20
3.78412262E+01
 11
-1.04583934E+02
 21
3.78412262E+01
  0
LINE
  8
0
 62
4
 10
-1.03383934E+02
 20
3.82412262E+01
 11
-1.04583934E+02
 21
3.82412262E+01
  0
LINE
  8
0
 62
4
 10
-1.03383934E+02
 20
4.17412262E+01
 11
-1.03383934E+02
 21
3.82412262E+01
  0
LINE
  8
0
 62
4
 10
-1.04583934E+02
 20
4.00412262E+01
 11
-1.08683934E+02
 21
4.00412262E+01
  0
LINE
  8
0
 62
4
 10
-1.05633934E+02
 20
4.03412262E+01
 11
-1.07633934E+02
 21
4.03412262E+01
  0
LINE
  8
0
 62
4
 10
-1.05633934E+02
 20
4.03412262E+01
 11
-1.05633934E+02
 21
4.00412262E+01
  0
LINE
  8
0
 62
4
 10
-1.04583934E+02
 20
4.00412262E+01
 11
-1.04583934E+02
 21
3.71063262E+01
  0
LINE
  8
0
 62
4
 10
-1.08683934E+02
 20
4.00412262E+01
 11
-1.08683934E+02
 21
3.71063262E+01
  0
LINE
  8
0
 62
4
 10
-1.07633934E+02
 20
4.03412262E+01
 11
-1.07633934E+02
 21
4.00412262E+01
  0
LINE
  8
0
 62
4
 10
-1.05133934E+02
 20
4.31412262E+01
 11
-1.05133934E+02
 21
4.20412262E+01
  0
LINE
  8
0
 62
4
 10
-1.08133934E+02
 20
4.31412262E+01
 11
-1.08133934E+02
 21
4.20412262E+01
  0
LINE
  8
0
 62
6
 10
-1.05403934E+02
 20
4.31412262E+01
 11
-1.05403934E+02
 21
4.17712262E+01
  0
LINE
  8
0
 62
6
 10
-1.07863934E+02
 20
4.31412262E+01
 11
-1.07863934E+02
 21
4.17712262E+01
  0
LINE
  8
0
 62
4
 10
-1.11845973E+02
 20
4.02659597E+01
 11
-1.12183934E+02
 21
4.04612262E+01
  0
CIRCLE
  8
0
 62
2
 10
-1.06633934E+02
 20
2.67412262E+01
 40
6.91750000E+00
  0
CIRCLE
  8
0
 62
2
 10
-1.06633934E+02
 20
2.67412262E+01
 40
2.06700000E+00
  0
LINE
  8
0
 62
7
 10
-1.12173934E+02
 20
1.72512262E+01
 11
-1.10173934E+02
 21
1.72512262E+01
  0
LINE
  8
0
 62
7
 10
-1.12173934E+02
 20
3.62412262E+01
 11
-1.10173934E+02
 21
3.62412262E+01
  0
LINE
  8
0
  6
CENTER
 62
2
 10
-1.18325457E+02
 20
2.67412262E+01
 11
-9.50439341E+01
 21
2.67412262E+01
  0
LINE
  8
0
 62
4
 10
-1.10633934E+02
 20
2.90512262E+01
 11
-1.06633934E+02
 21
3.13612262E+01
  0
LINE
  8
0
 62
4
 10
-1.06633934E+02
 20
2.21312262E+01
 11
-1.02633934E+02
 21
2.44312262E+01
  0
LINE
  8
0
 62
4
 10
-1.10633934E+02
 20
2.90512262E+01
 11
-1.10633934E+02
 21
2.44312262E+01
  0
LINE
  8
0
 62
4
 10
-1.02633934E+02
 20
2.90512262E+01
 11
-1.02633934E+02
 21
2.44312262E+01
  0
LINE
  8
0
 62
4
 10
-1.10633934E+02
 20
2.44312262E+01
 11
-1.06633934E+02
 21
2.21312262E+01
  0
LINE
  8
0
 62
4
 10
-1.06633934E+02
 20
3.13612262E+01
 11
-1.02633934E+02
 21
2.90512262E+01
  0
LINE
  8
0
 62
4
 10
-1.06633934E+02
 20
1.52012262E+01
 11
-9.66339341E+01
 21
2.09812262E+01
  0
LINE
  8
0
 62
4
 10
-1.16633934E+02
 20
3.25112262E+01
 11
-1.06633934E+02
 21
3.82912262E+01
  0
LINE
  8
0
 62
4
 10
-1.16633934E+02
 20
3.25112262E+01
 11
-1.16633934E+02
 21
2.09812262E+01
  0
LINE
  8
0
 62
4
 10
-9.66339341E+01
 20
3.25112262E+01
 11
-9.66339341E+01
 21
2.09812262E+01
  0
LINE
  8
0
 62
4
 10
-1.16633934E+02
 20
2.09812262E+01
 11
-1.06633934E+02
 21
1.52012262E+01
  0
LINE
  8
0
 62
4
 10
-1.06633934E+02
 20
3.82912262E+01
 11
-9.66339341E+01
 21
3.25112262E+01
  0
LINE
  8
0
 62
7
 10
-1.03083934E+02
 20
1.72512262E+01
 11
-1.01083934E+02
 21
1.72512262E+01
  0
LINE
  8
0
 62
7
 10
-1.03083934E+02
 20
3.62412262E+01
 11
-1.01083934E+02
 21
3.62412262E+01
  0
ARC
  8
0
 62
7
 10
-1.06634014E+02
 20
2.67434868E+01
 40
1.10004747E+01
 50
3.53704304E+01
 51
5.96997781E+01
  0
ARC
  8
0
 62
7
 10
-1.06645467E+02
 20
2.67384976E+01
 40
1.09938980E+01
 50
1.20189849E+02
 51
1.44573331E+02
  0
ARC
  8
0
 62
7
 10
-1.06645467E+02
 20
2.67539550E+01
 40
1.09938983E+01
 50
2.15426669E+02
 51
2.39810150E+02
  0
ARC
  8
0
 62
7
 10
-1.06634014E+02
 20
2.67489658E+01
 40
1.10004750E+01
 50
3.00300223E+02
 51
3.24629569E+02
  0
CIRCLE
  8
0
 62
7
 10
-1.06637007E+02
 20
2.67462264E+01
 40
2.50000000E+00
  0
CIRCLE
  8
0
 62
4
 10
-1.06637007E+02
 20
2.67462264E+01
 40
4.00000000E+00
  0
CIRCLE
  8
0
 62
7
 10
-1.06633934E+02
 20
2.67412262E+01
 40
8.00000000E+00
  0
CIRCLE
  8
0
 62
4
 10
-1.06633934E+02
 20
2.67412262E+01
 40
1.00000000E+01
  0
LINE
  8
0
  6
CENTER
 62
2
 10
1.04366066E+02
 20
4.86523171E+01
 11
1.04366066E+02
 21
1.31259456E+01
  0
LINE
  8
0
 62
4
 10
1.02866066E+02
 20
4.20412262E+01
 11
1.03166066E+02
 21
4.17412262E+01
  0
LINE
  8
0
 62
4
 10
1.05866066E+02
 20
4.20412262E+01
 11
1.05566066E+02
 21
4.17412262E+01
  0
LINE
  8
0
 62
4
 10
1.02866066E+02
 20
4.20412262E+01
 11
1.03166066E+02
 21
4.17412262E+01
  0
LINE
  8
0
 62
4
 10
1.05866066E+02
 20
4.20412262E+01
 11
1.05566066E+02
 21
4.17412262E+01
  0
LINE
  8
0
 62
4
 10
1.10031762E+02
 20
3.72635069E+01
 11
1.09889160E+02
 21
3.72169808E+01
  0
LINE
  8
0
 62
4
 10
1.09291066E+02
 20
4.11457302E+01
 11
1.11169780E+02
 21
3.53874922E+01
  0
LINE
  8
0
 62
4
 10
1.09889174E+02
 20
3.72169360E+01
 11
1.10280030E+02
 21
3.60189662E+01
  0
LINE
  8
0
 62
4
 10
1.08791066E+02
 20
4.10662262E+01
 11
1.10480530E+02
 21
3.58880366E+01
  0
LINE
  8
0
 62
4
 10
1.00866066E+02
 20
3.82412262E+01
 11
9.97532127E+01
 21
3.62412262E+01
  0
LINE
  8
0
 62
4
 10
1.01016066E+02
 20
3.82412262E+01
 11
9.99090856E+01
 21
3.62412262E+01
  0
ARC
  8
0
 62
4
 10
1.04366066E+02
 20
3.80412262E+01
 40
1.30000000E+00
 50
0.00000000E+00
 51
2.00443733E+02
  0
LINE
  8
0
 62
4
 10
1.00866066E+02
 20
4.47412262E+01
 11
1.07866066E+02
 21
4.47412262E+01
  0
LINE
  8
0
 62
4
 10
1.07866066E+02
 20
4.34412262E+01
 11
1.07866066E+02
 21
3.75412262E+01
  0
LINE
  8
0
 62
4
 10
1.00866066E+02
 20
4.34412262E+01
 11
1.00866066E+02
 21
3.82412262E+01
  0
LINE
  8
0
 62
4
 10
1.08666066E+02
 20
3.97390040E+01
 11
1.09135584E+02
 21
4.00102812E+01
  0
LINE
  8
0
 62
4
 10
1.09366066E+02
 20
4.30412262E+01
 11
1.09366066E+02
 21
4.13562262E+01
  0
LINE
  8
0
 62
4
 10
1.09366066E+02
 20
4.30412262E+01
 11
1.10166066E+02
 21
4.30412262E+01
  0
LINE
  8
0
 62
4
 10
1.06651066E+02
 20
4.39412262E+01
 11
1.06511066E+02
 21
4.31412262E+01
  0
LINE
  8
0
 62
4
 10
1.02081066E+02
 20
4.39412262E+01
 11
1.02221066E+02
 21
4.31412262E+01
  0
LINE
  8
0
 62
4
 10
1.02221066E+02
 20
4.31412262E+01
 11
1.06511066E+02
 21
4.31412262E+01
  0
LINE
  8
0
 62
6
 10
1.05596066E+02
 20
4.52412262E+01
 11
1.05596066E+02
 21
4.47412262E+01
  0
LINE
  8
0
 62
6
 10
1.03136066E+02
 20
4.52412262E+01
 11
1.03136066E+02
 21
4.47412262E+01
  0
LINE
  8
0
 62
4
 10
1.00066066E+02
 20
4.39412262E+01
 11
1.00066066E+02
 21
3.82412262E+01
  0
LINE
  8
0
 62
4
 10
1.08666066E+02
 20
3.75412262E+01
 11
1.08666066E+02
 21
4.39412262E+01
  0
LINE
  8
0
 62
4
 10
1.01366066E+02
 20
4.39412262E+01
 11
1.07366066E+02
 21
4.39412262E+01
  0
LINE
  8
0
 62
4
 10
1.10166066E+02
 20
4.30412262E+01
 11
1.10166066E+02
 21
4.08962262E+01
  0
LINE
  8
0
 62
4
 10
1.08666066E+02
 20
4.06652262E+01
 11
1.08880171E+02
 21
4.07894069E+01
  0
LINE
  8
0
 62
4
 10
1.01016066E+02
 20
4.34412262E+01
 11
1.01016066E+02
 21
3.82412262E+01
  0
LINE
  8
0
 62
4
 10
1.00866066E+02
 20
4.34412262E+01
 11
1.01016066E+02
 21
4.34412262E+01
  0
LINE
  8
0
 62
4
 10
1.01116066E+02
 20
4.17412262E+01
 11
1.07616066E+02
 21
4.17412262E+01
  0
LINE
  8
0
 62
4
 10
1.01116066E+02
 20
4.10412262E+01
 11
1.07616066E+02
 21
4.10412262E+01
  0
LINE
  8
0
 62
4
 10
1.08791066E+02
 20
4.35662262E+01
 11
1.08791066E+02
 21
4.10662262E+01
  0
LINE
  8
0
 62
4
 10
1.09291066E+02
 20
4.35662262E+01
 11
1.09291066E+02
 21
4.11457302E+01
  0
LINE
  8
0
 62
4
 10
1.08791066E+02
 20
4.35662262E+01
 11
1.09291066E+02
 21
4.35662262E+01
  0
LINE
  8
0
 62
4
 10
1.05866066E+02
 20
4.57412262E+01
 11
1.05866066E+02
 21
4.47412262E+01
  0
LINE
  8
0
 62
4
 10
1.02866066E+02
 20
4.57412262E+01
 11
1.02866066E+02
 21
4.47412262E+01
  0
LINE
  8
0
 62
4
 10
1.00066066E+02
 20
3.82412262E+01
 11
1.00866066E+02
 21
3.82412262E+01
  0
LINE
  8
0
 62
4
 10
1.07866066E+02
 20
3.75412262E+01
 11
1.08666066E+02
 21
3.75412262E+01
  0
LINE
  8
0
 62
4
 10
1.01866066E+02
 20
4.57412262E+01
 11
1.06866066E+02
 21
4.57412262E+01
  0
LINE
  8
0
 62
4
 10
1.02866066E+02
 20
4.72412262E+01
 11
1.05866066E+02
 21
4.72412262E+01
  0
LINE
  8
0
 62
4
 10
1.01866066E+02
 20
4.62412262E+01
 11
1.01866066E+02
 21
4.57412262E+01
  0
LINE
  8
0
 62
4
 10
1.06866066E+02
 20
4.62412262E+01
 11
1.06866066E+02
 21
4.57412262E+01
  0
LINE
  8
0
 62
4
 10
1.02866066E+02
 20
4.52412262E+01
 11
1.05866066E+02
 21
4.52412262E+01
  0
ARC
  8
0
 62
4
 10
1.00866069E+02
 20
4.39412229E+01
 40
8.00003254E-01
 50
9.00000002E+01
 51
1.79999767E+02
  0
ARC
  8
0
 62
4
 10
1.07867729E+02
 20
4.39428888E+01
 40
7.98339134E-01
 50
3.59880678E+02
 51
9.01193227E+01
  0
ARC
  8
0
 62
4
 10
1.01366070E+02
 20
4.34412219E+01
 40
5.00004290E-01
 50
9.00000002E+01
 51
1.79999508E+02
  0
ARC
  8
0
 62
4
 10
1.07367729E+02
 20
4.34428888E+01
 40
4.98340176E-01
 50
3.59808845E+02
 51
9.01911544E+01
  0
ARC
  8
0
 62
4
 10
1.09665862E+02
 20
4.08943605E+01
 40
5.00207143E-01
 50
3.00013240E+02
 51
2.13706628E-01
  0
ARC
  8
0
 62
4
 10
1.08867214E+02
 20
4.13585819E+01
 40
4.98857363E-01
 50
3.30554632E+02
 51
3.59729437E+02
  0
ARC
  8
0
 62
4
 10
1.05867478E+02
 20
4.62426385E+01
 40
9.98588677E-01
 50
3.59918966E+02
 51
9.00810348E+01
  0
ARC
  8
0
 62
4
 10
1.02866319E+02
 20
4.62409734E+01
 40
1.00025280E+00
 50
9.00000002E+01
 51
1.79985521E+02
  0
LINE
  8
0
 62
4
 10
1.07616066E+02
 20
4.17412262E+01
 11
1.07616066E+02
 21
3.64127262E+01
  0
LINE
  8
0
 62
4
 10
1.01116066E+02
 20
3.78412262E+01
 11
1.01116066E+02
 21
3.64127262E+01
  0
LINE
  8
0
 62
4
 10
1.01116066E+02
 20
3.78412262E+01
 11
1.02316066E+02
 21
3.78412262E+01
  0
LINE
  8
0
 62
4
 10
1.01116066E+02
 20
3.82412262E+01
 11
1.02316066E+02
 21
3.82412262E+01
  0
LINE
  8
0
 62
4
 10
1.01116066E+02
 20
4.17412262E+01
 11
1.01116066E+02
 21
3.82412262E+01
  0
LINE
  8
0
 62
4
 10
1.02316066E+02
 20
4.00412262E+01
 11
1.06416066E+02
 21
4.00412262E+01
  0
LINE
  8
0
 62
4
 10
1.03366066E+02
 20
4.03412262E+01
 11
1.05366066E+02
 21
4.03412262E+01
  0
LINE
  8
0
 62
4
 10
1.03066066E+02
 20
3.93412262E+01
 11
1.05666066E+02
 21
3.93412262E+01
  0
LINE
  8
0
 62
4
 10
1.03366066E+02
 20
4.03412262E+01
 11
1.03366066E+02
 21
4.00412262E+01
  0
LINE
  8
0
 62
4
 10
1.02316066E+02
 20
4.00412262E+01
 11
1.02316066E+02
 21
3.71063262E+01
  0
LINE
  8
0
 62
4
 10
1.03066066E+02
 20
3.93412262E+01
 11
1.03066066E+02
 21
3.75398262E+01
  0
LINE
  8
0
 62
4
 10
1.02316066E+02
 20
4.00412262E+01
 11
1.03066066E+02
 21
3.93412262E+01
  0
LINE
  8
0
 62
4
 10
1.06416066E+02
 20
4.00412262E+01
 11
1.06416066E+02
 21
3.71063262E+01
  0
LINE
  8
0
 62
4
 10
1.05366066E+02
 20
4.03412262E+01
 11
1.05366066E+02
 21
4.00412262E+01
  0
LINE
  8
0
 62
4
 10
1.05666066E+02
 20
3.93412262E+01
 11
1.05666066E+02
 21
3.75398262E+01
  0
LINE
  8
0
 62
4
 10
1.05666066E+02
 20
3.93412262E+01
 11
1.06416066E+02
 21
4.00412262E+01
  0
LINE
  8
0
 62
4
 10
1.02866066E+02
 20
4.31412262E+01
 11
1.02866066E+02
 21
4.20412262E+01
  0
LINE
  8
0
 62
4
 10
1.05866066E+02
 20
4.31412262E+01
 11
1.05866066E+02
 21
4.20412262E+01
  0
LINE
  8
0
 62
6
 10
1.03136066E+02
 20
4.31412262E+01
 11
1.03136066E+02
 21
4.17712262E+01
  0
LINE
  8
0
 62
6
 10
1.05596066E+02
 20
4.31412262E+01
 11
1.05596066E+02
 21
4.17712262E+01
  0
LINE
  8
0
 62
4
 10
1.09578105E+02
 20
4.02659597E+01
 11
1.09916066E+02
 21
4.04612262E+01
  0
CIRCLE
  8
0
 62
7
 10
1.04362993E+02
 20
2.67462264E+01
 40
8.00000000E+00
  0
ARC
  8
0
 62
7
 10
1.04365986E+02
 20
2.67489658E+01
 40
1.10004750E+01
 50
3.00300223E+02
 51
3.24629569E+02
  0
ARC
  8
0
 62
7
 10
1.04354533E+02
 20
2.67539550E+01
 40
1.09938983E+01
 50
2.15426669E+02
 51
2.39810150E+02
  0
ARC
  8
0
 62
7
 10
1.04354533E+02
 20
2.67384976E+01
 40
1.09938980E+01
 50
1.20189849E+02
 51
1.44573331E+02
  0
ARC
  8
0
 62
7
 10
1.04365986E+02
 20
2.67434868E+01
 40
1.10004747E+01
 50
3.53704304E+01
 51
5.96997781E+01
  0
LINE
  8
0
 62
7
 10
1.07916066E+02
 20
3.62412262E+01
 11
1.09916066E+02
 21
3.62412262E+01
  0
LINE
  8
0
 62
7
 10
1.07916066E+02
 20
1.72512262E+01
 11
1.09916066E+02
 21
1.72512262E+01
  0
LINE
  8
0
 62
4
 10
1.04366066E+02
 20
3.82912262E+01
 11
1.14366066E+02
 21
3.25112262E+01
  0
LINE
  8
0
 62
4
 10
9.43660659E+01
 20
2.09812262E+01
 11
1.04366066E+02
 21
1.52012262E+01
  0
LINE
  8
0
 62
4
 10
1.14366066E+02
 20
3.25112262E+01
 11
1.14366066E+02
 21
2.09812262E+01
  0
LINE
  8
0
 62
4
 10
9.43660659E+01
 20
3.25112262E+01
 11
9.43660659E+01
 21
2.09812262E+01
  0
LINE
  8
0
 62
4
 10
9.43660659E+01
 20
3.25112262E+01
 11
1.04366066E+02
 21
3.82912262E+01
  0
LINE
  8
0
 62
4
 10
1.04366066E+02
 20
1.52012262E+01
 11
1.14366066E+02
 21
2.09812262E+01
  0
LINE
  8
0
 62
7
 10
9.88260659E+01
 20
3.62412262E+01
 11
1.00826066E+02
 21
3.62412262E+01
  0
LINE
  8
0
 62
7
 10
9.88260659E+01
 20
1.72512262E+01
 11
1.00826066E+02
 21
1.72512262E+01
  0
CIRCLE
  8
0
 62
2
 10
1.04366066E+02
 20
2.67412262E+01
 40
6.91750000E+00
  0
LINE
  8
0
  6
CENTER
 62
2
 10
9.26745431E+01
 20
2.67412262E+01
 11
1.15956066E+02
 21
2.67412262E+01
  0
CIRCLE
  8
0
 62
4
 10
1.04366066E+02
 20
2.67412262E+01
 40
1.00000000E+01
  0
LINE
  8
0
  6
CENTER
 62
6
 10
-1.41939341E+01
 20
8.36451035E+01
 11
-1.41939341E+01
 21
6.36451049E+01
  0
LINE
  8
0
 62
4
 10
-1.86939341E+01
 20
6.49951049E+01
 11
-9.69393409E+00
 21
6.49951049E+01
  0
LINE
  8
0
 62
4
 10
-2.66939341E+01
 20
7.46451049E+01
 11
-2.56939341E+01
 21
7.56451049E+01
  0
LINE
  8
0
 62
4
 10
-2.11939341E+01
 20
7.03951049E+01
 11
-2.11939341E+01
 21
7.68951049E+01
  0
LINE
  8
0
 62
4
 10
-2.56939341E+01
 20
7.56451049E+01
 11
-2.56939341E+01
 21
7.16451049E+01
  0
LINE
  8
0
 62
4
 10
-2.56939341E+01
 20
7.56451049E+01
 11
-2.11939341E+01
 21
7.56451049E+01
  0
LINE
  8
0
 62
4
 10
-2.11939341E+01
 20
7.68951049E+01
 11
-1.86939341E+01
 21
7.68951049E+01
  0
LINE
  8
0
 62
4
 10
-2.66939341E+01
 20
7.46451049E+01
 11
-2.66939341E+01
 21
7.26451049E+01
  0
LINE
  8
0
 62
4
 10
-2.66939341E+01
 20
7.26451049E+01
 11
-2.56939341E+01
 21
7.16451049E+01
  0
LINE
  8
0
 62
4
 10
-2.56939341E+01
 20
7.16451049E+01
 11
-2.11939341E+01
 21
7.16451049E+01
  0
LINE
  8
0
 62
4
 10
-2.11939341E+01
 20
7.03951049E+01
 11
-1.86939341E+01
 21
7.03951049E+01
  0
CIRCLE
  8
0
 62
4
 10
-1.41948093E+01
 20
7.36426464E+01
 40
2.50000000E+00
  0
LINE
  8
0
 62
4
 10
-1.52565007E+01
 20
7.25825383E+01
 11
-1.31365007E+01
 21
7.47025383E+01
  0
LINE
  8
0
 62
4
 10
-1.31865007E+01
 20
7.26425383E+01
 11
-1.52565007E+01
 21
7.47025383E+01
  0
LINE
  8
0
 62
4
 10
-1.61939341E+01
 20
7.85701049E+01
 11
-1.61939341E+01
 21
7.94451049E+01
  0
LINE
  8
0
 62
4
 10
-9.69393409E+00
 20
7.03951049E+01
 11
-7.19393409E+00
 21
7.03951049E+01
  0
LINE
  8
0
 62
4
 10
-7.19393409E+00
 20
7.16451049E+01
 11
-1.69393409E+00
 21
7.16451049E+01
  0
LINE
  8
0
 62
4
 10
-7.19393409E+00
 20
7.56451049E+01
 11
-1.69393409E+00
 21
7.56451049E+01
  0
LINE
  8
0
 62
4
 10
-7.19393409E+00
 20
7.03951049E+01
 11
-7.19393409E+00
 21
7.68951049E+01
  0
LINE
  8
0
 62
4
 10
-9.69393409E+00
 20
7.68951049E+01
 11
-7.19393409E+00
 21
7.68951049E+01
  0
LINE
  8
0
 62
4
 10
-1.69393409E+00
 20
7.56451049E+01
 11
-1.69393409E+00
 21
7.16451049E+01
  0
LINE
  8
0
 62
4
 10
-1.69393409E+00
 20
7.56451049E+01
 11
1.30606591E+00
 21
7.49451049E+01
  0
LINE
  8
0
 62
4
 10
1.30606591E+00
 20
7.49451049E+01
 11
6.24306499E+00
 21
7.49451049E+01
  0
LINE
  8
0
 62
4
 10
1.30606591E+00
 20
7.49451049E+01
 11
1.30606591E+00
 21
7.23451049E+01
  0
LINE
  8
0
 62
4
 10
-1.69393409E+00
 20
7.16451049E+01
 11
1.30606591E+00
 21
7.23451049E+01
  0
LINE
  8
0
 62
4
 10
1.30606591E+00
 20
7.23451049E+01
 11
3.64306499E+00
 21
7.23451049E+01
  0
LINE
  8
0
 62
6
 10
6.24306499E+00
 20
7.49451049E+01
 11
3.64306499E+00
 21
7.23451049E+01
  0
LINE
  8
0
 62
4
 10
-1.86939341E+01
 20
6.93451049E+01
 11
-9.69393409E+00
 21
6.93451049E+01
  0
LINE
  8
0
 62
4
 10
-1.21939341E+01
 20
7.94451049E+01
 11
-1.21939341E+01
 21
7.85701049E+01
  0
LINE
  8
0
 62
4
 10
-1.86939341E+01
 20
8.22951049E+01
 11
-9.69393409E+00
 21
8.22951049E+01
  0
LINE
  8
0
 62
4
 10
-1.61939341E+01
 20
7.86451049E+01
 11
-1.21939341E+01
 21
7.86451049E+01
  0
LINE
  8
0
 62
4
 10
-1.61939341E+01
 20
7.94451049E+01
 11
-1.21939341E+01
 21
7.94451049E+01
  0
LINE
  8
0
 62
4
 10
-1.86939341E+01
 20
8.10201049E+01
 11
-9.69393409E+00
 21
8.10201049E+01
  0
LINE
  8
0
 62
4
 10
-1.86939341E+01
 20
7.80701049E+01
 11
-9.69393406E+00
 21
7.80701049E+01
  0
LINE
  8
0
 62
4
 10
-1.86939341E+01
 20
7.85701049E+01
 11
-9.69393406E+00
 21
7.85701049E+01
  0
LINE
  8
0
 62
4
 10
-1.86939341E+01
 20
7.79451049E+01
 11
-9.69393406E+00
 21
7.79451049E+01
  0
LINE
  8
0
  6
CENTER
 62
6
 10
-2.84201388E+01
 20
7.36451049E+01
 11
8.04911626E+00
 21
7.36451049E+01
  0
LINE
  8
0
 62
4
 10
-9.69393409E+00
 20
6.49951049E+01
 11
-9.69393409E+00
 21
8.22951049E+01
  0
LINE
  8
0
 62
4
 10
-1.86939341E+01
 20
6.49951049E+01
 11
-1.86939341E+01
 21
8.22951049E+01
  0
LINE
  8
0
 62
4
 10
-1.31726312E+02
 20
-6.36294654E+01
 11
-8.77263117E+01
 21
-6.36294654E+01
  0
LINE
  8
0
 62
4
 10
-1.31726312E+02
 20
-6.04294654E+01
 11
-8.77263117E+01
 21
-6.04294654E+01
  0
LINE
  8
0
  6
CENTER
 62
6
 10
-1.09726312E+02
 20
-5.59634767E+01
 11
-1.09726312E+02
 21
-3.13930813E+01
  0
LINE
  8
0
 62
4
 10
-1.31726312E+02
 20
-6.36294654E+01
 11
-1.31726312E+02
 21
-6.04294654E+01
  0
LINE
  8
0
 62
4
 10
-8.77263117E+01
 20
-6.36294654E+01
 11
-8.77263117E+01
 21
-6.04294654E+01
  0
LINE
  8
0
  6
CENTER
 62
6
 10
-1.22742357E+02
 20
-4.36294654E+01
 11
-9.66406620E+01
 21
-4.36294654E+01
  0
CIRCLE
  8
0
 62
4
 10
-1.09726312E+02
 20
-4.36294654E+01
 40
8.00000000E+00
  0
ARC
  8
0
 62
4
 10
-1.09726312E+02
 20
-4.36294654E+01
 40
1.30000000E+01
 50
2.46226902E+01
 51
1.55377310E+02
  0
LINE
  8
0
 62
4
 10
-1.31726312E+02
 20
-6.04294654E+01
 11
-1.21544237E+02
 21
-3.82131346E+01
  0
LINE
  8
0
 62
4
 10
-8.77263117E+01
 20
-6.04294654E+01
 11
-9.79083863E+01
 21
-3.82131346E+01
  0
LINE
  8
0
  6
CENTER
 62
6
 10
-1.25726312E+02
 20
-5.77035897E+01
 11
-1.25726312E+02
 21
-6.68217818E+01
  0
LINE
  8
0
  6
CENTER
 62
6
 10
-9.37263117E+01
 20
-6.68217818E+01
 11
-9.37263117E+01
 21
-5.77035897E+01
  0
LINE
  8
0
 62
4
 10
-8.28263117E+01
 20
-6.36294654E+01
 11
-7.00263117E+01
 21
-6.36294654E+01
  0
LINE
  8
0
 62
4
 10
-8.28263117E+01
 20
-6.04294654E+01
 11
-7.00263117E+01
 21
-6.04294654E+01
  0
LINE
  8
0
 62
4
 10
-6.38263117E+01
 20
-5.74294655E+01
 11
-6.38263117E+01
 21
-3.06294654E+01
  0
LINE
  8
0
 62
4
 10
-6.70263117E+01
 20
-5.74294654E+01
 11
-6.70263117E+01
 21
-3.06294654E+01
  0
LINE
  8
0
 62
4
 10
-6.38263117E+01
 20
-3.06294654E+01
 11
-6.70263117E+01
 21
-3.06294654E+01
  0
LINE
  8
0
 62
4
 10
-8.28263117E+01
 20
-6.36294654E+01
 11
-8.28263117E+01
 21
-6.04294655E+01
  0
ARC
  8
0
 62
4
 10
-7.00263117E+01
 20
-5.74294654E+01
 40
3.00000000E+00
 50
2.70000000E+02
 51
0.00000000E+00
  0
ARC
  8
0
 62
4
 10
-7.00263117E+01
 20
-5.74294654E+01
 40
6.20000000E+00
 50
2.70000000E+02
 51
0.00000000E+00
  0
LINE
  8
0
  6
CENTER
 62
6
 10
-6.14160094E+01
 20
-4.36294654E+01
 11
-7.00263117E+01
 21
-4.36294654E+01
  0
LINE
  8
0
  6
CENTER
 62
6
 10
-7.68263117E+01
 20
-6.54960912E+01
 11
-7.68263117E+01
 21
-5.84102016E+01
  0
LINE
  8
0
 62
4
 10
-7.95763117E+01
 20
-6.36294654E+01
 11
-7.95763117E+01
 21
-6.04294655E+01
  0
LINE
  8
0
 62
4
 10
-7.40763117E+01
 20
-6.36294654E+01
 11
-7.40763117E+01
 21
-6.04294655E+01
  0
LINE
  8
0
 62
4
 10
-1.31726312E+02
 20
-1.87294654E+01
 11
-8.77263117E+01
 21
-1.87294654E+01
  0
LINE
  8
0
 62
4
 10
-1.31726312E+02
 20
2.70534561E-01
 11
-8.77263117E+01
 21
2.70534561E-01
  0
LINE
  8
0
  6
CENTER
 62
6
 10
-1.09726312E+02
 20
-2.13101806E+01
 11
-1.09726312E+02
 21
2.80076688E+00
  0
LINE
  8
0
 62
4
 10
-8.77263117E+01
 20
-1.87294654E+01
 11
-8.77263117E+01
 21
-1.54794654E+01
  0
LINE
  8
0
  6
CENTER
 62
6
 10
-1.28441317E+02
 20
-1.27294654E+01
 11
-9.10734562E+01
 21
-1.27294654E+01
  0
LINE
  8
0
  6
CENTER
 62
6
 10
-9.37263117E+01
 20
-1.67346273E+01
 11
-9.37263117E+01
 21
-8.63178336E+00
  0
LINE
  8
0
 62
4
 10
-1.31726312E+02
 20
-2.92946544E+00
 11
-8.77263117E+01
 21
-2.92946544E+00
  0
LINE
  8
0
  6
CENTER
 62
6
 10
-1.25726312E+02
 20
-1.67346273E+01
 11
-1.25726312E+02
 21
-8.63178336E+00
  0
LINE
  8
0
 62
4
 10
-8.77263117E+01
 20
-9.97946544E+00
 11
-8.77263117E+01
 21
2.70534561E-01
  0
ARC
  8
0
 62
4
 10
-9.37263117E+01
 20
-1.27294654E+01
 40
2.75000000E+00
 50
9.00000002E+01
 51
2.70000000E+02
  0
LINE
  8
0
 62
4
 10
-9.37263117E+01
 20
-1.54794654E+01
 11
-8.77263117E+01
 21
-1.54794654E+01
  0
LINE
  8
0
 62
4
 10
-9.37263117E+01
 20
-9.97946544E+00
 11
-8.77263117E+01
 21
-9.97946544E+00
  0
LINE
  8
0
 62
4
 10
-1.25726312E+02
 20
-1.54794654E+01
 11
-1.31726312E+02
 21
-1.54794654E+01
  0
LINE
  8
0
 62
4
 10
-1.25726312E+02
 20
-9.97946544E+00
 11
-1.31726312E+02
 21
-9.97946544E+00
  0
ARC
  8
0
 62
4
 10
-1.25726312E+02
 20
-1.27294654E+01
 40
2.75000000E+00
 50
2.70000000E+02
 51
9.00000002E+01
  0
LINE
  8
0
 62
4
 10
-1.31726312E+02
 20
-9.97946544E+00
 11
-1.31726312E+02
 21
2.70534561E-01
  0
LINE
  8
0
 62
4
 10
-1.31726312E+02
 20
-1.87294654E+01
 11
-1.31726312E+02
 21
-1.54794654E+01
  0
LINE
  8
0
 62
4
 10
-3.27263117E+01
 20
-6.21294654E+01
 11
1.92736883E+01
 21
-6.21294654E+01
  0
LINE
  8
0
 62
4
 10
-3.27263117E+01
 20
-3.61294654E+01
 11
1.92736883E+01
 21
-3.61294654E+01
  0
LINE
  8
0
 62
4
 10
1.92736883E+01
 20
-3.61294654E+01
 11
1.92736883E+01
 21
-4.63794654E+01
  0
LINE
  8
0
  6
CENTER
 62
6
 10
-6.72631170E+00
 20
-3.81140347E+01
 11
-6.72631170E+00
 21
-6.05811508E+01
  0
LINE
  8
0
  6
CENTER
 62
6
 10
-2.97387462E+01
 20
-4.91294654E+01
 11
1.63588319E+01
 21
-4.91294654E+01
  0
CIRCLE
  8
0
 62
4
 10
-6.72631170E+00
 20
-4.91294654E+01
 40
8.00000000E+00
  0
ARC
  8
0
 62
4
 10
1.32736883E+01
 20
-4.91294654E+01
 40
2.75000000E+00
 50
9.00000002E+01
 51
2.70000000E+02
  0
LINE
  8
0
 62
4
 10
1.32736883E+01
 20
-4.63794654E+01
 11
1.92736883E+01
 21
-4.63794654E+01
  0
LINE
  8
0
 62
4
 10
1.32736883E+01
 20
-5.18794654E+01
 11
1.92736883E+01
 21
-5.18794654E+01
  0
LINE
  8
0
 62
4
 10
1.92736883E+01
 20
-5.18794654E+01
 11
1.92736883E+01
 21
-6.21294654E+01
  0
LINE
  8
0
 62
4
 10
-3.27263117E+01
 20
-3.61294654E+01
 11
-3.27263117E+01
 21
-4.63794654E+01
  0
LINE
  8
0
 62
4
 10
-2.67263117E+01
 20
-4.63794654E+01
 11
-3.27263117E+01
 21
-4.63794654E+01
  0
ARC
  8
0
 62
4
 10
-2.67263117E+01
 20
-4.91294654E+01
 40
2.75000000E+00
 50
2.70000000E+02
 51
9.00000002E+01
  0
LINE
  8
0
 62
4
 10
-3.27263117E+01
 20
-5.18794654E+01
 11
-3.27263117E+01
 21
-6.21294654E+01
  0
LINE
  8
0
 62
4
 10
-2.67263117E+01
 20
-5.18794654E+01
 11
-3.27263117E+01
 21
-5.18794654E+01
  0
LINE
  8
0
  6
CENTER
 62
6
 10
1.32736883E+01
 20
-4.45851458E+01
 11
1.32736883E+01
 21
-5.38192033E+01
  0
LINE
  8
0
  6
CENTER
 62
6
 10
-2.67263117E+01
 20
-4.45851458E+01
 11
-2.67263117E+01
 21
-5.38192033E+01
  0
LINE
  8
0
 62
4
 10
3.73736883E+01
 20
-3.61294654E+01
 11
3.73736883E+01
 21
-6.21294654E+01
  0
LINE
  8
0
 62
4
 10
3.73736883E+01
 20
-6.21294654E+01
 11
4.05736883E+01
 21
-6.21294654E+01
  0
LINE
  8
0
 62
4
 10
4.05736883E+01
 20
-3.61294654E+01
 11
4.05736883E+01
 21
-6.21294654E+01
  0
LINE
  8
0
 62
4
 10
3.73736883E+01
 20
-3.61294654E+01
 11
4.05736883E+01
 21
-3.61294654E+01
  0
LINE
  8
0
  6
CENTER
 62
6
 10
3.54607994E+01
 20
-4.91294654E+01
 11
4.24865772E+01
 21
-4.91294654E+01
  0
LINE
  8
0
 62
4
 10
3.73736883E+01
 20
-4.63794654E+01
 11
4.05736883E+01
 21
-4.63794654E+01
  0
LINE
  8
0
 62
4
 10
3.73736883E+01
 20
-5.18794654E+01
 11
4.05736883E+01
 21
-5.18794654E+01
  0
LINE
  8
0
 62
4
 10
-3.27263117E+01
 20
-1.68294654E+01
 11
1.92736883E+01
 21
-1.68294654E+01
  0
LINE
  8
0
 62
4
 10
-3.27263117E+01
 20
-1.36294654E+01
 11
1.92736883E+01
 21
-1.36294654E+01
  0
LINE
  8
0
 62
4
 10
-3.27263117E+01
 20
-1.68294654E+01
 11
-3.27263117E+01
 21
-1.36294654E+01
  0
LINE
  8
0
 62
4
 10
1.92736883E+01
 20
-1.68294654E+01
 11
1.92736883E+01
 21
-1.36294654E+01
  0
LINE
  8
0
  6
CENTER
 62
6
 10
-6.72631167E+00
 20
-2.00591240E+01
 11
-6.72631167E+00
 21
-1.04708313E+01
  0
LINE
  8
0
  6
CENTER
 62
6
 10
-2.67263117E+01
 20
-1.04708313E+01
 11
-2.67263117E+01
 21
-2.00591240E+01
  0
LINE
  8
0
  6
CENTER
 62
6
 10
1.32736883E+01
 20
-2.00591240E+01
 11
1.32736883E+01
 21
-1.04708313E+01
  0
TEXT
  8
0
 10
-9.72676748E+00
 20
5.37045420E+01
 40
3.20000005E+00
  1
STRETCH LINE
 41
1.05263158E+00
  7
MONOTXT
  0
TEXT
  8
0
 62
7
 10
-1.05449994E+02
 20
-8.24000031E+01
 40
3.20000005E+00
  1
25
 41
1.00000000E+00
  7
MONOTXT
  0
TEXT
  8
0
 62
7
 10
-1.07049994E+02
 20
-8.84000031E+01
 40
3.20000005E+00
  1
-25
 41
1.00000000E+00
  7
MONOTXT
  0
TEXT
  8
0
 62
7
 10
-9.58499939E+01
 20
-8.24000031E+01
 40
3.20000005E+00
  1
50
 41
1.00000000E+00
  7
MONOTXT
  0
TEXT
  8
0
 62
7
 10
-9.42499939E+01
 20
-8.84000031E+01
 40
3.20000005E+00
  1
0
 41
1.00000000E+00
  7
MONOTXT
  0
TEXT
  8
0
 62
7
 10
-8.62499939E+01
 20
-8.24000031E+01
 40
3.20000005E+00
  1
75
 41
1.00000000E+00
  7
MONOTXT
  0
TEXT
  8
0
 62
7
 10
-8.62499939E+01
 20
-8.84000031E+01
 40
3.20000005E+00
  1
25
 41
1.00000000E+00
  7
MONOTXT
  0
TEXT
  8
0
 62
7
 10
-7.82499940E+01
 20
-8.24000031E+01
 40
3.20000005E+00
  1
100
 41
1.00000000E+00
  7
MONOTXT
  0
TEXT
  8
0
 62
7
 10
-7.66499939E+01
 20
-8.84000031E+01
 40
3.20000005E+00
  1
50
 41
1.00000000E+00
  7
MONOTXT
  0
TEXT
  8
0
 62
7
 10
-1.20049994E+02
 20
-7.59181426E+01
 40
3.20000005E+00
  1
STRETCH LIST
 41
1.05263158E+00
  7
MONOTXT
  0
LINE
  8
0
 62
7
 10
-6.89999939E+01
 20
-8.98000031E+01
 11
-6.89999939E+01
 21
-7.78000031E+01
  0
LINE
  8
0
 62
7
 10
-7.85999939E+01
 20
-8.98000031E+01
 11
-7.85999939E+01
 21
-7.78000031E+01
  0
LINE
  8
0
 62
7
 10
-8.81999939E+01
 20
-8.98000031E+01
 11
-8.81999939E+01
 21
-7.78000031E+01
  0
LINE
  8
0
 62
7
 10
-9.77999939E+01
 20
-8.98000031E+01
 11
-9.77999939E+01
 21
-7.78000031E+01
  0
TEXT
  8
0
 62
7
 10
-7.91067721E+01
 20
-7.59181426E+01
 40
3.20000005E+00
  1
(mm)
 41
1.00000000E+00
  7
MONOTXT
  0
TEXT
  8
0
 62
7
 10
-1.29649994E+02
 20
-8.24000031E+01
 40
3.20000005E+00
  1
STROKE
 41
1.00000000E+00
  7
MONOTXT
  0
TEXT
  8
0
 62
7
 10
-1.31249994E+02
 20
-8.84000031E+01
 40
3.20000005E+00
  1
STRETCH
 41
1.00000000E+00
  7
MONOTXT
  0
LINE
  8
0
 62
7
 10
-1.07399994E+02
 20
-8.98000031E+01
 11
-1.07399994E+02
 21
-7.78000031E+01
  0
LINE
  8
0
 62
7
 10
-1.33399994E+02
 20
-8.98000031E+01
 11
-1.33399994E+02
 21
-7.78000031E+01
  0
LINE
  8
0
 62
7
 10
-1.33399994E+02
 20
-8.38000031E+01
 11
-6.89999939E+01
 21
-8.38000031E+01
  0
LINE
  8
0
 62
7
 10
-1.33399994E+02
 20
-7.78000031E+01
 11
-6.89999939E+01
 21
-7.78000031E+01
  0
LINE
  8
0
 62
7
 10
-1.33399994E+02
 20
-8.98000031E+01
 11
-6.89999939E+01
 21
-8.98000031E+01
  0
LINE
  8
0
 62
7
 10
-1.38399994E+02
 20
9.45000000E+01
 11
1.38350006E+02
 21
9.45000000E+01
  0
LINE
  8
0
 62
7
 10
1.38350006E+02
 20
9.45000000E+01
 11
1.38350006E+02
 21
-9.48000031E+01
  0
LINE
  8
0
 62
7
 10
-1.38399994E+02
 20
-9.48000031E+01
 11
1.38350006E+02
 21
-9.48000031E+01
  0
LINE
  8
0
 62
7
 10
-1.38399994E+02
 20
9.45000000E+01
 11
-1.38399994E+02
 21
-9.48000031E+01
  0
LINE
  8
0
 62
7
 10
7.33500061E+01
 20
-8.48000031E+01
 11
1.38350006E+02
 21
-8.48000031E+01
  0
LINE
  8
0
 62
7
 10
-1.38399994E+02
 20
8.45000000E+01
 11
-7.33999939E+01
 21
8.45000000E+01
  0
LINE
  8
0
 62
7
 10
7.33500061E+01
 20
8.45000000E+01
 11
1.38350006E+02
 21
8.45000000E+01
  0
LINE
  8
0
 62
7
 10
7.33500061E+01
 20
-8.48000031E+01
 11
7.33500061E+01
 21
-9.48000031E+01
  0
LINE
  8
0
 62
7
 10
7.33500061E+01
 20
9.45000000E+01
 11
7.33500061E+01
 21
8.45000000E+01
  0
LINE
  8
0
 62
7
 10
-7.33999939E+01
 20
9.45000000E+01
 11
-7.33999939E+01
 21
8.45000000E+01
  0
TEXT
  8
0
 62
7
 10
7.72426624E+01
 20
-9.20500031E+01
 40
4.50000000E+00
  1
KOGANEI CORP.
 41
1.04838710E+00
  7
MONOTXT
  0
TEXT
  8
0
 62
7
 10
9.35071483E+01
 20
8.79000000E+01
 40
3.20000005E+00
  1
Ver. 1.1
 41
1.08108108E+00
  7
MONOTXT
  0
TEXT
  8
0
 62
7
 10
-1.31042852E+02
 20
8.79000000E+01
 40
3.20000005E+00
  1
NEW PEN CYLINDER
 41
1.08108108E+00
  7
MONOTXT
  0
TEXT
  8
0
 62
7
 10
-1.29085994E+02
 20
7.29000000E+01
 40
3.20000005E+00
  1
MODEL:PBDAAS16*ST(50)-M-ZC230
 41
1.00000000E+00
  7
MONOTXT
  0
ENDSEC
  0
EOF
