  0
SECTION
  2
HEADER
  9
$ACADVER
  1
AC1003
  9
$EXTMIN
 10
-1.38399994E+02
 20
-9.48000031E+01
  9
$EXTMAX
 10
1.38350006E+02
 20
9.45000000E+01
  9
$LIMMIN
 10
-1.38400994E+02
 20
-9.48010031E+01
  9
$LIMMAX
 10
1.38351006E+02
 20
9.45010000E+01
  9
$SNAPUNIT
 10
1
 20
1
  9
$SNAPBASE
 10
0
 20
0
  9
$GRIDMODE
 70
0
  9
$GRIDUNIT
 10
0
 20
0
  9
$LTSCALE
 40
4.61250000E+00
  9
$TEXTSIZE
 40
3.2
  9
$DIMTAD
 70
0
  9
$LUNITS
 70
2
  9
$LUPREC
 70
4
  9
$FILLETRAD
 40
0
  9
$AUNITS
 70
0
  9
$AUPREC
 70
0
  0
ENDSEC
  0
SECTION
  2
TABLES
  0
TABLE
  2
LTYPE
 70
2
  0
LTYPE
  2
CONTINUOUS
 70
64
  3
Solid-Line
 72
65
 73
0
 40
0
  0
LTYPE
  2
DASHED
 70
64
  3
DASHED
 72
65
 73
2
 40
.75
 49
.5
 49
-.25
  0
LTYPE
  2
HIDDEN
 70
64
  3
HIDDEN
 72
65
 73
2
 40
.375
 49
.25
 49
-.125
  0
LTYPE
  2
CENTER
 70
64
  3
CENTER
 72
65
 73
4
 40
2
 49
1.25
 49
-.25
 49
.25
 49
-.25
  0
LTYPE
  2
PHANTOM
 70
64
  3
PHANTOM
 72
65
 73
6
 40
2.5
 49
1.25
 49
-.25
 49
.25
 49
-.25
 49
.25
 49
-.25
  0
ENDTAB
  0
TABLE
  2
LAYER
 70
1
  0
LAYER
  2
1
 70
0
 62
7
  6
CONTINUOUS
 0
ENDTAB
  0
TABLE
  2
STYLE
 70
2
  0
STYLE
  2
MONOTXT
 70
0
 40
0
 41
1
 50
0
 71
0
 42
.2
  3
monotxt
  0
STYLE
  2
BIGFONT
 70
0
 40
0
 41
1
 50
0
 71
0
 42
.2
  3
txt
  4
bigfont
  0
ENDTAB
  0
ENDSEC
  0
SECTION
  2
ENTITIES
  0
LINE
  8
0
 62
4
 10
2.11594722E+01
 20
3.72403088E+01
 11
1.56594722E+01
 21
3.72403088E+01
  0
LINE
  8
0
 62
4
 10
2.11594722E+01
 20
3.32403088E+01
 11
1.56594722E+01
 21
3.32403088E+01
  0
LINE
  8
0
 62
4
 10
3.51594722E+01
 20
3.50403088E+01
 11
3.51594722E+01
 21
3.19403088E+01
  0
LINE
  8
0
 62
4
 10
2.11594722E+01
 20
3.50403088E+01
 11
2.11594722E+01
 21
3.19403088E+01
  0
LINE
  8
0
 62
4
 10
3.26594722E+01
 20
3.54403088E+01
 11
2.36594722E+01
 21
3.54403088E+01
  0
LINE
  8
0
 62
4
 10
3.26594722E+01
 20
3.54403088E+01
 11
3.26594722E+01
 21
4.19403088E+01
  0
LINE
  8
0
 62
4
 10
2.36594722E+01
 20
3.54403088E+01
 11
2.36594722E+01
 21
4.19403088E+01
  0
LINE
  8
0
 62
4
 10
2.36594722E+01
 20
3.50403088E+01
 11
2.11594723E+01
 21
3.50403088E+01
  0
LINE
  8
0
 62
4
 10
2.36594722E+01
 20
3.82403088E+01
 11
2.11594723E+01
 21
3.82403088E+01
  0
LINE
  8
0
 62
4
 10
3.51594723E+01
 20
3.82403088E+01
 11
3.26594722E+01
 21
3.82403088E+01
  0
LINE
  8
0
 62
4
 10
3.51594723E+01
 20
3.54403088E+01
 11
3.26594722E+01
 21
3.54403088E+01
  0
LINE
  8
0
 62
4
 10
3.51594723E+01
 20
3.50403088E+01
 11
3.26594722E+01
 21
3.50403088E+01
  0
LINE
  8
0
 62
6
 10
2.93894722E+01
 20
4.29403088E+01
 11
2.93894722E+01
 21
4.19403088E+01
  0
LINE
  8
0
 62
6
 10
2.69294722E+01
 20
4.29403088E+01
 11
2.69294722E+01
 21
4.19403088E+01
  0
LINE
  8
0
 62
4
 10
2.96594722E+01
 20
4.29403088E+01
 11
2.96594722E+01
 21
4.19403088E+01
  0
LINE
  8
0
 62
4
 10
2.66594722E+01
 20
4.29403088E+01
 11
2.66594722E+01
 21
4.19403088E+01
  0
LINE
  8
0
 62
4
 10
3.51594722E+01
 20
3.72403088E+01
 11
3.96594722E+01
 21
3.72403088E+01
  0
LINE
  8
0
 62
4
 10
2.36594722E+01
 20
3.54403088E+01
 11
2.36594722E+01
 21
2.12903088E+01
  0
LINE
  8
0
 62
4
 10
3.26594722E+01
 20
3.54403088E+01
 11
3.26594722E+01
 21
2.12903088E+01
  0
LINE
  8
0
 62
4
 10
3.26594722E+01
 20
4.19403088E+01
 11
2.36594722E+01
 21
4.19403088E+01
  0
LINE
  8
0
 62
4
 10
2.36594722E+01
 20
3.54403088E+01
 11
2.11594722E+01
 21
3.54403088E+01
  0
LINE
  8
0
 62
4
 10
3.26594722E+01
 20
2.12903088E+01
 11
2.36594722E+01
 21
2.12903088E+01
  0
LINE
  8
0
 62
4
 10
4.06594722E+01
 20
3.62403088E+01
 11
4.06594722E+01
 21
3.42403088E+01
  0
LINE
  8
0
 62
4
 10
3.96594722E+01
 20
3.32403088E+01
 11
3.51594722E+01
 21
3.32403088E+01
  0
LINE
  8
0
  6
CENTER
 62
6
 10
2.81594722E+01
 20
4.69503088E+01
 11
2.81594722E+01
 21
1.95203088E+01
  0
LINE
  8
0
 62
4
 10
3.06594722E+01
 20
4.29403088E+01
 11
2.56594722E+01
 21
4.29403088E+01
  0
LINE
  8
0
 62
4
 10
2.96594722E+01
 20
4.44403088E+01
 11
2.66594722E+01
 21
4.44403088E+01
  0
LINE
  8
0
 62
4
 10
2.56594722E+01
 20
4.34403088E+01
 11
2.56594722E+01
 21
4.29403088E+01
  0
LINE
  8
0
 62
4
 10
3.06594722E+01
 20
4.34403088E+01
 11
3.06594722E+01
 21
4.29403088E+01
  0
LINE
  8
0
 62
4
 10
3.96594722E+01
 20
3.72403088E+01
 11
3.96594722E+01
 21
3.32403088E+01
  0
LINE
  8
0
 62
4
 10
4.06594722E+01
 20
3.62403088E+01
 11
3.96594722E+01
 21
3.72403088E+01
  0
LINE
  8
0
 62
4
 10
4.06594722E+01
 20
3.42403088E+01
 11
3.96594722E+01
 21
3.32403088E+01
  0
LINE
  8
0
 62
4
 10
2.11594722E+01
 20
3.82403088E+01
 11
2.11594722E+01
 21
3.54403088E+01
  0
LINE
  8
0
 62
4
 10
3.51594722E+01
 20
3.82403088E+01
 11
3.51594722E+01
 21
3.54403088E+01
  0
LINE
  8
0
 62
4
 10
3.51594722E+01
 20
3.19403088E+01
 11
3.26594722E+01
 21
3.19403088E+01
  0
LINE
  8
0
 62
4
 10
2.36594722E+01
 20
3.19403088E+01
 11
2.11594722E+01
 21
3.19403088E+01
  0
ARC
  8
0
 62
4
 10
2.96586808E+01
 20
4.34395173E+01
 40
1.00079180E+00
 50
4.53129782E-02
 51
9.00000002E+01
  0
ARC
  8
0
 62
4
 10
2.66611379E+01
 20
4.34386431E+01
 40
1.00166704E+00
 50
9.00952762E+01
 51
1.79904724E+02
  0
LINE
  8
0
 62
4
 10
1.26594723E+01
 20
3.65403088E+01
 11
7.72247317E+00
 21
3.65403088E+01
  0
LINE
  8
0
 62
4
 10
1.26594723E+01
 20
3.39403088E+01
 11
1.03224732E+01
 21
3.39403088E+01
  0
LINE
  8
0
 62
4
 10
1.56594722E+01
 20
3.32403088E+01
 11
1.26594723E+01
 21
3.39403088E+01
  0
LINE
  8
0
 62
4
 10
1.56594722E+01
 20
3.72403088E+01
 11
1.26594722E+01
 21
3.65403088E+01
  0
LINE
  8
0
 62
4
 10
1.56594722E+01
 20
3.72403088E+01
 11
1.56594722E+01
 21
3.32403088E+01
  0
LINE
  8
0
 62
4
 10
1.26594722E+01
 20
3.65403088E+01
 11
1.26594722E+01
 21
3.39403088E+01
  0
LINE
  8
0
 62
6
 10
7.72247317E+00
 20
3.65403088E+01
 11
1.03224732E+01
 21
3.39403088E+01
  0
TEXT
  8
0
 62
7
 10
-7.16646524E+00
 20
2.25403088E+01
 40
1.50000000E+00
  1
PBDACS10
 41
1.00000000E+00
  7
MONOTXT
  0
LINE
  8
0
 62
7
 10
3.26594722E+01
 20
2.14403088E+01
 11
4.56594723E+01
 21
2.14403088E+01
  0
LINE
  8
0
 62
7
 10
3.51594722E+01
 20
3.24403088E+01
 11
4.56594723E+01
 21
3.24403088E+01
  0
LINE
  8
0
 62
7
 10
-9.33052774E+00
 20
2.14403088E+01
 11
2.36594722E+01
 21
2.14403088E+01
  0
LINE
  8
0
 62
7
 10
-6.83052774E+00
 20
3.24403088E+01
 11
2.11594722E+01
 21
3.24403088E+01
  0
LINE
  8
0
 62
4
 10
-6.83052774E+00
 20
3.72403088E+01
 11
-1.33052774E+00
 21
3.72403088E+01
  0
LINE
  8
0
 62
4
 10
-6.83052774E+00
 20
3.32403088E+01
 11
-1.33052774E+00
 21
3.32403088E+01
  0
LINE
  8
0
 62
4
 10
-2.08305277E+01
 20
3.50403088E+01
 11
-2.08305277E+01
 21
3.19403088E+01
  0
LINE
  8
0
 62
4
 10
-6.83052774E+00
 20
3.50403088E+01
 11
-6.83052774E+00
 21
3.19403088E+01
  0
LINE
  8
0
 62
4
 10
-1.83305277E+01
 20
3.54403088E+01
 11
-9.33052774E+00
 21
3.54403088E+01
  0
LINE
  8
0
 62
4
 10
-1.83305277E+01
 20
3.54403088E+01
 11
-1.83305277E+01
 21
4.19403088E+01
  0
LINE
  8
0
 62
4
 10
-9.33052774E+00
 20
3.54403088E+01
 11
-9.33052774E+00
 21
4.19403088E+01
  0
LINE
  8
0
 62
4
 10
-9.33052774E+00
 20
3.50403088E+01
 11
-6.83052775E+00
 21
3.50403088E+01
  0
LINE
  8
0
 62
4
 10
-9.33052774E+00
 20
3.82403088E+01
 11
-6.83052775E+00
 21
3.82403088E+01
  0
LINE
  8
0
 62
4
 10
-2.08305278E+01
 20
3.82403088E+01
 11
-1.83305277E+01
 21
3.82403088E+01
  0
LINE
  8
0
 62
4
 10
-2.08305278E+01
 20
3.54403088E+01
 11
-1.83305277E+01
 21
3.54403088E+01
  0
LINE
  8
0
 62
4
 10
-2.08305278E+01
 20
3.50403088E+01
 11
-1.83305277E+01
 21
3.50403088E+01
  0
LINE
  8
0
 62
4
 10
-1.83305278E+01
 20
2.12942561E+01
 11
-9.33052775E+00
 21
2.12942561E+01
  0
LINE
  8
0
 62
6
 10
-1.50605277E+01
 20
4.29403088E+01
 11
-1.50605277E+01
 21
4.19403088E+01
  0
LINE
  8
0
 62
6
 10
-1.26005277E+01
 20
4.29403088E+01
 11
-1.26005277E+01
 21
4.19403088E+01
  0
LINE
  8
0
 62
4
 10
-1.53305277E+01
 20
4.29403088E+01
 11
-1.53305277E+01
 21
4.19403088E+01
  0
LINE
  8
0
 62
4
 10
-1.23305277E+01
 20
4.29403088E+01
 11
-1.23305277E+01
 21
4.19403088E+01
  0
LINE
  8
0
 62
4
 10
-2.08305277E+01
 20
3.72403088E+01
 11
-2.53305277E+01
 21
3.72403088E+01
  0
LINE
  8
0
 62
4
 10
-9.33052774E+00
 20
3.54403088E+01
 11
-9.33052774E+00
 21
2.12903088E+01
  0
LINE
  8
0
 62
4
 10
-1.83305277E+01
 20
3.54403088E+01
 11
-1.83305277E+01
 21
2.12903088E+01
  0
LINE
  8
0
 62
4
 10
-1.83305277E+01
 20
4.19403088E+01
 11
-9.33052774E+00
 21
4.19403088E+01
  0
LINE
  8
0
 62
4
 10
-9.33052774E+00
 20
3.54403088E+01
 11
-6.83052774E+00
 21
3.54403088E+01
  0
LINE
  8
0
 62
4
 10
-1.83305277E+01
 20
2.12903088E+01
 11
-9.33052774E+00
 21
2.12903088E+01
  0
LINE
  8
0
 62
4
 10
-2.63305277E+01
 20
3.62403088E+01
 11
-2.63305277E+01
 21
3.42403088E+01
  0
LINE
  8
0
 62
4
 10
-2.53305277E+01
 20
3.32403088E+01
 11
-2.08305277E+01
 21
3.32403088E+01
  0
LINE
  8
0
  6
CENTER
 62
6
 10
-1.38305277E+01
 20
4.69503088E+01
 11
-1.38305277E+01
 21
1.95203088E+01
  0
LINE
  8
0
 62
4
 10
-1.63305277E+01
 20
4.29403088E+01
 11
-1.13305277E+01
 21
4.29403088E+01
  0
LINE
  8
0
 62
4
 10
-1.53305277E+01
 20
4.44403088E+01
 11
-1.23305277E+01
 21
4.44403088E+01
  0
LINE
  8
0
 62
4
 10
-1.13305277E+01
 20
4.34403088E+01
 11
-1.13305277E+01
 21
4.29403088E+01
  0
LINE
  8
0
 62
4
 10
-1.63305277E+01
 20
4.34403088E+01
 11
-1.63305277E+01
 21
4.29403088E+01
  0
LINE
  8
0
 62
4
 10
-2.53305277E+01
 20
3.72403088E+01
 11
-2.53305277E+01
 21
3.32403088E+01
  0
LINE
  8
0
 62
4
 10
-2.63305277E+01
 20
3.62403088E+01
 11
-2.53305277E+01
 21
3.72403088E+01
  0
LINE
  8
0
 62
4
 10
-2.63305277E+01
 20
3.42403088E+01
 11
-2.53305277E+01
 21
3.32403088E+01
  0
LINE
  8
0
 62
4
 10
-6.83052774E+00
 20
3.82403088E+01
 11
-6.83052774E+00
 21
3.54403088E+01
  0
LINE
  8
0
 62
4
 10
-2.08305277E+01
 20
3.82403088E+01
 11
-2.08305277E+01
 21
3.54403088E+01
  0
LINE
  8
0
 62
4
 10
-2.08305277E+01
 20
3.19403088E+01
 11
-1.83305277E+01
 21
3.19403088E+01
  0
LINE
  8
0
 62
4
 10
-9.33052774E+00
 20
3.19403088E+01
 11
-6.83052774E+00
 21
3.19403088E+01
  0
ARC
  8
0
 62
4
 10
-1.53297363E+01
 20
4.34395173E+01
 40
1.00079180E+00
 50
9.00000002E+01
 51
1.79954687E+02
  0
ARC
  8
0
 62
4
 10
-1.23321934E+01
 20
4.34386431E+01
 40
1.00166704E+00
 50
9.52762946E-02
 51
8.99047236E+01
  0
LINE
  8
0
 62
4
 10
1.66947225E+00
 20
3.65403088E+01
 11
6.60647134E+00
 21
3.65403088E+01
  0
LINE
  8
0
 62
4
 10
1.66947225E+00
 20
3.39403088E+01
 11
4.00647134E+00
 21
3.39403088E+01
  0
LINE
  8
0
 62
4
 10
-1.33052774E+00
 20
3.32403088E+01
 11
1.66947225E+00
 21
3.39403088E+01
  0
LINE
  8
0
 62
4
 10
-1.33052774E+00
 20
3.72403088E+01
 11
1.66947226E+00
 21
3.65403088E+01
  0
LINE
  8
0
 62
4
 10
-1.33052774E+00
 20
3.72403088E+01
 11
-1.33052774E+00
 21
3.32403088E+01
  0
LINE
  8
0
 62
4
 10
1.66947226E+00
 20
3.65403088E+01
 11
1.66947226E+00
 21
3.39403088E+01
  0
LINE
  8
0
 62
6
 10
6.60647134E+00
 20
3.65403088E+01
 11
4.00647134E+00
 21
3.39403088E+01
  0
CIRCLE
  8
0
 62
2
 10
5.56560665E+01
 20
2.69403088E+01
 40
2.50000000E+00
  0
CIRCLE
  8
0
 62
7
 10
5.56594723E+01
 20
2.69453086E+01
 40
2.06700000E+00
  0
LINE
  8
0
  6
CENTER
 62
2
 10
5.56594723E+01
 20
3.17603088E+01
 11
5.56594723E+01
 21
2.21203088E+01
  0
LINE
  8
0
  6
CENTER
 62
2
 10
4.91316824E+01
 20
2.28353095E+01
 11
5.43560005E+01
 21
2.28353095E+01
  0
LINE
  8
0
 62
7
 10
5.04560665E+01
 20
2.25353095E+01
 11
5.28860665E+01
 21
2.25353095E+01
  0
LINE
  8
0
 62
7
 10
5.04560665E+01
 20
2.31353095E+01
 11
5.28860665E+01
 21
2.31353095E+01
  0
LINE
  8
0
  6
CENTER
 62
2
 10
5.16660665E+01
 20
2.54521984E+01
 11
5.16660665E+01
 21
2.01948150E+01
  0
CIRCLE
  8
0
 62
7
 10
5.16726455E+01
 20
2.28303103E+01
 40
1.25000000E+00
  0
CIRCLE
  8
0
 62
7
 10
5.16726455E+01
 20
2.28303103E+01
 40
1.75000000E+00
  0
LINE
  8
0
 62
4
 10
-4.84160681E+01
 20
3.29403088E+01
 11
-4.89560681E+01
 21
3.38703088E+01
  0
LINE
  8
0
 62
4
 10
-5.24160681E+01
 20
3.29403088E+01
 11
-5.18860681E+01
 21
3.38703088E+01
  0
LINE
  8
0
 62
4
 10
-5.18860681E+01
 20
3.38703088E+01
 11
-4.89560681E+01
 21
3.38703088E+01
  0
ARC
  8
0
 62
4
 10
-5.14925496E+01
 20
2.17553088E+01
 40
3.07310324E+00
 50
3.25627155E+02
 51
3.43728456E+01
  0
ARC
  8
0
 62
4
 10
-5.98896545E+01
 20
2.69453088E+01
 40
1.14664876E+01
 50
3.42463527E+02
 51
1.75364728E+01
  0
ARC
  8
0
 62
4
 10
-4.93585673E+01
 20
2.17553088E+01
 40
3.06569493E+00
 50
1.45532394E+02
 51
2.14467606E+02
  0
ARC
  8
0
 62
4
 10
-4.09614471E+01
 20
2.69453088E+01
 40
1.14579391E+01
 50
1.62450019E+02
 51
1.97549981E+02
  0
ARC
  8
0
 62
4
 10
-6.81162108E+01
 20
2.39203088E+01
 40
1.56857978E+00
 50
3.19917156E+02
 51
4.00828446E+01
  0
ARC
  8
0
 62
4
 10
-6.81893891E+01
 20
2.39203088E+01
 40
1.55830260E+00
 50
1.39598403E+02
 51
2.20401597E+02
  0
ARC
  8
0
 62
4
 10
-6.81162108E+01
 20
2.99703088E+01
 40
1.56857978E+00
 50
3.19917156E+02
 51
4.00828446E+01
  0
ARC
  8
0
 62
4
 10
-7.22508911E+01
 20
2.69453088E+01
 40
5.70268020E+00
 50
3.39308098E+02
 51
2.06919019E+01
  0
ARC
  8
0
 62
4
 10
-6.40547088E+01
 20
2.69453088E+01
 40
5.69008693E+00
 50
1.59260195E+02
 51
2.00739805E+02
  0
ARC
  8
0
 62
4
 10
-6.81893891E+01
 20
2.99703088E+01
 40
1.55830260E+00
 50
1.39598403E+02
 51
2.20401597E+02
  0
LINE
  8
0
 62
4
 10
-4.84160681E+01
 20
2.09503088E+01
 11
-4.89560681E+01
 21
2.00203088E+01
  0
LINE
  8
0
 62
4
 10
-5.24160681E+01
 20
2.09503088E+01
 11
-5.18860681E+01
 21
2.00203088E+01
  0
LINE
  8
0
 62
4
 10
-5.18860681E+01
 20
2.00203088E+01
 11
-4.89560681E+01
 21
2.00203088E+01
  0
LINE
  8
0
 62
4
 10
-5.18860681E+01
 20
2.34903088E+01
 11
-4.89560681E+01
 21
2.34903088E+01
  0
LINE
  8
0
 62
4
 10
-5.18860681E+01
 20
3.04003088E+01
 11
-4.89560681E+01
 21
3.04003088E+01
  0
LINE
  8
0
 62
4
 10
-6.69160681E+01
 20
2.29103088E+01
 11
-6.65460681E+01
 21
2.35503088E+01
  0
LINE
  8
0
 62
4
 10
-6.97460681E+01
 20
2.35503088E+01
 11
-6.93760681E+01
 21
2.29103088E+01
  0
LINE
  8
0
 62
4
 10
-6.69160681E+01
 20
3.09803088E+01
 11
-6.65460681E+01
 21
3.03403088E+01
  0
LINE
  8
0
 62
4
 10
-6.97460681E+01
 20
3.03403088E+01
 11
-6.93760681E+01
 21
3.09803088E+01
  0
LINE
  8
0
 62
7
 10
-6.65460681E+01
 20
2.49503088E+01
 11
-5.43260681E+01
 21
2.49503088E+01
  0
LINE
  8
0
 62
7
 10
-6.65460681E+01
 20
2.89403088E+01
 11
-5.43260681E+01
 21
2.89403088E+01
  0
LINE
  8
0
 62
4
 10
-6.93760681E+01
 20
2.49303088E+01
 11
-6.69160681E+01
 21
2.49303088E+01
  0
LINE
  8
0
 62
4
 10
-6.93760681E+01
 20
2.89603088E+01
 11
-6.69160681E+01
 21
2.89603088E+01
  0
LINE
  8
0
 62
4
 10
-6.93760681E+01
 20
2.29103088E+01
 11
-6.69160681E+01
 21
2.29103088E+01
  0
LINE
  8
0
 62
4
 10
-6.93760681E+01
 20
3.09803088E+01
 11
-6.69160681E+01
 21
3.09803088E+01
  0
LINE
  8
0
 62
4
 10
-6.65460681E+01
 20
3.03403088E+01
 11
-6.65460681E+01
 21
2.35503088E+01
  0
LINE
  8
0
 62
4
 10
-6.97460681E+01
 20
3.03403088E+01
 11
-6.97460681E+01
 21
2.35503088E+01
  0
LINE
  8
0
 62
7
 10
-7.36260681E+01
 20
2.89403088E+01
 11
-7.36260681E+01
 21
2.49503088E+01
  0
LINE
  8
0
 62
7
 10
-7.43260681E+01
 20
2.56403088E+01
 11
-7.36260681E+01
 21
2.49503088E+01
  0
LINE
  8
0
 62
7
 10
-7.36260681E+01
 20
2.89403088E+01
 11
-7.43260681E+01
 21
2.82403088E+01
  0
LINE
  8
0
 62
7
 10
-7.36260681E+01
 20
2.49503088E+01
 11
-6.97460681E+01
 21
2.49503088E+01
  0
LINE
  8
0
 62
7
 10
-7.36260681E+01
 20
2.89403088E+01
 11
-6.97460681E+01
 21
2.89403088E+01
  0
LINE
  8
0
 62
7
 10
-5.93260681E+01
 20
2.89403088E+01
 11
-5.93260681E+01
 21
2.49503088E+01
  0
LINE
  8
0
 62
7
 10
-7.43260681E+01
 20
2.82403088E+01
 11
-7.43260681E+01
 21
2.56403088E+01
  0
LINE
  8
0
 62
7
 10
-4.78260681E+01
 20
3.09403088E+01
 11
-4.78260681E+01
 21
2.29503088E+01
  0
LINE
  8
0
 62
7
 10
-5.35260681E+01
 20
3.09403088E+01
 11
-5.35260681E+01
 21
2.29503088E+01
  0
LINE
  8
0
 62
7
 10
-5.43260681E+01
 20
2.37503088E+01
 11
-5.35260681E+01
 21
2.29503088E+01
  0
LINE
  8
0
 62
7
 10
-5.35260681E+01
 20
3.09403088E+01
 11
-5.43260681E+01
 21
3.01403088E+01
  0
LINE
  8
0
 62
7
 10
-5.35260681E+01
 20
2.29503088E+01
 11
-5.24160681E+01
 21
2.29503088E+01
  0
LINE
  8
0
 62
7
 10
-5.35260681E+01
 20
3.09403088E+01
 11
-5.24160681E+01
 21
3.09403088E+01
  0
LINE
  8
0
 62
7
 10
-5.43260681E+01
 20
3.01403088E+01
 11
-5.43260681E+01
 21
2.37503088E+01
  0
LINE
  8
0
 62
2
 10
-4.78260681E+01
 20
2.36268088E+01
 11
-4.84160681E+01
 21
2.36268088E+01
  0
LINE
  8
0
 62
2
 10
-4.78260681E+01
 20
3.02638088E+01
 11
-4.84160681E+01
 21
3.02638088E+01
  0
LINE
  8
0
 62
2
 10
-7.40050681E+01
 20
2.85613088E+01
 11
-6.97460681E+01
 21
2.85613088E+01
  0
LINE
  8
0
 62
2
 10
-7.40105608E+01
 20
2.53293088E+01
 11
-6.97460681E+01
 21
2.53293088E+01
  0
LINE
  8
0
 62
2
 10
-6.65460681E+01
 20
2.85613088E+01
 11
-5.93260681E+01
 21
2.85613088E+01
  0
LINE
  8
0
 62
2
 10
-6.65460681E+01
 20
2.53293088E+01
 11
-5.93260681E+01
 21
2.53293088E+01
  0
LINE
  8
0
 62
2
 10
-5.24160681E+01
 20
3.02638088E+01
 11
-5.42025681E+01
 21
3.02638088E+01
  0
LINE
  8
0
 62
2
 10
-5.24160681E+01
 20
2.36268088E+01
 11
-5.42025681E+01
 21
2.36268088E+01
  0
LINE
  8
0
 62
7
 10
-4.84160681E+01
 20
3.09403088E+01
 11
-4.63260681E+01
 21
3.09403088E+01
  0
LINE
  8
0
  6
CENTER
 62
2
 10
-7.58244481E+01
 20
2.69403088E+01
 11
7.02704168E+01
 21
2.69403088E+01
  0
LINE
  8
0
 62
4
 10
-5.24160681E+01
 20
3.29403088E+01
 11
-5.24160681E+01
 21
2.09503088E+01
  0
LINE
  8
0
 62
4
 10
-4.84160681E+01
 20
3.29403088E+01
 11
-4.84160681E+01
 21
2.09503088E+01
  0
LINE
  8
0
 62
7
 10
-4.84160681E+01
 20
2.29503088E+01
 11
-4.63260681E+01
 21
2.29503088E+01
  0
ARC
  8
0
 62
4
 10
-4.93585673E+01
 20
3.21353088E+01
 40
3.06569493E+00
 50
1.45532394E+02
 51
2.14467606E+02
  0
ARC
  8
0
 62
4
 10
-5.14925496E+01
 20
3.21353088E+01
 40
3.07310324E+00
 50
3.25627155E+02
 51
3.43728456E+01
  0
LINE
  8
0
 62
7
 10
-3.45405277E+01
 20
2.25303103E+01
 11
-3.21205277E+01
 21
2.25303103E+01
  0
LINE
  8
0
 62
7
 10
-2.83305277E+01
 20
2.14403088E+01
 11
-1.83305277E+01
 21
2.14403088E+01
  0
LINE
  8
0
 62
7
 10
-4.63305277E+01
 20
1.99403088E+01
 11
-2.83305277E+01
 21
1.99403088E+01
  0
LINE
  8
0
 62
7
 10
4.56594723E+01
 20
1.99403088E+01
 11
6.06594723E+01
 21
1.99403088E+01
  0
LINE
  8
0
 62
7
 10
-3.00605277E+01
 20
2.21203088E+01
 11
-3.00605277E+01
 21
1.99403088E+01
  0
LINE
  8
0
 62
7
 10
4.73894723E+01
 20
2.23303088E+01
 11
4.73894723E+01
 21
1.99403088E+01
  0
LINE
  8
0
 62
7
 10
5.89294723E+01
 20
2.23303088E+01
 11
5.89294723E+01
 21
1.99403088E+01
  0
LINE
  8
0
 62
7
 10
4.56594723E+01
 20
3.39303088E+01
 11
6.06594723E+01
 21
3.39303088E+01
  0
LINE
  8
0
 62
7
 10
5.89294723E+01
 20
3.15503088E+01
 11
5.89294723E+01
 21
3.39303088E+01
  0
LINE
  8
0
 62
7
 10
4.56594723E+01
 20
1.99403088E+01
 11
4.56594723E+01
 21
3.39303088E+01
  0
LINE
  8
0
 62
7
 10
-4.63305277E+01
 20
1.99403088E+01
 11
-4.63305277E+01
 21
3.39303088E+01
  0
LINE
  8
0
 62
7
 10
-2.83305277E+01
 20
1.99403088E+01
 11
-2.83305277E+01
 21
3.39303088E+01
  0
LINE
  8
0
 62
7
 10
6.06594723E+01
 20
1.99403088E+01
 11
6.06594723E+01
 21
3.39303088E+01
  0
LINE
  8
0
 62
7
 10
4.73894723E+01
 20
3.15503088E+01
 11
4.73894723E+01
 21
3.39303088E+01
  0
LINE
  8
0
 62
7
 10
-2.83305277E+01
 20
3.24403088E+01
 11
-2.08305277E+01
 21
3.24403088E+01
  0
LINE
  8
0
 62
7
 10
-4.63305277E+01
 20
3.39303088E+01
 11
-2.83305277E+01
 21
3.39303088E+01
  0
LINE
  8
0
 62
7
 10
-4.46005277E+01
 20
1.99403088E+01
 11
-4.46005277E+01
 21
2.21203088E+01
  0
LINE
  8
0
 62
7
 10
-3.00605277E+01
 20
3.17603088E+01
 11
-3.00605277E+01
 21
3.39303088E+01
  0
LINE
  8
0
 62
7
 10
-4.46005277E+01
 20
2.21203088E+01
 11
-3.49205277E+01
 21
2.21203088E+01
  0
LINE
  8
0
 62
7
 10
-4.46005277E+01
 20
3.17603088E+01
 11
-3.00605277E+01
 21
3.17603088E+01
  0
LINE
  8
0
 62
7
 10
-4.46005277E+01
 20
3.17603088E+01
 11
-4.46005277E+01
 21
3.39303088E+01
  0
LINE
  8
0
 62
7
 10
-3.17305277E+01
 20
2.21203088E+01
 11
-3.00605277E+01
 21
2.21203088E+01
  0
LINE
  8
0
 62
7
 10
4.73894723E+01
 20
3.17603088E+01
 11
5.89294723E+01
 21
3.17603088E+01
  0
LINE
  8
0
 62
7
 10
4.73894723E+01
 20
2.21203088E+01
 11
5.00694723E+01
 21
2.21203088E+01
  0
LINE
  8
0
 62
7
 10
5.32594723E+01
 20
2.21203088E+01
 11
5.89294723E+01
 21
2.21203088E+01
  0
ARC
  8
0
 62
7
 10
5.02868307E+01
 20
2.59383226E+01
 40
4.62735883E+00
 50
1.79975408E+02
 51
2.31234345E+02
  0
ARC
  8
0
 62
7
 10
5.60428145E+01
 20
2.59331946E+01
 40
4.61666324E+00
 50
3.08701955E+02
 51
8.82912263E-02
  0
ARC
  8
0
 62
7
 10
5.60389066E+01
 20
2.79455502E+01
 40
4.62056868E+00
 50
3.59935006E+02
 51
5.12747470E+01
  0
ARC
  8
0
 62
7
 10
5.02907296E+01
 20
2.79404265E+01
 40
4.63125733E+00
 50
1.28788791E+02
 51
1.80001456E+02
  0
ARC
  8
0
 62
7
 10
-3.87492765E+01
 20
2.69403088E+01
 40
7.58086680E+00
 50
1.40519824E+02
 51
2.19480175E+02
  0
ARC
  8
0
 62
7
 10
-3.59185905E+01
 20
2.69403088E+01
 40
7.58612548E+00
 50
3.20552534E+02
 51
3.94474659E+01
  0
LINE
  8
0
  6
CENTER
 62
2
 10
-3.58683176E+01
 20
2.28353095E+01
 11
-3.06439995E+01
 21
2.28353095E+01
  0
LINE
  8
0
  6
CENTER
 62
2
 10
-3.33339335E+01
 20
2.54521984E+01
 11
-3.33339335E+01
 21
2.01948150E+01
  0
LINE
  8
0
 62
7
 10
-3.45405277E+01
 20
2.31403088E+01
 11
-3.21205277E+01
 21
2.31403088E+01
  0
CIRCLE
  8
0
 62
7
 10
-3.33339335E+01
 20
2.28353095E+01
 40
1.75000000E+00
  0
CIRCLE
  8
0
 62
7
 10
-3.33339335E+01
 20
2.28353095E+01
 40
1.25000000E+00
  0
CIRCLE
  8
0
 62
7
 10
-3.83305277E+01
 20
2.69453086E+01
 40
2.06700000E+00
  0
CIRCLE
  8
0
 62
2
 10
-3.83339335E+01
 20
2.69403088E+01
 40
2.50000000E+00
  0
LINE
  8
0
  6
CENTER
 62
2
 10
-3.83305277E+01
 20
3.17603088E+01
 11
-3.83305277E+01
 21
2.21203088E+01
  0
LINE
  8
0
  6
PHANTOM
 10
7.16447225E+00
 20
1.30224854E+01
 11
7.16447225E+00
 21
4.69503088E+01
  0
ARC
  8
0
 62
4
 10
6.39483023E+01
 20
2.17539652E+01
 40
2.80462852E+00
 50
3.21819478E+02
 51
3.59925302E+02
  0
ARC
  8
0
 62
4
 10
6.39503397E+01
 20
3.21373589E+01
 40
2.80259031E+00
 50
6.03065249E-02
 51
3.81949138E+01
  0
ARC
  8
0
 62
4
 10
6.55483854E+01
 20
2.17507852E+01
 40
2.79545698E+00
 50
1.80009764E+02
 51
2.18245456E+02
  0
ARC
  8
0
 62
4
 10
6.55463413E+01
 20
3.21405413E+01
 40
2.79341289E+00
 50
1.41740010E+02
 51
1.80004770E+02
  0
LINE
  8
0
 62
7
 10
6.67529284E+01
 20
3.09403088E+01
 11
6.80629284E+01
 21
3.09403088E+01
  0
LINE
  8
0
 62
7
 10
6.06594723E+01
 20
3.09403088E+01
 11
6.27529284E+01
 21
3.09403088E+01
  0
LINE
  8
0
 62
4
 10
6.33529284E+01
 20
2.00203088E+01
 11
6.61529284E+01
 21
2.00203088E+01
  0
LINE
  8
0
 62
4
 10
6.33529284E+01
 20
3.38703088E+01
 11
6.61529284E+01
 21
3.38703088E+01
  0
ARC
  8
0
 62
4
 10
5.64472166E+01
 20
2.69454033E+01
 40
1.03057130E+01
 50
3.40352622E+02
 51
3.59971677E+02
  0
ARC
  8
0
 62
4
 10
5.64483281E+01
 20
2.69454067E+01
 40
1.03046015E+01
 50
3.59971654E+02
 51
1.96484484E+01
  0
ARC
  8
0
 62
4
 10
7.30486686E+01
 20
2.69436741E+01
 40
1.02957407E+01
 50
1.80018728E+02
 51
1.99656974E+02
  0
ARC
  8
0
 62
4
 10
7.30475543E+01
 20
2.69471314E+01
 40
1.02946281E+01
 50
1.60341925E+02
 51
1.80037972E+02
  0
LINE
  8
0
 62
7
 10
6.67529284E+01
 20
2.29403088E+01
 11
6.80629284E+01
 21
2.29403088E+01
  0
LINE
  8
0
 62
7
 10
6.80629284E+01
 20
2.29403088E+01
 11
6.86629284E+01
 21
2.35403088E+01
  0
LINE
  8
0
 62
7
 10
6.06594723E+01
 20
2.29403088E+01
 11
6.27529284E+01
 21
2.29403088E+01
  0
LINE
  8
0
 62
7
 10
6.86629284E+01
 20
3.03403088E+01
 11
6.86629284E+01
 21
2.35403088E+01
  0
LINE
  8
0
 62
4
 10
6.33529284E+01
 20
2.34803088E+01
 11
6.61529284E+01
 21
2.34803088E+01
  0
LINE
  8
0
 62
4
 10
6.33529284E+01
 20
3.04103088E+01
 11
6.61529284E+01
 21
3.04103088E+01
  0
LINE
  8
0
 62
2
 10
6.21629284E+01
 20
3.02638088E+01
 11
6.27529284E+01
 21
3.02638088E+01
  0
LINE
  8
0
 62
2
 10
6.21629284E+01
 20
2.36168088E+01
 11
6.27529284E+01
 21
2.36168088E+01
  0
LINE
  8
0
 62
2
 10
6.67529284E+01
 20
3.02638088E+01
 11
6.86629284E+01
 21
3.02638088E+01
  0
LINE
  8
0
 62
2
 10
6.67529284E+01
 20
2.36168088E+01
 11
6.86629284E+01
 21
2.36168088E+01
  0
LINE
  8
0
 62
7
 10
6.80629284E+01
 20
3.09403088E+01
 11
6.86629284E+01
 21
3.03403088E+01
  0
LINE
  8
0
 62
7
 10
6.21629284E+01
 20
3.09403088E+01
 11
6.21629284E+01
 21
2.29403088E+01
  0
LINE
  8
0
 62
7
 10
6.80629284E+01
 20
3.09403088E+01
 11
6.80629284E+01
 21
2.29403088E+01
  0
LINE
  8
0
 62
4
 10
6.67529284E+01
 20
3.21403088E+01
 11
6.67529284E+01
 21
2.17503088E+01
  0
LINE
  8
0
 62
4
 10
6.27529284E+01
 20
3.21403088E+01
 11
6.27529284E+01
 21
2.17503088E+01
  0
ARC
  8
0
 62
4
 10
6.55491005E+01
 20
3.21410332E+01
 40
2.79617214E+00
 50
1.80014844E+02
 51
2.18240376E+02
  0
ARC
  8
0
 62
4
 10
6.55470521E+01
 20
2.17502948E+01
 40
2.79412364E+00
 50
1.41745067E+02
 51
1.79999713E+02
  0
ARC
  8
0
 62
4
 10
6.39475895E+01
 20
3.21442124E+01
 40
2.80534161E+00
 50
3.21824508E+02
 51
3.59920273E+02
  0
ARC
  8
0
 62
4
 10
6.39496312E+01
 20
2.17471132E+01
 40
2.80329901E+00
 50
6.53130559E-02
 51
3.81899073E+01
  0
LINE
  8
0
 62
4
 10
-9.30660681E+01
 20
3.39303088E+01
 11
-9.32760681E+01
 21
3.41403088E+01
  0
LINE
  8
0
 62
4
 10
-9.55860681E+01
 20
3.39303088E+01
 11
-9.53760681E+01
 21
3.41403088E+01
  0
LINE
  8
0
 62
4
 10
-9.32760681E+01
 20
3.41403088E+01
 11
-9.53760681E+01
 21
3.41403088E+01
  0
LINE
  8
0
 62
4
 10
-9.22760681E+01
 20
3.72403088E+01
 11
-9.32760681E+01
 21
3.62403088E+01
  0
LINE
  8
0
 62
4
 10
-9.63760681E+01
 20
3.72403088E+01
 11
-9.53760681E+01
 21
3.62403088E+01
  0
LINE
  8
0
 62
4
 10
-9.32760681E+01
 20
3.62403088E+01
 11
-9.32760681E+01
 21
3.41403088E+01
  0
LINE
  8
0
 62
4
 10
-9.32760681E+01
 20
3.62403088E+01
 11
-9.53760681E+01
 21
3.62403088E+01
  0
LINE
  8
0
 62
4
 10
-9.53760681E+01
 20
3.62403088E+01
 11
-9.53760681E+01
 21
3.41403088E+01
  0
LINE
  8
0
 62
4
 10
-9.28260681E+01
 20
3.92403088E+01
 11
-9.31260681E+01
 21
3.89403088E+01
  0
LINE
  8
0
 62
4
 10
-9.58260681E+01
 20
3.92403088E+01
 11
-9.55260681E+01
 21
3.89403088E+01
  0
LINE
  8
0
 62
4
 10
-9.86756152E+01
 20
4.05742632E+01
 11
-9.91732630E+01
 21
4.06227053E+01
  0
LINE
  8
0
 62
4
 10
-9.91732630E+01
 20
4.06227053E+01
 11
-9.98796226E+01
 21
3.33662414E+01
  0
LINE
  8
0
 62
4
 10
-9.91560681E+01
 20
3.40903088E+01
 11
-9.93053624E+01
 21
3.41048414E+01
  0
LINE
  8
0
 62
4
 10
-9.86756152E+01
 20
4.05742632E+01
 11
-9.93353582E+01
 21
3.37966935E+01
  0
LINE
  8
0
 62
4
 10
-9.91560681E+01
 20
3.40903088E+01
 11
-9.91734800E+01
 21
3.39114352E+01
  0
LINE
  8
0
 62
4
 10
-9.08260681E+01
 20
3.54403088E+01
 11
-9.04060148E+01
 21
3.39303088E+01
  0
LINE
  8
0
 62
4
 10
-9.09760681E+01
 20
3.54403088E+01
 11
-9.05572385E+01
 21
3.39303088E+01
  0
LINE
  8
0
 62
4
 10
-9.75760681E+01
 20
3.89403088E+01
 11
-9.75760681E+01
 21
3.39303088E+01
  0
LINE
  8
0
 62
4
 10
-9.10760681E+01
 20
3.89403088E+01
 11
-9.10760681E+01
 21
3.54403088E+01
  0
LINE
  8
0
 62
4
 10
-9.10760681E+01
 20
3.89403088E+01
 11
-9.75760681E+01
 21
3.89403088E+01
  0
LINE
  8
0
 62
4
 10
-9.63760681E+01
 20
3.72403088E+01
 11
-9.63760681E+01
 21
3.39303088E+01
  0
LINE
  8
0
 62
4
 10
-9.22760681E+01
 20
3.72403088E+01
 11
-9.63760681E+01
 21
3.72403088E+01
  0
LINE
  8
0
 62
4
 10
-9.33260681E+01
 20
3.75403088E+01
 11
-9.33260681E+01
 21
3.72403088E+01
  0
LINE
  8
0
 62
4
 10
-9.53260681E+01
 20
3.75403088E+01
 11
-9.53260681E+01
 21
3.72403088E+01
  0
LINE
  8
0
 62
4
 10
-9.33260681E+01
 20
3.75403088E+01
 11
-9.53260681E+01
 21
3.75403088E+01
  0
LINE
  8
0
 62
4
 10
-9.10760681E+01
 20
3.82403088E+01
 11
-9.75760681E+01
 21
3.82403088E+01
  0
LINE
  8
0
 62
4
 10
-9.10760681E+01
 20
3.50403088E+01
 11
-9.22760681E+01
 21
3.50403088E+01
  0
LINE
  8
0
 62
4
 10
-9.10760681E+01
 20
3.54403088E+01
 11
-9.22760681E+01
 21
3.54403088E+01
  0
LINE
  8
0
 62
4
 10
-9.10760681E+01
 20
3.50403088E+01
 11
-9.10760681E+01
 21
3.39303088E+01
  0
LINE
  8
0
 62
4
 10
-9.22760681E+01
 20
3.72403088E+01
 11
-9.22760681E+01
 21
3.39303088E+01
  0
LINE
  8
0
 62
4
 10
-9.78260681E+01
 20
4.06403088E+01
 11
-9.78260681E+01
 21
3.47403088E+01
  0
LINE
  8
0
 62
4
 10
-9.08260681E+01
 20
4.06403088E+01
 11
-9.08260681E+01
 21
3.54403088E+01
  0
LINE
  8
0
 62
4
 10
-9.18260681E+01
 20
4.29403088E+01
 11
-9.68260681E+01
 21
4.29403088E+01
  0
LINE
  8
0
 62
4
 10
-9.08260681E+01
 20
4.19403088E+01
 11
-9.78260681E+01
 21
4.19403088E+01
  0
LINE
  8
0
 62
4
 10
-9.23260681E+01
 20
4.04403088E+01
 11
-9.63260681E+01
 21
4.04403088E+01
  0
LINE
  8
0
 62
4
 10
-9.13260681E+01
 20
4.11403088E+01
 11
-9.73260681E+01
 21
4.11403088E+01
  0
LINE
  8
0
 62
4
 10
-9.86260681E+01
 20
4.11403088E+01
 11
-9.86260681E+01
 21
3.47403088E+01
  0
LINE
  8
0
 62
4
 10
-9.00260681E+01
 20
4.11403088E+01
 11
-9.00260681E+01
 21
3.54403088E+01
  0
LINE
  8
0
 62
4
 10
-9.63860681E+01
 20
4.11403088E+01
 11
-9.63260681E+01
 21
4.04403088E+01
  0
LINE
  8
0
 62
4
 10
-9.22660681E+01
 20
4.11403088E+01
 11
-9.23260681E+01
 21
4.04403088E+01
  0
LINE
  8
0
 62
4
 10
-9.00260681E+01
 20
3.54403088E+01
 11
-9.08260681E+01
 21
3.54403088E+01
  0
LINE
  8
0
 62
4
 10
-9.78260681E+01
 20
3.47403088E+01
 11
-9.86260681E+01
 21
3.47403088E+01
  0
LINE
  8
0
 62
4
 10
-9.86260681E+01
 20
3.69403088E+01
 11
-9.90076828E+01
 21
3.71629174E+01
  0
LINE
  8
0
 62
4
 10
-1.00226068E+02
 20
4.02403088E+01
 11
-1.00226068E+02
 21
3.78703088E+01
  0
LINE
  8
0
 62
4
 10
-9.94260681E+01
 20
4.02403088E+01
 11
-1.00226068E+02
 21
4.02403088E+01
  0
LINE
  8
0
 62
4
 10
-9.94260681E+01
 20
4.02403088E+01
 11
-9.94260681E+01
 21
3.83303088E+01
  0
LINE
  8
0
 62
4
 10
-9.86260681E+01
 20
3.78703088E+01
 11
-9.89227781E+01
 21
3.80351477E+01
  0
LINE
  8
0
 62
4
 10
-9.09760681E+01
 20
4.06403088E+01
 11
-9.09760681E+01
 21
3.54403088E+01
  0
LINE
  8
0
 62
4
 10
-9.08260681E+01
 20
4.06403088E+01
 11
-9.09760681E+01
 21
4.06403088E+01
  0
LINE
  8
0
 62
4
 10
-9.93982171E+01
 20
3.83117415E+01
 11
-9.94260681E+01
 21
3.83303088E+01
  0
LINE
  8
0
 62
4
 10
-9.94839599E+01
 20
3.74309026E+01
 11
-1.00226068E+02
 21
3.78703088E+01
  0
LINE
  8
0
 62
4
 10
-9.28260681E+01
 20
4.29403088E+01
 11
-9.28260681E+01
 21
4.19403088E+01
  0
LINE
  8
0
 62
4
 10
-9.58260681E+01
 20
4.29403088E+01
 11
-9.58260681E+01
 21
4.19403088E+01
  0
LINE
  8
0
 62
6
 10
-9.55560681E+01
 20
4.29403088E+01
 11
-9.55560681E+01
 21
4.19403088E+01
  0
LINE
  8
0
 62
6
 10
-9.30960681E+01
 20
4.29403088E+01
 11
-9.30960681E+01
 21
4.19403088E+01
  0
LINE
  8
0
 62
4
 10
-9.68260681E+01
 20
4.34403088E+01
 11
-9.68260681E+01
 21
4.29403088E+01
  0
LINE
  8
0
 62
4
 10
-9.18260681E+01
 20
4.34403088E+01
 11
-9.18260681E+01
 21
4.29403088E+01
  0
LINE
  8
0
 62
4
 10
-9.28260681E+01
 20
4.44403088E+01
 11
-9.58260681E+01
 21
4.44403088E+01
  0
LINE
  8
0
 62
4
 10
-9.28260681E+01
 20
4.04403088E+01
 11
-9.28260681E+01
 21
3.92403088E+01
  0
LINE
  8
0
 62
6
 10
-9.30960681E+01
 20
4.04403088E+01
 11
-9.30960681E+01
 21
3.89703088E+01
  0
LINE
  8
0
 62
6
 10
-9.55560681E+01
 20
4.04403088E+01
 11
-9.55560681E+01
 21
3.89703088E+01
  0
LINE
  8
0
 62
4
 10
-9.58260681E+01
 20
4.04403088E+01
 11
-9.58260681E+01
 21
3.92403088E+01
  0
ARC
  8
0
 62
4
 10
-9.13262282E+01
 20
4.06401486E+01
 40
5.00160181E-01
 50
1.83465799E-02
 51
9.00000002E+01
  0
ARC
  8
0
 62
4
 10
-9.73336933E+01
 20
4.06479340E+01
 40
4.92433852E-01
 50
8.91127567E+01
 51
1.80887243E+02
  0
ARC
  8
0
 62
4
 10
-9.08262064E+01
 20
4.11401704E+01
 40
8.00138358E-01
 50
9.90662024E-03
 51
9.00000002E+01
  0
ARC
  8
0
 62
4
 10
-9.78336933E+01
 20
4.11479340E+01
 40
7.92411497E-01
 50
8.94486475E+01
 51
1.80551352E+02
  0
ARC
  8
0
 62
4
 10
-9.28261976E+01
 20
4.34401792E+01
 40
1.00012957E+00
 50
7.42247612E-03
 51
9.00000002E+01
  0
ARC
  8
0
 62
4
 10
-9.58336948E+01
 20
4.34479355E+01
 40
9.92402587E-01
 50
8.95596718E+01
 51
1.80440329E+02
  0
CIRCLE
  8
0
 62
7
 10
-9.43331091E+01
 20
2.69353090E+01
 40
7.00000000E+00
  0
ARC
  8
0
 62
7
 10
-9.43320884E+01
 20
2.69342885E+01
 40
8.49059197E+00
 50
2.14539767E+02
 51
2.35460233E+02
  0
LINE
  8
0
 62
7
 10
-9.91460681E+01
 20
1.99403088E+01
 11
-8.95060681E+01
 21
1.99403088E+01
  0
ARC
  8
0
 62
7
 10
-9.43270916E+01
 20
2.69413324E+01
 40
8.50038818E+00
 50
3.04551957E+02
 51
3.25448043E+02
  0
LINE
  8
0
 62
7
 10
-8.73260681E+01
 20
3.17603088E+01
 11
-8.73260681E+01
 21
2.21203088E+01
  0
ARC
  8
0
 62
7
 10
-9.43159788E+01
 20
2.69182095E+01
 40
8.50322162E+00
 50
3.47113875E+01
 51
5.55520409E+01
  0
LINE
  8
0
 62
7
 10
-1.01326068E+02
 20
3.17603088E+01
 11
-1.01326068E+02
 21
2.21203088E+01
  0
LINE
  8
0
 62
7
 10
-9.91460681E+01
 20
3.39303088E+01
 11
-8.95060681E+01
 21
3.39303088E+01
  0
ARC
  8
0
 62
7
 10
-9.43431816E+01
 20
2.69252661E+01
 40
8.49342928E+00
 50
1.24435810E+02
 51
1.45300761E+02
  0
LINE
  8
0
 62
4
 10
-1.00326068E+02
 20
3.04003088E+01
 11
-1.00326068E+02
 21
2.34903088E+01
  0
LINE
  8
0
 62
4
 10
-8.83260681E+01
 20
3.04003088E+01
 11
-8.83260681E+01
 21
2.34903088E+01
  0
CIRCLE
  8
0
 62
2
 10
-9.43260681E+01
 20
2.69403088E+01
 40
1.62100000E+00
  0
LINE
  8
0
  6
CENTER
 62
2
 10
-1.03117989E+02
 20
2.69403088E+01
 11
-8.56309657E+01
 21
2.69403088E+01
  0
LINE
  8
0
  6
CENTER
 62
2
 10
-9.43260681E+01
 20
4.62605453E+01
 11
-9.43260681E+01
 21
1.75638914E+01
  0
LINE
  8
0
 62
4
 10
-9.43260681E+01
 20
3.09803088E+01
 11
-9.78260681E+01
 21
2.89603088E+01
  0
LINE
  8
0
 62
4
 10
-9.78260681E+01
 20
2.89603088E+01
 11
-9.78260681E+01
 21
2.49303088E+01
  0
LINE
  8
0
 62
4
 10
-9.78260681E+01
 20
2.49303088E+01
 11
-9.43260681E+01
 21
2.29103088E+01
  0
LINE
  8
0
 62
4
 10
-9.43260681E+01
 20
2.29103088E+01
 11
-9.08260681E+01
 21
2.49303088E+01
  0
LINE
  8
0
 62
4
 10
-9.08260681E+01
 20
2.49303088E+01
 11
-9.08260681E+01
 21
2.89603088E+01
  0
LINE
  8
0
 62
4
 10
-9.08260681E+01
 20
2.89603088E+01
 11
-9.43260681E+01
 21
3.09803088E+01
  0
LINE
  8
0
 62
4
 10
-9.43260681E+01
 20
3.38703088E+01
 11
-1.00326068E+02
 21
3.04003088E+01
  0
LINE
  8
0
 62
4
 10
-1.00326068E+02
 20
2.34903088E+01
 11
-9.43260681E+01
 21
2.00203088E+01
  0
LINE
  8
0
 62
4
 10
-9.43260681E+01
 20
2.00203088E+01
 11
-8.83260681E+01
 21
2.34903088E+01
  0
LINE
  8
0
 62
4
 10
-8.83260681E+01
 20
3.04003088E+01
 11
-9.43260681E+01
 21
3.38703088E+01
  0
CIRCLE
  8
0
 62
7
 10
-9.43331091E+01
 20
2.69453099E+01
 40
2.00000000E+00
  0
CIRCLE
  8
0
 62
4
 10
-9.43331091E+01
 20
2.69453099E+01
 40
3.50000000E+00
  0
ARC
  8
0
 62
7
 10
-9.43331091E+01
 20
2.69453088E+01
 40
3.99311751E+00
 50
1.51014793E+02
 51
2.08985207E+02
  0
ARC
  8
0
 62
7
 10
-9.43302383E+01
 20
2.69436488E+01
 40
3.99405996E+00
 50
2.10937213E+02
 51
2.68912138E+02
  0
ARC
  8
0
 62
7
 10
-9.43329224E+01
 20
2.69454181E+01
 40
3.99584842E+00
 50
2.71102069E+02
 51
3.29048580E+02
  0
ARC
  8
0
 62
7
 10
-9.43331091E+01
 20
2.69453088E+01
 40
4.00544151E+00
 50
3.31112406E+02
 51
2.88875940E+01
  0
ARC
  8
0
 62
7
 10
-9.43329214E+01
 20
2.69452012E+01
 40
3.99584669E+00
 50
3.09514064E+01
 51
8.88979451E+01
  0
ARC
  8
0
 62
7
 10
-9.43302393E+01
 20
2.69469704E+01
 40
3.99405823E+00
 50
9.10878482E+01
 51
1.49062800E+02
  0
CIRCLE
  8
0
 62
4
 10
-9.43331091E+01
 20
2.69453099E+01
 40
6.00000000E+00
  0
LINE
  8
0
  6
CENTER
 62
2
 10
9.73551501E+01
 20
4.60297243E+01
 11
9.73551501E+01
 21
1.69861935E+01
  0
LINE
  8
0
 62
4
 10
9.58551501E+01
 20
3.92403088E+01
 11
9.61551501E+01
 21
3.89403088E+01
  0
LINE
  8
0
 62
4
 10
9.88551501E+01
 20
3.92403088E+01
 11
9.85551501E+01
 21
3.89403088E+01
  0
LINE
  8
0
 62
4
 10
1.01704697E+02
 20
4.05742632E+01
 11
1.02202345E+02
 21
4.06227053E+01
  0
LINE
  8
0
 62
4
 10
1.02202345E+02
 20
4.06227053E+01
 11
1.02908724E+02
 21
3.33660430E+01
  0
LINE
  8
0
 62
4
 10
1.02185150E+02
 20
3.40903088E+01
 11
1.02334444E+02
 21
3.41048414E+01
  0
LINE
  8
0
 62
4
 10
1.01704697E+02
 20
4.05742632E+01
 11
1.02364446E+02
 21
3.37966330E+01
  0
LINE
  8
0
 62
4
 10
1.02185150E+02
 20
3.40903088E+01
 11
1.02202563E+02
 21
3.39114261E+01
  0
LINE
  8
0
 62
4
 10
9.38551501E+01
 20
3.54403088E+01
 11
9.34350968E+01
 21
3.39303088E+01
  0
LINE
  8
0
 62
4
 10
9.40051501E+01
 20
3.54403088E+01
 11
9.35863206E+01
 21
3.39303088E+01
  0
CIRCLE
  8
0
 62
4
 10
9.73551501E+01
 20
3.52403088E+01
 40
1.30000000E+00
  0
LINE
  8
0
 62
4
 10
1.00605150E+02
 20
3.89403088E+01
 11
1.00605150E+02
 21
3.39303088E+01
  0
LINE
  8
0
 62
4
 10
9.41051501E+01
 20
3.89403088E+01
 11
9.41051501E+01
 21
3.54403088E+01
  0
LINE
  8
0
 62
4
 10
9.41051501E+01
 20
3.89403088E+01
 11
1.00605150E+02
 21
3.89403088E+01
  0
LINE
  8
0
 62
4
 10
9.94051501E+01
 20
3.72403088E+01
 11
9.94051501E+01
 21
3.39303088E+01
  0
LINE
  8
0
 62
4
 10
9.53051501E+01
 20
3.72403088E+01
 11
9.94051501E+01
 21
3.72403088E+01
  0
LINE
  8
0
 62
4
 10
9.63551501E+01
 20
3.75403088E+01
 11
9.63551501E+01
 21
3.72403088E+01
  0
LINE
  8
0
 62
4
 10
9.83551501E+01
 20
3.75403088E+01
 11
9.83551501E+01
 21
3.72403088E+01
  0
LINE
  8
0
 62
4
 10
9.63551501E+01
 20
3.75403088E+01
 11
9.83551501E+01
 21
3.75403088E+01
  0
LINE
  8
0
 62
4
 10
9.41051501E+01
 20
3.82403088E+01
 11
1.00605150E+02
 21
3.82403088E+01
  0
LINE
  8
0
 62
4
 10
9.41051501E+01
 20
3.50403088E+01
 11
9.53051501E+01
 21
3.50403088E+01
  0
LINE
  8
0
 62
4
 10
9.41051501E+01
 20
3.54403088E+01
 11
9.53051501E+01
 21
3.54403088E+01
  0
LINE
  8
0
 62
4
 10
9.41051501E+01
 20
3.50403088E+01
 11
9.41051501E+01
 21
3.39303088E+01
  0
LINE
  8
0
 62
4
 10
9.53051501E+01
 20
3.72403088E+01
 11
9.53051501E+01
 21
3.39303088E+01
  0
LINE
  8
0
 62
4
 10
1.00855150E+02
 20
4.06403088E+01
 11
1.00855150E+02
 21
3.47403088E+01
  0
LINE
  8
0
 62
4
 10
9.38551501E+01
 20
4.06403088E+01
 11
9.38551501E+01
 21
3.54403088E+01
  0
LINE
  8
0
 62
4
 10
9.48551501E+01
 20
4.29403088E+01
 11
9.98551501E+01
 21
4.29403088E+01
  0
LINE
  8
0
 62
4
 10
9.38551501E+01
 20
4.19403088E+01
 11
1.00855150E+02
 21
4.19403088E+01
  0
LINE
  8
0
 62
4
 10
9.53551501E+01
 20
4.04403088E+01
 11
9.93551501E+01
 21
4.04403088E+01
  0
LINE
  8
0
 62
4
 10
9.43551501E+01
 20
4.11403088E+01
 11
1.00355150E+02
 21
4.11403088E+01
  0
LINE
  8
0
 62
4
 10
1.01655150E+02
 20
4.11403088E+01
 11
1.01655150E+02
 21
3.47403088E+01
  0
LINE
  8
0
 62
4
 10
9.30551501E+01
 20
4.11403088E+01
 11
9.30551501E+01
 21
3.54403088E+01
  0
LINE
  8
0
 62
4
 10
9.94151501E+01
 20
4.11403088E+01
 11
9.93551501E+01
 21
4.04403088E+01
  0
LINE
  8
0
 62
4
 10
9.52951501E+01
 20
4.11403088E+01
 11
9.53551501E+01
 21
4.04403088E+01
  0
LINE
  8
0
 62
4
 10
9.30551501E+01
 20
3.54403088E+01
 11
9.38551501E+01
 21
3.54403088E+01
  0
LINE
  8
0
 62
4
 10
1.00855150E+02
 20
3.47403088E+01
 11
1.01655150E+02
 21
3.47403088E+01
  0
LINE
  8
0
 62
4
 10
1.01655150E+02
 20
3.69403088E+01
 11
1.02036765E+02
 21
3.71629174E+01
  0
LINE
  8
0
 62
4
 10
1.03255150E+02
 20
4.02403088E+01
 11
1.03255150E+02
 21
3.78703088E+01
  0
LINE
  8
0
 62
4
 10
1.02455150E+02
 20
4.02403088E+01
 11
1.03255150E+02
 21
4.02403088E+01
  0
LINE
  8
0
 62
4
 10
1.02455150E+02
 20
4.02403088E+01
 11
1.02455150E+02
 21
3.83303088E+01
  0
LINE
  8
0
 62
4
 10
1.01655150E+02
 20
3.78703088E+01
 11
1.01951860E+02
 21
3.80351477E+01
  0
LINE
  8
0
 62
4
 10
9.40051501E+01
 20
4.06403088E+01
 11
9.40051501E+01
 21
3.54403088E+01
  0
LINE
  8
0
 62
4
 10
9.38551501E+01
 20
4.06403088E+01
 11
9.40051501E+01
 21
4.06403088E+01
  0
LINE
  8
0
 62
4
 10
1.02427299E+02
 20
3.83117415E+01
 11
1.02455150E+02
 21
3.83303088E+01
  0
LINE
  8
0
 62
4
 10
1.02513042E+02
 20
3.74309026E+01
 11
1.03255150E+02
 21
3.78703088E+01
  0
LINE
  8
0
 62
4
 10
9.58551501E+01
 20
4.29403088E+01
 11
9.58551501E+01
 21
4.19403088E+01
  0
LINE
  8
0
 62
4
 10
9.88551501E+01
 20
4.29403088E+01
 11
9.88551501E+01
 21
4.19403088E+01
  0
LINE
  8
0
 62
6
 10
9.85851501E+01
 20
4.29403088E+01
 11
9.85851501E+01
 21
4.19403088E+01
  0
LINE
  8
0
 62
6
 10
9.61251501E+01
 20
4.29403088E+01
 11
9.61251501E+01
 21
4.19403088E+01
  0
LINE
  8
0
 62
4
 10
9.98551501E+01
 20
4.34403088E+01
 11
9.98551501E+01
 21
4.29403088E+01
  0
LINE
  8
0
 62
4
 10
9.48551501E+01
 20
4.34403088E+01
 11
9.48551501E+01
 21
4.29403088E+01
  0
LINE
  8
0
 62
4
 10
9.58551501E+01
 20
4.44403088E+01
 11
9.88551501E+01
 21
4.44403088E+01
  0
LINE
  8
0
 62
4
 10
9.58551501E+01
 20
4.04403088E+01
 11
9.58551501E+01
 21
3.92403088E+01
  0
LINE
  8
0
 62
6
 10
9.61251501E+01
 20
4.04403088E+01
 11
9.61251501E+01
 21
3.89703088E+01
  0
LINE
  8
0
 62
6
 10
9.85851501E+01
 20
4.04403088E+01
 11
9.85851501E+01
 21
3.89703088E+01
  0
LINE
  8
0
 62
4
 10
9.88551501E+01
 20
4.04403088E+01
 11
9.88551501E+01
 21
3.92403088E+01
  0
LINE
  8
0
 62
4
 10
9.60551501E+01
 20
3.39403088E+01
 11
9.86551501E+01
 21
3.39403088E+01
  0
LINE
  8
0
 62
4
 10
9.60551501E+01
 20
3.65403088E+01
 11
9.86551501E+01
 21
3.65403088E+01
  0
LINE
  8
0
 62
4
 10
9.86551501E+01
 20
3.65403088E+01
 11
9.86551501E+01
 21
3.39403088E+01
  0
LINE
  8
0
 62
4
 10
9.60551501E+01
 20
3.65403088E+01
 11
9.60551501E+01
 21
3.39403088E+01
  0
LINE
  8
0
 62
4
 10
9.53051501E+01
 20
3.72403088E+01
 11
9.60551501E+01
 21
3.65403088E+01
  0
LINE
  8
0
 62
4
 10
9.86551501E+01
 20
3.65403088E+01
 11
9.94051501E+01
 21
3.72403088E+01
  0
ARC
  8
0
 62
4
 10
9.43553103E+01
 20
4.06401486E+01
 40
5.00160181E-01
 50
9.00000002E+01
 51
1.79981654E+02
  0
ARC
  8
0
 62
4
 10
1.00362775E+02
 20
4.06479340E+01
 40
4.92433852E-01
 50
3.59112757E+02
 51
9.08872431E+01
  0
ARC
  8
0
 62
4
 10
9.38552885E+01
 20
4.11401704E+01
 40
8.00138358E-01
 50
9.00000002E+01
 51
1.79990093E+02
  0
ARC
  8
0
 62
4
 10
1.00862775E+02
 20
4.11479340E+01
 40
7.92411497E-01
 50
3.59448647E+02
 51
9.05513523E+01
  0
ARC
  8
0
 62
4
 10
9.58552797E+01
 20
4.34401792E+01
 40
1.00012957E+00
 50
9.00000002E+01
 51
1.79992578E+02
  0
ARC
  8
0
 62
4
 10
9.88627769E+01
 20
4.34479355E+01
 40
9.92402587E-01
 50
3.59559672E+02
 51
9.04403286E+01
  0
CIRCLE
  8
0
 62
7
 10
9.73481091E+01
 20
2.69353090E+01
 40
7.00000000E+00
  0
ARC
  8
0
 62
7
 10
9.73491298E+01
 20
2.69342885E+01
 40
8.49059197E+00
 50
2.14539767E+02
 51
2.35460233E+02
  0
LINE
  8
0
 62
7
 10
9.25351501E+01
 20
1.99403088E+01
 11
1.02175150E+02
 21
1.99403088E+01
  0
ARC
  8
0
 62
7
 10
9.73541266E+01
 20
2.69413324E+01
 40
8.50038818E+00
 50
3.04551957E+02
 51
3.25448043E+02
  0
LINE
  8
0
 62
7
 10
1.04355150E+02
 20
3.17603088E+01
 11
1.04355150E+02
 21
2.21203088E+01
  0
ARC
  8
0
 62
7
 10
9.73652394E+01
 20
2.69182095E+01
 40
8.50322162E+00
 50
3.47113875E+01
 51
5.55520409E+01
  0
LINE
  8
0
 62
7
 10
9.03551501E+01
 20
3.17603088E+01
 11
9.03551501E+01
 21
2.21203088E+01
  0
LINE
  8
0
 62
7
 10
9.25351501E+01
 20
3.39303088E+01
 11
1.02175150E+02
 21
3.39303088E+01
  0
ARC
  8
0
 62
7
 10
9.73380366E+01
 20
2.69252661E+01
 40
8.49342928E+00
 50
1.24435810E+02
 51
1.45300761E+02
  0
LINE
  8
0
  6
CENTER
 62
2
 10
8.82010648E+01
 20
2.69403088E+01
 11
1.06451392E+02
 21
2.69403088E+01
  0
LINE
  8
0
 62
4
 10
1.03355150E+02
 20
3.04003088E+01
 11
1.03355150E+02
 21
2.34903088E+01
  0
LINE
  8
0
 62
4
 10
9.73551501E+01
 20
2.00203088E+01
 11
1.03355150E+02
 21
2.34903088E+01
  0
LINE
  8
0
 62
4
 10
9.13551501E+01
 20
2.34903088E+01
 11
9.73551501E+01
 21
2.00203088E+01
  0
LINE
  8
0
 62
4
 10
9.13551501E+01
 20
3.04003088E+01
 11
9.13551501E+01
 21
2.34903088E+01
  0
LINE
  8
0
 62
4
 10
9.73551501E+01
 20
3.38703088E+01
 11
9.13551501E+01
 21
3.04003088E+01
  0
CIRCLE
  8
0
 62
4
 10
9.73481091E+01
 20
2.69453099E+01
 40
6.00000000E+00
  0
LINE
  8
0
 62
4
 10
1.03355150E+02
 20
3.04003088E+01
 11
9.73551501E+01
 21
3.38703088E+01
  0
CIRCLE
  8
0
 62
2
 10
9.73551501E+01
 20
2.69403088E+01
 40
3.32350000E+00
  0
CIRCLE
  8
0
 62
7
 10
9.73551501E+01
 20
2.69403088E+01
 40
4.00000000E+00
  0
LINE
  8
0
  6
CENTER
 62
6
 10
-1.38305277E+01
 20
7.56703088E+01
 11
-1.38305277E+01
 21
6.09503088E+01
  0
LINE
  8
0
 62
4
 10
-1.83305277E+01
 20
6.27203088E+01
 11
-9.33052774E+00
 21
6.27203088E+01
  0
LINE
  8
0
 62
4
 10
-1.58305277E+01
 20
7.32175037E+01
 11
-1.58305277E+01
 21
7.42347877E+01
  0
LINE
  8
0
 62
4
 10
-1.83305277E+01
 20
7.42347877E+01
 11
-9.33052772E+00
 21
7.42347877E+01
  0
LINE
  8
0
 62
4
 10
-1.58305278E+01
 20
7.34703088E+01
 11
-1.18305278E+01
 21
7.34703088E+01
  0
CIRCLE
  8
0
 62
4
 10
-1.38314030E+01
 20
6.83678503E+01
 40
2.50000000E+00
  0
LINE
  8
0
 62
4
 10
-6.83052774E+00
 20
6.63703088E+01
 11
-1.33052774E+00
 21
6.63703088E+01
  0
LINE
  8
0
 62
4
 10
-6.83052774E+00
 20
7.03703088E+01
 11
-1.33052774E+00
 21
7.03703088E+01
  0
LINE
  8
0
 62
4
 10
-9.33052774E+00
 20
6.51203088E+01
 11
-6.83052774E+00
 21
6.51203088E+01
  0
LINE
  8
0
 62
4
 10
-9.33052774E+00
 20
7.16203088E+01
 11
-6.83052774E+00
 21
7.16203088E+01
  0
LINE
  8
0
 62
4
 10
-6.83052774E+00
 20
6.51203088E+01
 11
-6.83052774E+00
 21
7.16203088E+01
  0
LINE
  8
0
 62
4
 10
-2.08305277E+01
 20
7.16203088E+01
 11
-1.83305277E+01
 21
7.16203088E+01
  0
LINE
  8
0
 62
4
 10
-2.08305277E+01
 20
6.51203088E+01
 11
-1.83305277E+01
 21
6.51203088E+01
  0
LINE
  8
0
 62
4
 10
-2.63305277E+01
 20
6.73703088E+01
 11
-2.53305277E+01
 21
6.63703088E+01
  0
LINE
  8
0
 62
4
 10
-2.63305277E+01
 20
6.93703088E+01
 11
-2.53305277E+01
 21
7.03703088E+01
  0
LINE
  8
0
 62
4
 10
-2.53305277E+01
 20
7.03703088E+01
 11
-2.53305277E+01
 21
6.63703088E+01
  0
LINE
  8
0
 62
4
 10
-2.53305277E+01
 20
7.03703088E+01
 11
-2.08305277E+01
 21
7.03703088E+01
  0
LINE
  8
0
 62
4
 10
-2.53305277E+01
 20
6.63703088E+01
 11
-2.08305277E+01
 21
6.63703088E+01
  0
LINE
  8
0
 62
4
 10
-2.63305277E+01
 20
6.93703088E+01
 11
-2.63305277E+01
 21
6.73703088E+01
  0
LINE
  8
0
 62
4
 10
-1.33052774E+00
 20
7.03703088E+01
 11
-1.33052774E+00
 21
6.63703088E+01
  0
LINE
  8
0
 62
4
 10
-1.28230943E+01
 20
6.73677422E+01
 11
-1.48930943E+01
 21
6.94277422E+01
  0
LINE
  8
0
 62
4
 10
-1.48930943E+01
 20
6.73077422E+01
 11
-1.27730943E+01
 21
6.94277422E+01
  0
LINE
  8
0
 62
4
 10
-1.27205277E+01
 20
6.72703088E+01
 11
-1.27705277E+01
 21
6.73103088E+01
  0
LINE
  8
0
 62
4
 10
-2.08305277E+01
 20
6.51203088E+01
 11
-2.08305277E+01
 21
7.16203088E+01
  0
LINE
  8
0
 62
4
 10
-1.83305278E+01
 20
6.40703088E+01
 11
-9.33052774E+00
 21
6.40703088E+01
  0
LINE
  8
0
 62
4
 10
-1.83305278E+01
 20
7.26703455E+01
 11
-9.33052774E+00
 21
7.26703455E+01
  0
LINE
  8
0
 62
4
 10
-1.33052774E+00
 20
7.03703088E+01
 11
1.66947226E+00
 21
6.96703088E+01
  0
LINE
  8
0
 62
4
 10
1.66947225E+00
 20
6.96703088E+01
 11
6.60647134E+00
 21
6.96703088E+01
  0
LINE
  8
0
 62
4
 10
1.66947225E+00
 20
6.70703088E+01
 11
4.00647134E+00
 21
6.70703088E+01
  0
LINE
  8
0
 62
4
 10
-1.33052774E+00
 20
6.63703088E+01
 11
1.66947225E+00
 21
6.70703088E+01
  0
LINE
  8
0
 62
6
 10
6.60647134E+00
 20
6.96703088E+01
 11
4.00647134E+00
 21
6.70703088E+01
  0
LINE
  8
0
 62
4
 10
-1.83305277E+01
 20
7.32175037E+01
 11
-9.33052772E+00
 21
7.32175037E+01
  0
LINE
  8
0
 62
4
 10
-1.18305277E+01
 20
7.42347877E+01
 11
-1.18305277E+01
 21
7.32175037E+01
  0
LINE
  8
0
  6
CENTER
 62
6
 10
-2.84646045E+01
 20
6.83703088E+01
 11
7.84104829E+00
 21
6.83703088E+01
  0
LINE
  8
0
 62
4
 10
1.66947225E+00
 20
6.96703088E+01
 11
1.66947225E+00
 21
6.70703088E+01
  0
LINE
  8
0
 62
4
 10
-9.33052774E+00
 20
6.27203088E+01
 11
-9.33052774E+00
 21
7.42347877E+01
  0
LINE
  8
0
 62
4
 10
-1.83305277E+01
 20
6.27203088E+01
 11
-1.83305277E+01
 21
7.42347877E+01
  0
LINE
  8
0
  6
CENTER
 62
6
 10
-1.13475935E+02
 20
-4.78104135E+01
 11
-1.02570624E+02
 21
-4.78104135E+01
  0
CIRCLE
  8
0
 62
4
 10
-1.07988101E+02
 20
-4.78104135E+01
 40
4.00000000E+00
  0
LINE
  8
0
  6
CENTER
 62
6
 10
-1.07988101E+02
 20
-5.33404305E+01
 11
-1.07988101E+02
 21
-4.16611944E+01
  0
LINE
  8
0
 62
4
 10
-1.23988101E+02
 20
-5.68104135E+01
 11
-9.19881012E+01
 21
-5.68104135E+01
  0
LINE
  8
0
 62
4
 10
-1.23988101E+02
 20
-5.52104135E+01
 11
-9.19881012E+01
 21
-5.52104135E+01
  0
ARC
  8
0
 62
4
 10
-1.07988101E+02
 20
-4.78104135E+01
 40
7.00000000E+00
 50
4.17832706E+01
 51
1.38216729E+02
  0
LINE
  8
0
 62
4
 10
-1.23988101E+02
 20
-5.68104135E+01
 11
-1.23988101E+02
 21
-5.52104135E+01
  0
LINE
  8
0
 62
4
 10
-9.19881012E+01
 20
-5.68104135E+01
 11
-9.19881012E+01
 21
-5.52104135E+01
  0
LINE
  8
0
 62
4
 10
-9.19881012E+01
 20
-5.52104135E+01
 11
-1.02768407E+02
 21
-4.31462101E+01
  0
LINE
  8
0
 62
4
 10
-1.23988101E+02
 20
-5.52104135E+01
 11
-1.13207795E+02
 21
-4.31462101E+01
  0
LINE
  8
0
  6
CENTER
 62
6
 10
-1.19088101E+02
 20
-5.81950528E+01
 11
-1.19088101E+02
 21
-5.36922148E+01
  0
LINE
  8
0
  6
CENTER
 62
6
 10
-9.68881012E+01
 20
-5.81950528E+01
 11
-9.68881012E+01
 21
-5.36922148E+01
  0
LINE
  8
0
 62
4
 10
-6.85881012E+01
 20
-4.08104135E+01
 11
-6.69881012E+01
 21
-4.08104135E+01
  0
LINE
  8
0
 62
4
 10
-6.69881012E+01
 20
-5.44104135E+01
 11
-6.69881012E+01
 21
-4.08104135E+01
  0
LINE
  8
0
  6
CENTER
 62
6
 10
-6.48275506E+01
 20
-4.78104135E+01
 11
-7.12881012E+01
 21
-4.78104135E+01
  0
LINE
  8
0
 62
4
 10
-6.85881012E+01
 20
-5.44104135E+01
 11
-6.85881012E+01
 21
-4.08104135E+01
  0
LINE
  8
0
 62
4
 10
-7.89881012E+01
 20
-5.52104135E+01
 11
-6.93881012E+01
 21
-5.52104135E+01
  0
LINE
  8
0
 62
4
 10
-7.89881012E+01
 20
-5.68104135E+01
 11
-7.89881012E+01
 21
-5.52104135E+01
  0
LINE
  8
0
 62
4
 10
-7.89881012E+01
 20
-5.68104135E+01
 11
-6.93881012E+01
 21
-5.68104135E+01
  0
LINE
  8
0
 62
4
 10
-7.60881012E+01
 20
-5.68104135E+01
 11
-7.60881012E+01
 21
-5.52104135E+01
  0
LINE
  8
0
 62
4
 10
-7.18881012E+01
 20
-5.68104135E+01
 11
-7.18881012E+01
 21
-5.52104135E+01
  0
LINE
  8
0
  6
CENTER
 62
6
 10
-7.39881012E+01
 20
-5.81950528E+01
 11
-7.39881012E+01
 21
-5.36922148E+01
  0
ARC
  8
0
 62
4
 10
-6.93881012E+01
 20
-5.44104135E+01
 40
8.00000000E-01
 50
2.70000000E+02
 51
0.00000000E+00
  0
ARC
  8
0
 62
4
 10
-6.93881012E+01
 20
-5.44104135E+01
 40
2.40000000E+00
 50
2.70000000E+02
 51
0.00000000E+00
  0
LINE
  8
0
  6
CENTER
 62
6
 10
-1.07988101E+02
 20
-8.41041351E+00
 11
-1.07988101E+02
 21
-2.46265347E+01
  0
LINE
  8
0
 62
4
 10
-9.19881012E+01
 20
-9.80041351E+00
 11
-9.19881012E+01
 21
-1.47004135E+01
  0
LINE
  8
0
 62
4
 10
-1.23988101E+02
 20
-9.80041351E+00
 11
-9.19881012E+01
 21
-9.80041351E+00
  0
LINE
  8
0
  6
CENTER
 62
6
 10
-1.23439417E+02
 20
-1.68004135E+01
 11
-9.27572033E+01
 21
-1.68004135E+01
  0
LINE
  8
0
 62
4
 10
-9.19881012E+01
 20
-1.89004135E+01
 11
-9.19881012E+01
 21
-2.18004135E+01
  0
LINE
  8
0
 62
4
 10
-1.23988101E+02
 20
-1.14004135E+01
 11
-9.19881012E+01
 21
-1.14004135E+01
  0
LINE
  8
0
 62
4
 10
-1.23988101E+02
 20
-2.18004135E+01
 11
-9.19881012E+01
 21
-2.18004135E+01
  0
LINE
  8
0
  6
CENTER
 62
6
 10
-9.68881012E+01
 20
-1.38004135E+01
 11
-9.68881012E+01
 21
-2.02671334E+01
  0
LINE
  8
0
 62
4
 10
-9.68881012E+01
 20
-1.47004135E+01
 11
-9.19881012E+01
 21
-1.47004135E+01
  0
LINE
  8
0
 62
4
 10
-9.68881012E+01
 20
-1.89004135E+01
 11
-9.19881012E+01
 21
-1.89004135E+01
  0
ARC
  8
0
 62
4
 10
-9.68881012E+01
 20
-1.68004135E+01
 40
2.10000000E+00
 50
9.00000002E+01
 51
2.70000000E+02
  0
LINE
  8
0
 62
4
 10
-1.23988101E+02
 20
-9.80041351E+00
 11
-1.23988101E+02
 21
-1.47004135E+01
  0
LINE
  8
0
  6
CENTER
 62
6
 10
-1.19088101E+02
 20
-1.38004135E+01
 11
-1.19088101E+02
 21
-2.02671334E+01
  0
LINE
  8
0
 62
4
 10
-1.19088101E+02
 20
-1.47004135E+01
 11
-1.23988101E+02
 21
-1.47004135E+01
  0
ARC
  8
0
 62
4
 10
-1.19088101E+02
 20
-1.68004135E+01
 40
2.10000000E+00
 50
2.70000000E+02
 51
9.00000002E+01
  0
LINE
  8
0
 62
4
 10
-1.23988101E+02
 20
-1.89004135E+01
 11
-1.23988101E+02
 21
-2.18004135E+01
  0
LINE
  8
0
 62
4
 10
-1.19088101E+02
 20
-1.89004135E+01
 11
-1.23988101E+02
 21
-1.89004135E+01
  0
LINE
  8
0
  6
CENTER
 62
6
 10
-1.09881012E+01
 20
-4.24658957E+01
 11
-1.09881012E+01
 21
-5.94524322E+01
  0
LINE
  8
0
 62
4
 10
5.01189881E+00
 20
-4.38104135E+01
 11
5.01189881E+00
 21
-4.87104135E+01
  0
LINE
  8
0
  6
CENTER
 62
6
 10
-2.80618132E+01
 20
-5.08104135E+01
 11
6.55905865E+00
 21
-5.08104135E+01
  0
CIRCLE
  8
0
 62
4
 10
-1.09881012E+01
 20
-5.08104135E+01
 40
4.00000000E+00
  0
LINE
  8
0
 62
4
 10
5.01189881E+00
 20
-5.29104135E+01
 11
5.01189881E+00
 21
-5.78104135E+01
  0
LINE
  8
0
  6
CENTER
 62
6
 10
1.11898811E-01
 20
-4.72003739E+01
 11
1.11898811E-01
 21
-5.45388151E+01
  0
LINE
  8
0
 62
4
 10
1.11898811E-01
 20
-4.87104135E+01
 11
5.01189881E+00
 21
-4.87104135E+01
  0
LINE
  8
0
 62
4
 10
1.11898811E-01
 20
-5.29104135E+01
 11
5.01189881E+00
 21
-5.29104135E+01
  0
ARC
  8
0
 62
4
 10
1.11898811E-01
 20
-5.08104135E+01
 40
2.10000000E+00
 50
9.00000002E+01
 51
2.70000000E+02
  0
LINE
  8
0
 62
4
 10
-2.69881012E+01
 20
-4.38104135E+01
 11
-2.69881012E+01
 21
-4.87104135E+01
  0
LINE
  8
0
  6
CENTER
 62
6
 10
-2.20881012E+01
 20
-4.72003739E+01
 11
-2.20881012E+01
 21
-5.45388151E+01
  0
ARC
  8
0
 62
4
 10
-2.20881012E+01
 20
-5.08104135E+01
 40
2.10000000E+00
 50
2.70000000E+02
 51
9.00000002E+01
  0
LINE
  8
0
 62
4
 10
-2.20881012E+01
 20
-4.87104135E+01
 11
-2.69881012E+01
 21
-4.87104135E+01
  0
LINE
  8
0
 62
4
 10
-2.69881012E+01
 20
-5.29104135E+01
 11
-2.69881012E+01
 21
-5.78104135E+01
  0
LINE
  8
0
 62
4
 10
-2.20881012E+01
 20
-5.29104135E+01
 11
-2.69881012E+01
 21
-5.29104135E+01
  0
LINE
  8
0
 62
4
 10
-2.69881012E+01
 20
-4.38104135E+01
 11
5.01189881E+00
 21
-4.38104135E+01
  0
LINE
  8
0
 62
4
 10
-2.69881012E+01
 20
-5.78104135E+01
 11
5.01189881E+00
 21
-5.78104135E+01
  0
LINE
  8
0
 62
4
 10
2.86118988E+01
 20
-4.38104135E+01
 11
2.86118988E+01
 21
-5.78104135E+01
  0
LINE
  8
0
 62
4
 10
2.63118988E+01
 20
-4.38104135E+01
 11
2.63118988E+01
 21
-5.78104135E+01
  0
LINE
  8
0
  6
CENTER
 62
6
 10
2.46243742E+01
 20
-5.08104135E+01
 11
3.02331379E+01
 21
-5.08104135E+01
  0
LINE
  8
0
 62
4
 10
2.63118988E+01
 20
-4.87104135E+01
 11
2.86118988E+01
 21
-4.87104135E+01
  0
LINE
  8
0
 62
4
 10
2.63118988E+01
 20
-5.29104135E+01
 11
2.86118988E+01
 21
-5.29104135E+01
  0
LINE
  8
0
 62
4
 10
2.63118988E+01
 20
-4.38104135E+01
 11
2.86118988E+01
 21
-4.38104135E+01
  0
LINE
  8
0
 62
4
 10
2.63118988E+01
 20
-5.78104135E+01
 11
2.86118988E+01
 21
-5.78104135E+01
  0
LINE
  8
0
  6
CENTER
 62
6
 10
-1.09881012E+01
 20
-2.42040219E+01
 11
-1.09881012E+01
 21
-1.66512841E+01
  0
LINE
  8
0
 62
4
 10
-2.69881012E+01
 20
-2.15104135E+01
 11
5.01189881E+00
 21
-2.15104135E+01
  0
LINE
  8
0
 62
4
 10
-2.69881012E+01
 20
-1.92104135E+01
 11
5.01189881E+00
 21
-1.92104135E+01
  0
LINE
  8
0
 62
4
 10
-2.69881012E+01
 20
-2.15104135E+01
 11
-2.69881012E+01
 21
-1.92104135E+01
  0
LINE
  8
0
 62
4
 10
5.01189881E+00
 20
-2.15104135E+01
 11
5.01189881E+00
 21
-1.92104135E+01
  0
LINE
  8
0
  6
CENTER
 62
6
 10
-2.20881012E+01
 20
-2.42040219E+01
 11
-2.20881012E+01
 21
-1.66512841E+01
  0
LINE
  8
0
  6
CENTER
 62
6
 10
1.11898811E-01
 20
-2.42040219E+01
 11
1.11898811E-01
 21
-1.66512841E+01
  0
LINE
  8
0
 62
7
 10
-1.33399994E+02
 20
-8.98000031E+01
 11
-6.89999939E+01
 21
-8.98000031E+01
  0
TEXT
  8
0
 62
7
 10
-1.05449994E+02
 20
-8.24000031E+01
 40
3.20000005E+00
  1
25
 41
1.00000000E+00
  7
MONOTXT
  0
TEXT
  8
0
 62
7
 10
-1.07049994E+02
 20
-8.84000031E+01
 40
3.20000005E+00
  1
-25
 41
1.00000000E+00
  7
MONOTXT
  0
TEXT
  8
0
 62
7
 10
-9.58499939E+01
 20
-8.24000031E+01
 40
3.20000005E+00
  1
50
 41
1.00000000E+00
  7
MONOTXT
  0
TEXT
  8
0
 62
7
 10
-8.62499939E+01
 20
-8.24000031E+01
 40
3.20000005E+00
  1
75
 41
1.00000000E+00
  7
MONOTXT
  0
TEXT
  8
0
 62
7
 10
-9.42499939E+01
 20
-8.84000031E+01
 40
3.20000005E+00
  1
0
 41
1.00000000E+00
  7
MONOTXT
  0
TEXT
  8
0
 62
7
 10
-8.62499939E+01
 20
-8.84000031E+01
 40
3.20000005E+00
  1
25
 41
1.00000000E+00
  7
MONOTXT
  0
TEXT
  8
0
 62
7
 10
-7.66499939E+01
 20
-8.84000031E+01
 40
3.20000005E+00
  1
50
 41
1.00000000E+00
  7
MONOTXT
  0
LINE
  8
0
 62
7
 10
-1.33399994E+02
 20
-8.98000031E+01
 11
-1.33399994E+02
 21
-7.78000031E+01
  0
LINE
  8
0
 62
7
 10
-1.33399994E+02
 20
-8.38000031E+01
 11
-6.89999939E+01
 21
-8.38000031E+01
  0
LINE
  8
0
 62
7
 10
-1.07399994E+02
 20
-8.98000031E+01
 11
-1.07399994E+02
 21
-7.78000031E+01
  0
LINE
  8
0
 62
7
 10
-9.77999939E+01
 20
-8.98000031E+01
 11
-9.77999939E+01
 21
-7.78000031E+01
  0
LINE
  8
0
 62
7
 10
-1.33399994E+02
 20
-7.78000031E+01
 11
-6.89999939E+01
 21
-7.78000031E+01
  0
LINE
  8
0
 62
7
 10
-8.81999939E+01
 20
-8.98000031E+01
 11
-8.81999939E+01
 21
-7.78000031E+01
  0
LINE
  8
0
 62
7
 10
-7.85999939E+01
 20
-8.98000031E+01
 11
-7.85999939E+01
 21
-7.78000031E+01
  0
LINE
  8
0
 62
7
 10
-6.89999939E+01
 20
-8.98000031E+01
 11
-6.89999939E+01
 21
-7.78000031E+01
  0
TEXT
  8
0
 62
7
 10
-1.29649994E+02
 20
-8.24000031E+01
 40
3.20000005E+00
  1
STROKE
 41
1.00000000E+00
  7
MONOTXT
  0
TEXT
  8
0
 62
7
 10
-1.31249994E+02
 20
-8.84000031E+01
 40
3.20000005E+00
  1
STRETCH
 41
1.00000000E+00
  7
MONOTXT
  0
TEXT
  8
0
 62
7
 10
-7.82499940E+01
 20
-8.24000031E+01
 40
3.20000005E+00
  1
100
 41
1.00000000E+00
  7
MONOTXT
  0
TEXT
  8
0
 62
7
 10
-8.02437339E+01
 20
-7.60119966E+01
 40
3.20000005E+00
  1
(mm)
 41
1.00000000E+00
  7
MONOTXT
  0
TEXT
  8
0
 62
7
 10
-1.20049994E+02
 20
-7.57696827E+01
 40
3.20000005E+00
  1
STRETCH LIST
 41
1.05263158E+00
  7
MONOTXT
  0
TEXT
  8
0
 10
-1.21247948E+01
 20
4.88258432E+01
 40
3.20000005E+00
  1
STRETCH LINE
 41
1.05263158E+00
  7
MONOTXT
  0
LINE
  8
0
 62
7
 10
-1.38399994E+02
 20
9.45000000E+01
 11
1.38350006E+02
 21
9.45000000E+01
  0
LINE
  8
0
 62
7
 10
1.38350006E+02
 20
9.45000000E+01
 11
1.38350006E+02
 21
-9.48000031E+01
  0
LINE
  8
0
 62
7
 10
-1.38399994E+02
 20
-9.48000031E+01
 11
1.38350006E+02
 21
-9.48000031E+01
  0
LINE
  8
0
 62
7
 10
-1.38399994E+02
 20
9.45000000E+01
 11
-1.38399994E+02
 21
-9.48000031E+01
  0
LINE
  8
0
 62
7
 10
7.33500061E+01
 20
-8.48000031E+01
 11
1.38350006E+02
 21
-8.48000031E+01
  0
LINE
  8
0
 62
7
 10
-1.38399994E+02
 20
8.45000000E+01
 11
-7.33999939E+01
 21
8.45000000E+01
  0
LINE
  8
0
 62
7
 10
7.33500061E+01
 20
8.45000000E+01
 11
1.38350006E+02
 21
8.45000000E+01
  0
LINE
  8
0
 62
7
 10
7.33500061E+01
 20
-8.48000031E+01
 11
7.33500061E+01
 21
-9.48000031E+01
  0
LINE
  8
0
 62
7
 10
7.33500061E+01
 20
9.45000000E+01
 11
7.33500061E+01
 21
8.45000000E+01
  0
LINE
  8
0
 62
7
 10
-7.33999939E+01
 20
9.45000000E+01
 11
-7.33999939E+01
 21
8.45000000E+01
  0
TEXT
  8
0
 62
7
 10
7.72426624E+01
 20
-9.20500031E+01
 40
4.50000000E+00
  1
KOGANEI CORP.
 41
1.04838710E+00
  7
MONOTXT
  0
TEXT
  8
0
 62
7
 10
9.35071483E+01
 20
8.79000000E+01
 40
3.20000005E+00
  1
Ver. 1.1
 41
1.08108108E+00
  7
MONOTXT
  0
TEXT
  8
0
 62
7
 10
-1.31042852E+02
 20
8.79000000E+01
 40
3.20000005E+00
  1
NEW PEN CYLINDER
 41
1.08108108E+00
  7
MONOTXT
  0
TEXT
  8
0
 62
7
 10
-1.29085994E+02
 20
7.29000000E+01
 40
3.20000005E+00
  1
MODEL:PBDACS10*ST(50)-M-ZC230
 41
1.00000000E+00
  7
MONOTXT
  0
ENDSEC
  0
EOF
