  0
SECTION
  2
HEADER
  9
$ACADVER
  1
AC1003
  9
$EXTMIN
 10
-1.38399994E+02
 20
-9.48000031E+01
  9
$EXTMAX
 10
1.38350006E+02
 20
9.45000000E+01
  9
$LIMMIN
 10
-1.38400994E+02
 20
-9.48010031E+01
  9
$LIMMAX
 10
1.38351006E+02
 20
9.45010000E+01
  9
$SNAPUNIT
 10
1
 20
1
  9
$SNAPBASE
 10
0
 20
0
  9
$GRIDMODE
 70
0
  9
$GRIDUNIT
 10
0
 20
0
  9
$LTSCALE
 40
4.61250000E+00
  9
$TEXTSIZE
 40
3.2
  9
$DIMTAD
 70
0
  9
$LUNITS
 70
2
  9
$LUPREC
 70
4
  9
$FILLETRAD
 40
0
  9
$AUNITS
 70
0
  9
$AUPREC
 70
0
  0
ENDSEC
  0
SECTION
  2
TABLES
  0
TABLE
  2
LTYPE
 70
2
  0
LTYPE
  2
CONTINUOUS
 70
64
  3
Solid-Line
 72
65
 73
0
 40
0
  0
LTYPE
  2
DASHED
 70
64
  3
DASHED
 72
65
 73
2
 40
.75
 49
.5
 49
-.25
  0
LTYPE
  2
HIDDEN
 70
64
  3
HIDDEN
 72
65
 73
2
 40
.375
 49
.25
 49
-.125
  0
LTYPE
  2
CENTER
 70
64
  3
CENTER
 72
65
 73
4
 40
2
 49
1.25
 49
-.25
 49
.25
 49
-.25
  0
LTYPE
  2
PHANTOM
 70
64
  3
PHANTOM
 72
65
 73
6
 40
2.5
 49
1.25
 49
-.25
 49
.25
 49
-.25
 49
.25
 49
-.25
  0
ENDTAB
  0
TABLE
  2
LAYER
 70
1
  0
LAYER
  2
1
 70
0
 62
7
  6
CONTINUOUS
 0
ENDTAB
  0
TABLE
  2
STYLE
 70
2
  0
STYLE
  2
MONOTXT
 70
0
 40
0
 41
1
 50
0
 71
0
 42
.2
  3
monotxt
  0
STYLE
  2
BIGFONT
 70
0
 40
0
 41
1
 50
0
 71
0
 42
.2
  3
txt
  4
bigfont
  0
ENDTAB
  0
ENDSEC
  0
SECTION
  2
ENTITIES
  0
LINE
  8
0
  6
CENTER
 62
6
 10
-2.25437045E+01
 20
4.13289387E+01
 11
-2.25437045E+01
 21
1.38989387E+01
  0
TEXT
  8
0
 62
7
 10
-1.67796420E+01
 20
1.69189387E+01
 40
1.50000000E+00
  1
PBDACS10-7
 41
1.00000000E+00
  7
MONOTXT
  0
LINE
  8
0
 62
7
 10
2.39462955E+01
 20
1.58189387E+01
 11
3.69462955E+01
 21
1.58189387E+01
  0
LINE
  8
0
 62
7
 10
2.64462955E+01
 20
2.68189387E+01
 11
3.69462955E+01
 21
2.68189387E+01
  0
LINE
  8
0
 62
7
 10
-1.55437045E+01
 20
2.68189387E+01
 11
1.24462955E+01
 21
2.68189387E+01
  0
LINE
  8
0
 62
7
 10
-1.80437045E+01
 20
1.58189387E+01
 11
1.49462955E+01
 21
1.58189387E+01
  0
LINE
  8
0
 62
4
 10
-1.55437045E+01
 20
3.16189387E+01
 11
-1.00437045E+01
 21
3.16189387E+01
  0
LINE
  8
0
 62
4
 10
-1.55437045E+01
 20
2.76189387E+01
 11
-1.00437045E+01
 21
2.76189387E+01
  0
LINE
  8
0
 62
4
 10
-2.95437045E+01
 20
2.94189387E+01
 11
-2.95437045E+01
 21
2.63189387E+01
  0
LINE
  8
0
 62
4
 10
-1.55437045E+01
 20
2.94189387E+01
 11
-1.55437045E+01
 21
2.63189387E+01
  0
LINE
  8
0
 62
4
 10
-2.70437045E+01
 20
2.98189387E+01
 11
-1.80437045E+01
 21
2.98189387E+01
  0
LINE
  8
0
 62
4
 10
-2.70437045E+01
 20
2.98189387E+01
 11
-2.70437045E+01
 21
3.63189387E+01
  0
LINE
  8
0
 62
4
 10
-1.80437045E+01
 20
2.98189387E+01
 11
-1.80437045E+01
 21
3.63189387E+01
  0
LINE
  8
0
 62
4
 10
-1.80437045E+01
 20
2.94189387E+01
 11
-1.55437045E+01
 21
2.94189387E+01
  0
LINE
  8
0
 62
4
 10
-1.80437045E+01
 20
3.26189387E+01
 11
-1.55437045E+01
 21
3.26189387E+01
  0
LINE
  8
0
 62
4
 10
-2.95437045E+01
 20
3.26189387E+01
 11
-2.70437045E+01
 21
3.26189387E+01
  0
LINE
  8
0
 62
4
 10
-2.95437045E+01
 20
2.98189387E+01
 11
-2.70437045E+01
 21
2.98189387E+01
  0
LINE
  8
0
 62
4
 10
-2.95437045E+01
 20
2.94189387E+01
 11
-2.70437045E+01
 21
2.94189387E+01
  0
LINE
  8
0
 62
4
 10
-2.70437045E+01
 20
1.56728860E+01
 11
-1.80437045E+01
 21
1.56728860E+01
  0
LINE
  8
0
 62
6
 10
-2.37737045E+01
 20
3.73189387E+01
 11
-2.37737045E+01
 21
3.63189387E+01
  0
LINE
  8
0
 62
6
 10
-2.13137045E+01
 20
3.73189387E+01
 11
-2.13137045E+01
 21
3.63189387E+01
  0
LINE
  8
0
 62
4
 10
-2.40437045E+01
 20
3.73189387E+01
 11
-2.40437045E+01
 21
3.63189387E+01
  0
LINE
  8
0
 62
4
 10
-2.10437045E+01
 20
3.73189387E+01
 11
-2.10437045E+01
 21
3.63189387E+01
  0
LINE
  8
0
 62
4
 10
-2.95437045E+01
 20
3.16189387E+01
 11
-3.40437045E+01
 21
3.16189387E+01
  0
LINE
  8
0
 62
4
 10
-1.80437045E+01
 20
2.98189387E+01
 11
-1.80437045E+01
 21
1.56689387E+01
  0
LINE
  8
0
 62
4
 10
-2.70437045E+01
 20
2.98189387E+01
 11
-2.70437045E+01
 21
1.56689387E+01
  0
LINE
  8
0
 62
4
 10
-2.70437045E+01
 20
3.63189387E+01
 11
-1.80437045E+01
 21
3.63189387E+01
  0
LINE
  8
0
 62
4
 10
-1.80437045E+01
 20
2.98189387E+01
 11
-1.55437045E+01
 21
2.98189387E+01
  0
LINE
  8
0
 62
4
 10
-2.70437045E+01
 20
1.56689387E+01
 11
-1.80437045E+01
 21
1.56689387E+01
  0
LINE
  8
0
 62
4
 10
-3.50437045E+01
 20
3.06189387E+01
 11
-3.50437045E+01
 21
2.86189387E+01
  0
LINE
  8
0
 62
4
 10
-3.40437045E+01
 20
2.76189387E+01
 11
-2.95437045E+01
 21
2.76189387E+01
  0
LINE
  8
0
 62
4
 10
-2.50437045E+01
 20
3.73189387E+01
 11
-2.00437045E+01
 21
3.73189387E+01
  0
LINE
  8
0
 62
4
 10
-2.40437045E+01
 20
3.88189387E+01
 11
-2.10437045E+01
 21
3.88189387E+01
  0
LINE
  8
0
 62
4
 10
-2.00437045E+01
 20
3.78189387E+01
 11
-2.00437045E+01
 21
3.73189387E+01
  0
LINE
  8
0
 62
4
 10
-2.50437045E+01
 20
3.78189387E+01
 11
-2.50437045E+01
 21
3.73189387E+01
  0
LINE
  8
0
 62
4
 10
-3.40437045E+01
 20
3.16189387E+01
 11
-3.40437045E+01
 21
2.76189387E+01
  0
LINE
  8
0
 62
4
 10
-3.50437045E+01
 20
3.06189387E+01
 11
-3.40437045E+01
 21
3.16189387E+01
  0
LINE
  8
0
 62
4
 10
-3.50437045E+01
 20
2.86189387E+01
 11
-3.40437045E+01
 21
2.76189387E+01
  0
LINE
  8
0
 62
4
 10
-1.55437045E+01
 20
3.26189387E+01
 11
-1.55437045E+01
 21
2.98189387E+01
  0
LINE
  8
0
 62
4
 10
-2.95437045E+01
 20
3.26189387E+01
 11
-2.95437045E+01
 21
2.98189387E+01
  0
LINE
  8
0
 62
4
 10
-2.95437045E+01
 20
2.63189387E+01
 11
-2.70437045E+01
 21
2.63189387E+01
  0
LINE
  8
0
 62
4
 10
-1.80437045E+01
 20
2.63189387E+01
 11
-1.55437045E+01
 21
2.63189387E+01
  0
ARC
  8
0
 62
4
 10
-2.40429130E+01
 20
3.78181472E+01
 40
1.00079180E+00
 50
9.00000002E+01
 51
1.79954687E+02
  0
ARC
  8
0
 62
4
 10
-2.10453702E+01
 20
3.78172730E+01
 40
1.00166704E+00
 50
9.52762946E-02
 51
8.99047236E+01
  0
LINE
  8
0
 62
4
 10
-7.04370453E+00
 20
3.09189387E+01
 11
-2.10670544E+00
 21
3.09189387E+01
  0
LINE
  8
0
 62
4
 10
-7.04370453E+00
 20
2.83189387E+01
 11
-4.70670544E+00
 21
2.83189387E+01
  0
LINE
  8
0
 62
4
 10
-1.00437045E+01
 20
2.76189387E+01
 11
-7.04370453E+00
 21
2.83189387E+01
  0
LINE
  8
0
 62
4
 10
-1.00437045E+01
 20
3.16189387E+01
 11
-7.04370452E+00
 21
3.09189387E+01
  0
LINE
  8
0
 62
4
 10
-1.00437045E+01
 20
3.16189387E+01
 11
-1.00437045E+01
 21
2.76189387E+01
  0
LINE
  8
0
 62
4
 10
-7.04370452E+00
 20
3.09189387E+01
 11
-7.04370452E+00
 21
2.83189387E+01
  0
LINE
  8
0
 62
6
 10
-2.10670544E+00
 20
3.09189387E+01
 11
-4.70670544E+00
 21
2.83189387E+01
  0
LINE
  8
0
 62
7
 10
-5.33137045E+01
 20
1.64989387E+01
 11
-3.87737045E+01
 21
1.64989387E+01
  0
LINE
  8
0
 62
7
 10
-3.87737045E+01
 20
1.64989387E+01
 11
-3.87737045E+01
 21
1.43189387E+01
  0
ARC
  8
0
 62
7
 10
-4.46317660E+01
 20
2.13139387E+01
 40
7.58294862E+00
 50
3.20581701E+02
 51
3.94182985E+01
  0
LINE
  8
0
 62
7
 10
-3.87737045E+01
 20
2.61389387E+01
 11
-3.87737045E+01
 21
2.83189387E+01
  0
LINE
  8
0
 62
7
 10
-5.33137045E+01
 20
2.61389387E+01
 11
-3.87737045E+01
 21
2.61389387E+01
  0
LINE
  8
0
 62
7
 10
3.86762955E+01
 20
1.64989387E+01
 11
3.86762955E+01
 21
1.43189387E+01
  0
ARC
  8
0
 62
7
 10
4.45340609E+01
 20
2.13183628E+01
 40
7.58626181E+00
 50
1.40547749E+02
 51
2.19440986E+02
  0
LINE
  8
0
 62
7
 10
3.86762955E+01
 20
2.61389387E+01
 11
3.86762955E+01
 21
2.83189387E+01
  0
LINE
  8
0
  6
CENTER
 62
2
 10
-8.52380216E+01
 20
2.13189387E+01
 11
6.70841188E+01
 21
2.13189387E+01
  0
LINE
  8
0
 62
7
 10
-3.70437045E+01
 20
1.58189387E+01
 11
-2.70437045E+01
 21
1.58189387E+01
  0
LINE
  8
0
 62
7
 10
-3.70437045E+01
 20
2.68189387E+01
 11
-2.95437045E+01
 21
2.68189387E+01
  0
LINE
  8
0
  6
CENTER
 62
2
 10
-4.70437045E+01
 20
3.06112896E+01
 11
-4.70437045E+01
 21
2.33869074E+01
  0
LINE
  8
0
  6
CENTER
 62
2
 10
-4.20471103E+01
 20
3.06112896E+01
 11
-4.20471103E+01
 21
2.33869074E+01
  0
LINE
  8
0
  6
CENTER
 62
2
 10
4.29462955E+01
 20
3.04017977E+01
 11
4.29462955E+01
 21
2.61389387E+01
  0
LINE
  8
0
 62
7
 10
3.69462955E+01
 20
2.83189387E+01
 11
3.69462955E+01
 21
1.43189387E+01
  0
LINE
  8
0
 62
7
 10
3.69462955E+01
 20
1.43189387E+01
 11
6.49462955E+01
 21
1.43189387E+01
  0
LINE
  8
0
  6
CENTER
 62
2
 10
4.69462955E+01
 20
3.04017977E+01
 11
4.69462955E+01
 21
2.61389387E+01
  0
LINE
  8
0
 62
7
 10
6.49462955E+01
 20
2.83189387E+01
 11
6.49462955E+01
 21
1.43189387E+01
  0
LINE
  8
0
 62
7
 10
3.69462955E+01
 20
2.83189387E+01
 11
6.49462955E+01
 21
2.83189387E+01
  0
LINE
  8
0
 62
7
 10
-5.50437045E+01
 20
1.43189387E+01
 11
-5.50437045E+01
 21
2.83189387E+01
  0
LINE
  8
0
 62
7
 10
-3.70437045E+01
 20
1.43189387E+01
 11
-3.70437045E+01
 21
2.83189387E+01
  0
LINE
  8
0
 62
7
 10
3.86753478E+01
 20
1.64989387E+01
 11
6.32172432E+01
 21
1.64989387E+01
  0
LINE
  8
0
 62
7
 10
3.86762955E+01
 20
2.61389387E+01
 11
6.32162955E+01
 21
2.61389387E+01
  0
LINE
  8
0
 62
7
 10
6.32162955E+01
 20
2.61389387E+01
 11
6.32162955E+01
 21
2.83189387E+01
  0
LINE
  8
0
 62
7
 10
-5.33137045E+01
 20
2.61389387E+01
 11
-5.33137045E+01
 21
2.83189387E+01
  0
LINE
  8
0
 62
7
 10
6.32162955E+01
 20
1.64989387E+01
 11
6.32162955E+01
 21
1.43189387E+01
  0
LINE
  8
0
 62
7
 10
-5.33137045E+01
 20
1.64989387E+01
 11
-5.33137045E+01
 21
1.43189387E+01
  0
LINE
  8
0
 62
7
 10
-5.50437045E+01
 20
1.43189387E+01
 11
-3.70437045E+01
 21
1.43189387E+01
  0
LINE
  8
0
 62
7
 10
-5.50437045E+01
 20
2.83189387E+01
 11
-3.70437045E+01
 21
2.83189387E+01
  0
ARC
  8
0
 62
7
 10
-4.74624380E+01
 20
2.13189387E+01
 40
7.58087858E+00
 50
1.40519898E+02
 51
2.19480102E+02
  0
ARC
  8
0
 62
7
 10
5.73585300E+01
 20
2.13183628E+01
 40
7.58626181E+00
 50
3.20559014E+02
 51
3.94522515E+01
  0
LINE
  8
0
 62
2
 10
-6.29234876E+01
 20
2.46424387E+01
 11
-5.65469876E+01
 21
2.46424387E+01
  0
LINE
  8
0
 62
2
 10
-6.29234876E+01
 20
1.79954387E+01
 11
-5.65469876E+01
 21
1.79954387E+01
  0
LINE
  8
0
 62
2
 10
-7.52669876E+01
 20
1.96979387E+01
 11
-6.80469876E+01
 21
1.96979387E+01
  0
LINE
  8
0
 62
2
 10
-7.52669876E+01
 20
2.29399387E+01
 11
-6.80469876E+01
 21
2.29399387E+01
  0
LINE
  8
0
 62
2
 10
-8.27259876E+01
 20
1.96979387E+01
 11
-7.84669876E+01
 21
1.96979387E+01
  0
LINE
  8
0
 62
2
 10
-8.27259876E+01
 20
2.29399387E+01
 11
-7.84669876E+01
 21
2.29399387E+01
  0
LINE
  8
0
 62
7
 10
-6.30469876E+01
 20
2.45189387E+01
 11
-6.30469876E+01
 21
1.81189387E+01
  0
LINE
  8
0
 62
7
 10
-6.22469876E+01
 20
2.53189387E+01
 11
-5.50469876E+01
 21
2.53189387E+01
  0
LINE
  8
0
 62
7
 10
-6.22469876E+01
 20
1.73189387E+01
 11
-5.50469876E+01
 21
1.73189387E+01
  0
LINE
  8
0
 62
7
 10
-6.22469876E+01
 20
2.53189387E+01
 11
-6.30469876E+01
 21
2.45189387E+01
  0
LINE
  8
0
 62
7
 10
-6.30469876E+01
 20
1.81189387E+01
 11
-6.22469876E+01
 21
1.73189387E+01
  0
LINE
  8
0
 62
7
 10
-6.22469876E+01
 20
2.53189387E+01
 11
-6.22469876E+01
 21
1.73189387E+01
  0
LINE
  8
0
 62
7
 10
-5.65469876E+01
 20
2.53189387E+01
 11
-5.65469876E+01
 21
1.73189387E+01
  0
LINE
  8
0
 62
7
 10
-8.30469876E+01
 20
2.26189387E+01
 11
-8.30469876E+01
 21
2.00189387E+01
  0
LINE
  8
0
 62
7
 10
-6.80469876E+01
 20
2.33189387E+01
 11
-6.80469876E+01
 21
1.93189387E+01
  0
LINE
  8
0
 62
7
 10
-8.23469876E+01
 20
2.33189387E+01
 11
-7.84669876E+01
 21
2.33189387E+01
  0
LINE
  8
0
 62
7
 10
-8.23469876E+01
 20
1.93189387E+01
 11
-7.84669876E+01
 21
1.93189387E+01
  0
LINE
  8
0
 62
7
 10
-8.23469876E+01
 20
2.33189387E+01
 11
-8.30469876E+01
 21
2.26189387E+01
  0
LINE
  8
0
 62
7
 10
-8.30469876E+01
 20
2.00189387E+01
 11
-8.23469876E+01
 21
1.93189387E+01
  0
LINE
  8
0
 62
7
 10
-8.23469876E+01
 20
2.33189387E+01
 11
-8.23469876E+01
 21
1.93189387E+01
  0
LINE
  8
0
 62
4
 10
-7.84669876E+01
 20
2.47189387E+01
 11
-7.84669876E+01
 21
1.79189387E+01
  0
LINE
  8
0
 62
4
 10
-7.52669876E+01
 20
2.47189387E+01
 11
-7.52669876E+01
 21
1.79189387E+01
  0
LINE
  8
0
 62
4
 10
-7.80969876E+01
 20
2.53589387E+01
 11
-7.56369876E+01
 21
2.53589387E+01
  0
LINE
  8
0
 62
4
 10
-7.80969876E+01
 20
1.72789387E+01
 11
-7.56369876E+01
 21
1.72789387E+01
  0
LINE
  8
0
 62
4
 10
-7.80969876E+01
 20
2.33389387E+01
 11
-7.56369876E+01
 21
2.33389387E+01
  0
LINE
  8
0
 62
4
 10
-7.80969876E+01
 20
1.92989387E+01
 11
-7.56369876E+01
 21
1.92989387E+01
  0
LINE
  8
0
 62
7
 10
-7.52669876E+01
 20
2.33189387E+01
 11
-6.30469876E+01
 21
2.33189387E+01
  0
LINE
  8
0
 62
7
 10
-7.52669876E+01
 20
1.93189387E+01
 11
-6.30469876E+01
 21
1.93189387E+01
  0
LINE
  8
0
 62
4
 10
-7.84669876E+01
 20
2.47189387E+01
 11
-7.80969876E+01
 21
2.53589387E+01
  0
LINE
  8
0
 62
4
 10
-7.56369876E+01
 20
2.53589387E+01
 11
-7.52669876E+01
 21
2.47189387E+01
  0
LINE
  8
0
 62
4
 10
-7.84669876E+01
 20
1.79189387E+01
 11
-7.80969876E+01
 21
1.72789387E+01
  0
LINE
  8
0
 62
4
 10
-7.56369876E+01
 20
1.72789387E+01
 11
-7.52669876E+01
 21
1.79189387E+01
  0
LINE
  8
0
  6
CENTER
 62
2
 10
5.99462955E+01
 20
2.49289387E+01
 11
5.99462955E+01
 21
1.77089387E+01
  0
ARC
  8
0
 62
4
 10
-7.69103086E+01
 20
2.43489387E+01
 40
1.55830260E+00
 50
1.39598403E+02
 51
2.20401597E+02
  0
ARC
  8
0
 62
4
 10
-7.27756263E+01
 20
2.13189387E+01
 40
5.69186140E+00
 50
1.59213132E+02
 51
2.00786868E+02
  0
ARC
  8
0
 62
4
 10
-8.09718126E+01
 20
2.13189387E+01
 40
5.70445074E+00
 50
3.39261125E+02
 51
2.07388754E+01
  0
ARC
  8
0
 62
4
 10
-7.68371303E+01
 20
2.43489387E+01
 40
1.56857978E+00
 50
3.19917156E+02
 51
4.00828446E+01
  0
ARC
  8
0
 62
4
 10
-7.69103139E+01
 20
1.82889387E+01
 40
1.55829855E+00
 50
1.39598276E+02
 51
2.20401723E+02
  0
ARC
  8
0
 62
4
 10
-7.68371250E+01
 20
1.82889387E+01
 40
1.56857572E+00
 50
3.19917031E+02
 51
4.00829695E+01
  0
CIRCLE
  8
0
 62
7
 10
5.99528745E+01
 20
2.13239389E+01
 40
1.59999943E+00
  0
LINE
  8
0
 62
6
 10
-9.90703605E-01
 20
3.09189387E+01
 11
1.60929639E+00
 21
2.83189387E+01
  0
LINE
  8
0
 62
4
 10
3.94629547E+00
 20
3.09189387E+01
 11
3.94629547E+00
 21
2.83189387E+01
  0
LINE
  8
0
 62
4
 10
6.94629547E+00
 20
3.16189387E+01
 11
6.94629547E+00
 21
2.76189387E+01
  0
LINE
  8
0
 62
4
 10
6.94629547E+00
 20
3.16189387E+01
 11
3.94629547E+00
 21
3.09189387E+01
  0
LINE
  8
0
 62
4
 10
6.94629547E+00
 20
2.76189387E+01
 11
3.94629548E+00
 21
2.83189387E+01
  0
LINE
  8
0
 62
4
 10
3.94629548E+00
 20
2.83189387E+01
 11
1.60929639E+00
 21
2.83189387E+01
  0
LINE
  8
0
 62
4
 10
3.94629548E+00
 20
3.09189387E+01
 11
-9.90703605E-01
 21
3.09189387E+01
  0
ARC
  8
0
 62
4
 10
1.79479611E+01
 20
3.78172730E+01
 40
1.00166704E+00
 50
9.00952762E+01
 51
1.79904724E+02
  0
ARC
  8
0
 62
4
 10
2.09455040E+01
 20
3.78181472E+01
 40
1.00079180E+00
 50
4.53129782E-02
 51
9.00000002E+01
  0
LINE
  8
0
 62
4
 10
1.49462955E+01
 20
2.63189387E+01
 11
1.24462955E+01
 21
2.63189387E+01
  0
LINE
  8
0
 62
4
 10
2.64462955E+01
 20
2.63189387E+01
 11
2.39462955E+01
 21
2.63189387E+01
  0
LINE
  8
0
 62
4
 10
2.64462955E+01
 20
3.26189387E+01
 11
2.64462955E+01
 21
2.98189387E+01
  0
LINE
  8
0
 62
4
 10
1.24462955E+01
 20
3.26189387E+01
 11
1.24462955E+01
 21
2.98189387E+01
  0
LINE
  8
0
 62
4
 10
3.19462955E+01
 20
2.86189387E+01
 11
3.09462955E+01
 21
2.76189387E+01
  0
LINE
  8
0
 62
4
 10
3.19462955E+01
 20
3.06189387E+01
 11
3.09462955E+01
 21
3.16189387E+01
  0
LINE
  8
0
 62
4
 10
3.09462955E+01
 20
3.16189387E+01
 11
3.09462955E+01
 21
2.76189387E+01
  0
LINE
  8
0
 62
4
 10
2.19462955E+01
 20
3.78189387E+01
 11
2.19462955E+01
 21
3.73189387E+01
  0
LINE
  8
0
 62
4
 10
1.69462955E+01
 20
3.78189387E+01
 11
1.69462955E+01
 21
3.73189387E+01
  0
LINE
  8
0
 62
4
 10
2.09462955E+01
 20
3.88189387E+01
 11
1.79462955E+01
 21
3.88189387E+01
  0
LINE
  8
0
 62
4
 10
2.19462955E+01
 20
3.73189387E+01
 11
1.69462955E+01
 21
3.73189387E+01
  0
LINE
  8
0
  6
CENTER
 62
6
 10
1.94462955E+01
 20
4.13289387E+01
 11
1.94462955E+01
 21
1.38989387E+01
  0
LINE
  8
0
 62
4
 10
3.09462955E+01
 20
2.76189387E+01
 11
2.64462955E+01
 21
2.76189387E+01
  0
LINE
  8
0
 62
4
 10
3.19462955E+01
 20
3.06189387E+01
 11
3.19462955E+01
 21
2.86189387E+01
  0
LINE
  8
0
 62
4
 10
2.39462955E+01
 20
1.56689387E+01
 11
1.49462955E+01
 21
1.56689387E+01
  0
LINE
  8
0
 62
4
 10
1.49462955E+01
 20
2.98189387E+01
 11
1.24462955E+01
 21
2.98189387E+01
  0
LINE
  8
0
 62
4
 10
2.39462955E+01
 20
3.63189387E+01
 11
1.49462955E+01
 21
3.63189387E+01
  0
LINE
  8
0
 62
4
 10
2.39462955E+01
 20
2.98189387E+01
 11
2.39462955E+01
 21
1.56689387E+01
  0
LINE
  8
0
 62
4
 10
1.49462955E+01
 20
2.98189387E+01
 11
1.49462955E+01
 21
1.56689387E+01
  0
LINE
  8
0
 62
4
 10
2.64462955E+01
 20
3.16189387E+01
 11
3.09462955E+01
 21
3.16189387E+01
  0
LINE
  8
0
 62
4
 10
1.79462955E+01
 20
3.73189387E+01
 11
1.79462955E+01
 21
3.63189387E+01
  0
LINE
  8
0
 62
4
 10
2.09462955E+01
 20
3.73189387E+01
 11
2.09462955E+01
 21
3.63189387E+01
  0
LINE
  8
0
 62
6
 10
1.82162955E+01
 20
3.73189387E+01
 11
1.82162955E+01
 21
3.63189387E+01
  0
LINE
  8
0
 62
6
 10
2.06762955E+01
 20
3.73189387E+01
 11
2.06762955E+01
 21
3.63189387E+01
  0
LINE
  8
0
 62
4
 10
2.39462955E+01
 20
1.56728860E+01
 11
1.49462955E+01
 21
1.56728860E+01
  0
LINE
  8
0
 62
4
 10
2.64462955E+01
 20
2.94189387E+01
 11
2.39462955E+01
 21
2.94189387E+01
  0
LINE
  8
0
 62
4
 10
2.64462955E+01
 20
2.98189387E+01
 11
2.39462955E+01
 21
2.98189387E+01
  0
LINE
  8
0
 62
4
 10
2.64462955E+01
 20
3.26189387E+01
 11
2.39462955E+01
 21
3.26189387E+01
  0
LINE
  8
0
 62
4
 10
1.49462955E+01
 20
3.26189387E+01
 11
1.24462955E+01
 21
3.26189387E+01
  0
LINE
  8
0
 62
4
 10
1.49462955E+01
 20
2.94189387E+01
 11
1.24462955E+01
 21
2.94189387E+01
  0
LINE
  8
0
 62
4
 10
1.49462955E+01
 20
2.98189387E+01
 11
1.49462955E+01
 21
3.63189387E+01
  0
LINE
  8
0
 62
4
 10
2.39462955E+01
 20
2.98189387E+01
 11
2.39462955E+01
 21
3.63189387E+01
  0
LINE
  8
0
 62
4
 10
2.39462955E+01
 20
2.98189387E+01
 11
1.49462955E+01
 21
2.98189387E+01
  0
LINE
  8
0
 62
4
 10
1.24462955E+01
 20
2.94189387E+01
 11
1.24462955E+01
 21
2.63189387E+01
  0
LINE
  8
0
 62
4
 10
2.64462955E+01
 20
2.94189387E+01
 11
2.64462955E+01
 21
2.63189387E+01
  0
LINE
  8
0
 62
4
 10
1.24462955E+01
 20
2.76189387E+01
 11
6.94629547E+00
 21
2.76189387E+01
  0
LINE
  8
0
 62
4
 10
1.24462955E+01
 20
3.16189387E+01
 11
6.94629547E+00
 21
3.16189387E+01
  0
LINE
  8
0
  6
PHANTOM
 10
-1.44870452E+00
 20
6.30374454E+00
 11
-1.44870452E+00
 21
3.93674591E+01
  0
LINE
  8
0
  6
CENTER
 62
2
 10
-1.08956988E+02
 20
4.04162945E+01
 11
-1.08956988E+02
 21
1.22928737E+01
  0
ARC
  8
0
 62
4
 10
-1.10464614E+02
 20
3.78265654E+01
 40
9.92402587E-01
 50
8.95596718E+01
 51
1.80440329E+02
  0
ARC
  8
0
 62
4
 10
-1.07457117E+02
 20
3.78188091E+01
 40
1.00012957E+00
 50
7.42247612E-03
 51
9.00000002E+01
  0
LINE
  8
0
 62
4
 10
-1.07706988E+02
 20
2.83189387E+01
 11
-1.07906988E+02
 21
2.85189387E+01
  0
LINE
  8
0
 62
4
 10
-1.10206988E+02
 20
2.83189387E+01
 11
-1.10006988E+02
 21
2.85189387E+01
  0
LINE
  8
0
 62
4
 10
-1.06906988E+02
 20
3.16189387E+01
 11
-1.07906988E+02
 21
3.06189387E+01
  0
LINE
  8
0
 62
4
 10
-1.11006988E+02
 20
3.16189387E+01
 11
-1.10006988E+02
 21
3.06189387E+01
  0
LINE
  8
0
 62
4
 10
-1.07906988E+02
 20
2.85189387E+01
 11
-1.10006988E+02
 21
2.85189387E+01
  0
LINE
  8
0
 62
4
 10
-1.10006988E+02
 20
3.06189387E+01
 11
-1.10006988E+02
 21
2.85189387E+01
  0
LINE
  8
0
 62
4
 10
-1.07906988E+02
 20
3.06189387E+01
 11
-1.07906988E+02
 21
2.85189387E+01
  0
LINE
  8
0
 62
4
 10
-1.07906988E+02
 20
3.06189387E+01
 11
-1.10006988E+02
 21
3.06189387E+01
  0
LINE
  8
0
 62
4
 10
-1.07456988E+02
 20
3.36189387E+01
 11
-1.07756988E+02
 21
3.33189387E+01
  0
LINE
  8
0
 62
4
 10
-1.10456988E+02
 20
3.36189387E+01
 11
-1.10156988E+02
 21
3.33189387E+01
  0
LINE
  8
0
 62
4
 10
-1.13306535E+02
 20
3.49528931E+01
 11
-1.13804183E+02
 21
3.50013352E+01
  0
LINE
  8
0
 62
4
 10
-1.13804183E+02
 20
3.50013352E+01
 11
-1.14509717E+02
 21
2.77533468E+01
  0
LINE
  8
0
 62
4
 10
-1.13786988E+02
 20
2.84689387E+01
 11
-1.13936282E+02
 21
2.84834713E+01
  0
LINE
  8
0
 62
4
 10
-1.13306535E+02
 20
3.49528931E+01
 11
-1.13965285E+02
 21
2.81855260E+01
  0
LINE
  8
0
 62
4
 10
-1.13786988E+02
 20
2.84689387E+01
 11
-1.13803363E+02
 21
2.83007107E+01
  0
LINE
  8
0
 62
4
 10
-1.05456988E+02
 20
2.98189387E+01
 11
-1.05039716E+02
 21
2.83189387E+01
  0
LINE
  8
0
 62
4
 10
-1.05606988E+02
 20
2.98189387E+01
 11
-1.05190932E+02
 21
2.83189387E+01
  0
LINE
  8
0
 62
4
 10
-1.12206988E+02
 20
3.33189387E+01
 11
-1.12206988E+02
 21
2.83189387E+01
  0
LINE
  8
0
 62
4
 10
-1.05706988E+02
 20
3.33189387E+01
 11
-1.05706988E+02
 21
2.98189387E+01
  0
LINE
  8
0
 62
4
 10
-1.05706988E+02
 20
3.33189387E+01
 11
-1.12206988E+02
 21
3.33189387E+01
  0
LINE
  8
0
 62
4
 10
-1.11006988E+02
 20
3.16189387E+01
 11
-1.11006988E+02
 21
2.83189387E+01
  0
LINE
  8
0
 62
4
 10
-1.06906988E+02
 20
3.16189387E+01
 11
-1.11006988E+02
 21
3.16189387E+01
  0
LINE
  8
0
 62
4
 10
-1.07956988E+02
 20
3.19189387E+01
 11
-1.07956988E+02
 21
3.16189387E+01
  0
LINE
  8
0
 62
4
 10
-1.09956988E+02
 20
3.19189387E+01
 11
-1.09956988E+02
 21
3.16189387E+01
  0
LINE
  8
0
 62
4
 10
-1.07956988E+02
 20
3.19189387E+01
 11
-1.09956988E+02
 21
3.19189387E+01
  0
LINE
  8
0
 62
4
 10
-1.05706988E+02
 20
3.26189387E+01
 11
-1.12206988E+02
 21
3.26189387E+01
  0
LINE
  8
0
 62
4
 10
-1.05706988E+02
 20
2.94189387E+01
 11
-1.06906988E+02
 21
2.94189387E+01
  0
LINE
  8
0
 62
4
 10
-1.05706988E+02
 20
2.98189387E+01
 11
-1.06906988E+02
 21
2.98189387E+01
  0
LINE
  8
0
 62
4
 10
-1.05706988E+02
 20
2.94189387E+01
 11
-1.05706988E+02
 21
2.83189387E+01
  0
LINE
  8
0
 62
4
 10
-1.06906988E+02
 20
3.16189387E+01
 11
-1.06906988E+02
 21
2.83189387E+01
  0
LINE
  8
0
 62
4
 10
-1.12456988E+02
 20
3.50189387E+01
 11
-1.12456988E+02
 21
2.91189387E+01
  0
LINE
  8
0
 62
4
 10
-1.05456988E+02
 20
3.50189387E+01
 11
-1.05456988E+02
 21
2.98189387E+01
  0
LINE
  8
0
 62
4
 10
-1.06456988E+02
 20
3.73189387E+01
 11
-1.11456988E+02
 21
3.73189387E+01
  0
LINE
  8
0
 62
4
 10
-1.05456988E+02
 20
3.63189387E+01
 11
-1.12456988E+02
 21
3.63189387E+01
  0
LINE
  8
0
 62
4
 10
-1.06956988E+02
 20
3.48189387E+01
 11
-1.10956988E+02
 21
3.48189387E+01
  0
LINE
  8
0
 62
4
 10
-1.05956988E+02
 20
3.55189387E+01
 11
-1.11956988E+02
 21
3.55189387E+01
  0
LINE
  8
0
 62
4
 10
-1.13256988E+02
 20
3.55189387E+01
 11
-1.13256988E+02
 21
2.91189387E+01
  0
LINE
  8
0
 62
4
 10
-1.04656988E+02
 20
3.55189387E+01
 11
-1.04656988E+02
 21
2.98189387E+01
  0
LINE
  8
0
 62
4
 10
-1.11016988E+02
 20
3.55189387E+01
 11
-1.10956988E+02
 21
3.48189387E+01
  0
LINE
  8
0
 62
4
 10
-1.06896988E+02
 20
3.55189387E+01
 11
-1.06956988E+02
 21
3.48189387E+01
  0
LINE
  8
0
 62
4
 10
-1.04656988E+02
 20
2.98189387E+01
 11
-1.05456988E+02
 21
2.98189387E+01
  0
LINE
  8
0
 62
4
 10
-1.12456988E+02
 20
2.91189387E+01
 11
-1.13256988E+02
 21
2.91189387E+01
  0
LINE
  8
0
 62
4
 10
-1.13256988E+02
 20
3.13189387E+01
 11
-1.13638602E+02
 21
3.15415473E+01
  0
LINE
  8
0
 62
4
 10
-1.14856988E+02
 20
3.46189387E+01
 11
-1.14856988E+02
 21
3.22489387E+01
  0
LINE
  8
0
 62
4
 10
-1.14056988E+02
 20
3.46189387E+01
 11
-1.14856988E+02
 21
3.46189387E+01
  0
LINE
  8
0
 62
4
 10
-1.14056988E+02
 20
3.46189387E+01
 11
-1.14056988E+02
 21
3.27089387E+01
  0
LINE
  8
0
 62
4
 10
-1.13256988E+02
 20
3.22489387E+01
 11
-1.13553698E+02
 21
3.24137776E+01
  0
LINE
  8
0
 62
4
 10
-1.05606988E+02
 20
3.50189387E+01
 11
-1.05606988E+02
 21
2.98189387E+01
  0
LINE
  8
0
 62
4
 10
-1.05456988E+02
 20
3.50189387E+01
 11
-1.05606988E+02
 21
3.50189387E+01
  0
LINE
  8
0
 62
4
 10
-1.14029137E+02
 20
3.26903714E+01
 11
-1.14056988E+02
 21
3.27089387E+01
  0
LINE
  8
0
 62
4
 10
-1.14114879E+02
 20
3.18095325E+01
 11
-1.14856988E+02
 21
3.22489387E+01
  0
LINE
  8
0
 62
4
 10
-1.07456988E+02
 20
3.73189387E+01
 11
-1.07456988E+02
 21
3.63189387E+01
  0
LINE
  8
0
 62
4
 10
-1.10456988E+02
 20
3.73189387E+01
 11
-1.10456988E+02
 21
3.63189387E+01
  0
LINE
  8
0
 62
6
 10
-1.10186988E+02
 20
3.73189387E+01
 11
-1.10186988E+02
 21
3.63189387E+01
  0
LINE
  8
0
 62
6
 10
-1.07726988E+02
 20
3.73189387E+01
 11
-1.07726988E+02
 21
3.63189387E+01
  0
LINE
  8
0
 62
4
 10
-1.11456988E+02
 20
3.78189387E+01
 11
-1.11456988E+02
 21
3.73189387E+01
  0
LINE
  8
0
 62
4
 10
-1.06456988E+02
 20
3.78189387E+01
 11
-1.06456988E+02
 21
3.73189387E+01
  0
LINE
  8
0
 62
4
 10
-1.07456988E+02
 20
3.48189387E+01
 11
-1.07456988E+02
 21
3.36189387E+01
  0
LINE
  8
0
 62
6
 10
-1.07726988E+02
 20
3.48189387E+01
 11
-1.07726988E+02
 21
3.33489387E+01
  0
LINE
  8
0
 62
6
 10
-1.10186988E+02
 20
3.48189387E+01
 11
-1.10186988E+02
 21
3.33489387E+01
  0
LINE
  8
0
 62
4
 10
-1.10456988E+02
 20
3.48189387E+01
 11
-1.10456988E+02
 21
3.36189387E+01
  0
ARC
  8
0
 62
4
 10
-1.05957148E+02
 20
3.50187785E+01
 40
5.00160181E-01
 50
1.83465799E-02
 51
9.00000002E+01
  0
ARC
  8
0
 62
4
 10
-1.11964613E+02
 20
3.50265639E+01
 40
4.92433852E-01
 50
8.91127567E+01
 51
1.80887243E+02
  0
ARC
  8
0
 62
4
 10
-1.05457126E+02
 20
3.55188003E+01
 40
8.00138358E-01
 50
9.90662024E-03
 51
9.00000002E+01
  0
ARC
  8
0
 62
4
 10
-1.12464613E+02
 20
3.55265639E+01
 40
7.92411497E-01
 50
8.94486475E+01
 51
1.80551352E+02
  0
LINE
  8
0
  6
CENTER
 62
2
 10
-1.18017425E+02
 20
2.13189387E+01
 11
-9.96124952E+01
 21
2.13189387E+01
  0
CIRCLE
  8
0
 62
7
 10
-1.08964029E+02
 20
2.13239389E+01
 40
7.00000000E+00
  0
ARC
  8
0
 62
7
 10
-1.08963008E+02
 20
2.13249594E+01
 40
8.50733810E+00
 50
3.04560588E+02
 51
3.25439412E+02
  0
ARC
  8
0
 62
7
 10
-1.08958005E+02
 20
2.13179212E+01
 40
8.49754963E+00
 50
2.14548428E+02
 51
2.35451572E+02
  0
ARC
  8
0
 62
7
 10
-1.08963008E+02
 20
2.13249592E+01
 40
8.49059170E+00
 50
1.24539767E+02
 51
1.45460233E+02
  0
ARC
  8
0
 62
7
 10
-1.08958011E+02
 20
2.13179153E+01
 40
8.50038792E+00
 50
3.45519569E+01
 51
5.54480430E+01
  0
CIRCLE
  8
0
 62
4
 10
-1.08964029E+02
 20
2.13239389E+01
 40
3.50000000E+00
  0
CIRCLE
  8
0
 62
2
 10
-1.08964029E+02
 20
2.13239389E+01
 40
2.00000000E+00
  0
LINE
  8
0
 62
7
 10
-1.13776988E+02
 20
2.83189387E+01
 11
-1.04136988E+02
 21
2.83189387E+01
  0
LINE
  8
0
 62
7
 10
-1.13776988E+02
 20
1.43189387E+01
 11
-1.04136988E+02
 21
1.43189387E+01
  0
LINE
  8
0
 62
7
 10
-1.15956988E+02
 20
2.61389387E+01
 11
-1.15956988E+02
 21
1.64989387E+01
  0
LINE
  8
0
 62
7
 10
-1.01956988E+02
 20
2.61389387E+01
 11
-1.01956988E+02
 21
1.64989387E+01
  0
LINE
  8
0
 62
4
 10
-1.05456988E+02
 20
2.33389387E+01
 11
-1.08956988E+02
 21
2.53589387E+01
  0
LINE
  8
0
 62
4
 10
-1.05456988E+02
 20
1.92989387E+01
 11
-1.05456988E+02
 21
2.33389387E+01
  0
LINE
  8
0
 62
4
 10
-1.08956988E+02
 20
1.72789387E+01
 11
-1.05456988E+02
 21
1.92989387E+01
  0
LINE
  8
0
 62
4
 10
-1.12456988E+02
 20
1.92989387E+01
 11
-1.08956988E+02
 21
1.72789387E+01
  0
LINE
  8
0
 62
4
 10
-1.12456988E+02
 20
2.33389387E+01
 11
-1.12456988E+02
 21
1.92989387E+01
  0
LINE
  8
0
 62
4
 10
-1.08956988E+02
 20
2.53589387E+01
 11
-1.12456988E+02
 21
2.33389387E+01
  0
CIRCLE
  8
0
 62
7
 10
-1.08956988E+02
 20
2.13189387E+01
 40
1.62100000E+00
  0
ARC
  8
0
 62
7
 10
-1.08956988E+02
 20
2.13189387E+01
 40
4.00000000E+00
 50
3.10259961E+01
 51
8.89918311E+01
  0
ARC
  8
0
 62
7
 10
-1.08956988E+02
 20
2.13189387E+01
 40
4.00000000E+00
 50
9.10259963E+01
 51
1.48991831E+02
  0
ARC
  8
0
 62
7
 10
-1.08956988E+02
 20
2.13189387E+01
 40
4.00000000E+00
 50
1.51025996E+02
 51
2.08991832E+02
  0
ARC
  8
0
 62
7
 10
-1.08956988E+02
 20
2.13189387E+01
 40
4.00000000E+00
 50
2.11025996E+02
 51
2.68991831E+02
  0
ARC
  8
0
 62
7
 10
-1.08956988E+02
 20
2.13189387E+01
 40
4.00000000E+00
 50
2.71025996E+02
 51
3.28991831E+02
  0
ARC
  8
0
 62
7
 10
-1.08956988E+02
 20
2.13189387E+01
 40
4.00000000E+00
 50
3.31025996E+02
 51
2.89918313E+01
  0
LINE
  8
0
 62
4
 10
-1.07456988E+02
 20
3.88189387E+01
 11
-1.10456988E+02
 21
3.88189387E+01
  0
LINE
  8
0
 62
4
 10
1.00233012E+02
 20
3.36189387E+01
 11
1.00533012E+02
 21
3.33189387E+01
  0
LINE
  8
0
 62
4
 10
1.03233012E+02
 20
3.36189387E+01
 11
1.02933012E+02
 21
3.33189387E+01
  0
LINE
  8
0
 62
4
 10
1.06082560E+02
 20
3.49528931E+01
 11
1.06580207E+02
 21
3.50013352E+01
  0
LINE
  8
0
 62
4
 10
1.06580207E+02
 20
3.50013352E+01
 11
1.07285761E+02
 21
2.77531470E+01
  0
LINE
  8
0
 62
4
 10
1.06563012E+02
 20
2.84689387E+01
 11
1.06712307E+02
 21
2.84834713E+01
  0
LINE
  8
0
 62
4
 10
1.06082560E+02
 20
3.49528931E+01
 11
1.06741315E+02
 21
2.81854655E+01
  0
LINE
  8
0
 62
4
 10
1.06563012E+02
 20
2.84689387E+01
 11
1.06579389E+02
 21
2.83007019E+01
  0
LINE
  8
0
 62
4
 10
9.82330124E+01
 20
2.98189387E+01
 11
9.78157409E+01
 21
2.83189387E+01
  0
LINE
  8
0
 62
4
 10
9.83830124E+01
 20
2.98189387E+01
 11
9.79669565E+01
 21
2.83189387E+01
  0
CIRCLE
  8
0
 62
4
 10
1.01733012E+02
 20
2.96189387E+01
 40
1.30000000E+00
  0
LINE
  8
0
 62
4
 10
1.04983012E+02
 20
3.33189387E+01
 11
1.04983012E+02
 21
2.83189387E+01
  0
LINE
  8
0
 62
4
 10
9.84830124E+01
 20
3.33189387E+01
 11
9.84830124E+01
 21
2.98189387E+01
  0
LINE
  8
0
 62
4
 10
9.84830124E+01
 20
3.33189387E+01
 11
1.04983012E+02
 21
3.33189387E+01
  0
LINE
  8
0
 62
4
 10
1.03783012E+02
 20
3.16189387E+01
 11
1.03783012E+02
 21
2.83189387E+01
  0
LINE
  8
0
 62
4
 10
9.96830124E+01
 20
3.16189387E+01
 11
1.03783012E+02
 21
3.16189387E+01
  0
LINE
  8
0
 62
4
 10
1.00733012E+02
 20
3.19189387E+01
 11
1.00733012E+02
 21
3.16189387E+01
  0
LINE
  8
0
 62
4
 10
1.02733012E+02
 20
3.19189387E+01
 11
1.02733012E+02
 21
3.16189387E+01
  0
LINE
  8
0
 62
4
 10
1.00733012E+02
 20
3.19189387E+01
 11
1.02733012E+02
 21
3.19189387E+01
  0
LINE
  8
0
 62
4
 10
9.84830124E+01
 20
3.26189387E+01
 11
1.04983012E+02
 21
3.26189387E+01
  0
LINE
  8
0
 62
4
 10
9.84830124E+01
 20
2.94189387E+01
 11
9.96830124E+01
 21
2.94189387E+01
  0
LINE
  8
0
 62
4
 10
9.84830124E+01
 20
2.98189387E+01
 11
9.96830124E+01
 21
2.98189387E+01
  0
LINE
  8
0
 62
4
 10
9.84830124E+01
 20
2.94189387E+01
 11
9.84830124E+01
 21
2.83189387E+01
  0
LINE
  8
0
 62
4
 10
9.96830124E+01
 20
3.16189387E+01
 11
9.96830124E+01
 21
2.83189387E+01
  0
LINE
  8
0
 62
4
 10
1.05233012E+02
 20
3.50189387E+01
 11
1.05233012E+02
 21
2.91189387E+01
  0
LINE
  8
0
 62
4
 10
9.82330124E+01
 20
3.50189387E+01
 11
9.82330124E+01
 21
2.98189387E+01
  0
LINE
  8
0
 62
4
 10
9.92330124E+01
 20
3.73189387E+01
 11
1.04233012E+02
 21
3.73189387E+01
  0
LINE
  8
0
 62
4
 10
9.82330124E+01
 20
3.63189387E+01
 11
1.05233012E+02
 21
3.63189387E+01
  0
LINE
  8
0
 62
4
 10
9.97330124E+01
 20
3.48189387E+01
 11
1.03733012E+02
 21
3.48189387E+01
  0
LINE
  8
0
 62
4
 10
9.87330124E+01
 20
3.55189387E+01
 11
1.04733012E+02
 21
3.55189387E+01
  0
LINE
  8
0
 62
4
 10
1.06033012E+02
 20
3.55189387E+01
 11
1.06033012E+02
 21
2.91189387E+01
  0
LINE
  8
0
 62
4
 10
9.74330124E+01
 20
3.55189387E+01
 11
9.74330124E+01
 21
2.98189387E+01
  0
LINE
  8
0
 62
4
 10
1.03793012E+02
 20
3.55189387E+01
 11
1.03733012E+02
 21
3.48189387E+01
  0
LINE
  8
0
 62
4
 10
9.96730124E+01
 20
3.55189387E+01
 11
9.97330124E+01
 21
3.48189387E+01
  0
LINE
  8
0
 62
4
 10
9.74330124E+01
 20
2.98189387E+01
 11
9.82330124E+01
 21
2.98189387E+01
  0
LINE
  8
0
 62
4
 10
1.05233012E+02
 20
2.91189387E+01
 11
1.06033012E+02
 21
2.91189387E+01
  0
LINE
  8
0
 62
4
 10
1.06033012E+02
 20
3.13189387E+01
 11
1.06414627E+02
 21
3.15415473E+01
  0
LINE
  8
0
 62
4
 10
1.07633012E+02
 20
3.46189387E+01
 11
1.07633012E+02
 21
3.22489387E+01
  0
LINE
  8
0
 62
4
 10
1.06833012E+02
 20
3.46189387E+01
 11
1.07633012E+02
 21
3.46189387E+01
  0
LINE
  8
0
 62
4
 10
1.06833012E+02
 20
3.46189387E+01
 11
1.06833012E+02
 21
3.27089387E+01
  0
LINE
  8
0
 62
4
 10
1.06033012E+02
 20
3.22489387E+01
 11
1.06329722E+02
 21
3.24137776E+01
  0
LINE
  8
0
 62
4
 10
9.83830124E+01
 20
3.50189387E+01
 11
9.83830124E+01
 21
2.98189387E+01
  0
LINE
  8
0
 62
4
 10
9.82330124E+01
 20
3.50189387E+01
 11
9.83830124E+01
 21
3.50189387E+01
  0
LINE
  8
0
 62
4
 10
1.06805161E+02
 20
3.26903714E+01
 11
1.06833012E+02
 21
3.27089387E+01
  0
LINE
  8
0
 62
4
 10
1.06890904E+02
 20
3.18095325E+01
 11
1.07633012E+02
 21
3.22489387E+01
  0
LINE
  8
0
 62
4
 10
1.00233012E+02
 20
3.73189387E+01
 11
1.00233012E+02
 21
3.63189387E+01
  0
LINE
  8
0
 62
4
 10
1.03233012E+02
 20
3.73189387E+01
 11
1.03233012E+02
 21
3.63189387E+01
  0
LINE
  8
0
 62
6
 10
1.02963012E+02
 20
3.73189387E+01
 11
1.02963012E+02
 21
3.63189387E+01
  0
LINE
  8
0
 62
6
 10
1.00503012E+02
 20
3.73189387E+01
 11
1.00503012E+02
 21
3.63189387E+01
  0
LINE
  8
0
 62
4
 10
1.04233012E+02
 20
3.78189387E+01
 11
1.04233012E+02
 21
3.73189387E+01
  0
LINE
  8
0
 62
4
 10
9.92330124E+01
 20
3.78189387E+01
 11
9.92330124E+01
 21
3.73189387E+01
  0
LINE
  8
0
 62
4
 10
1.00233012E+02
 20
3.88189387E+01
 11
1.03233012E+02
 21
3.88189387E+01
  0
LINE
  8
0
 62
4
 10
1.00233012E+02
 20
3.48189387E+01
 11
1.00233012E+02
 21
3.36189387E+01
  0
LINE
  8
0
 62
6
 10
1.00503012E+02
 20
3.48189387E+01
 11
1.00503012E+02
 21
3.33489387E+01
  0
LINE
  8
0
 62
6
 10
1.02963012E+02
 20
3.48189387E+01
 11
1.02963012E+02
 21
3.33489387E+01
  0
LINE
  8
0
 62
4
 10
1.03233012E+02
 20
3.48189387E+01
 11
1.03233012E+02
 21
3.36189387E+01
  0
LINE
  8
0
 62
4
 10
1.00433012E+02
 20
3.09189387E+01
 11
1.03033012E+02
 21
3.09189387E+01
  0
LINE
  8
0
 62
4
 10
1.03033012E+02
 20
3.09189387E+01
 11
1.03033012E+02
 21
2.83189387E+01
  0
LINE
  8
0
 62
4
 10
1.00433012E+02
 20
3.09189387E+01
 11
1.00433012E+02
 21
2.83189387E+01
  0
LINE
  8
0
 62
4
 10
9.96830124E+01
 20
3.16189387E+01
 11
1.00433012E+02
 21
3.09189387E+01
  0
LINE
  8
0
 62
4
 10
1.03033012E+02
 20
3.09189387E+01
 11
1.03783012E+02
 21
3.16189387E+01
  0
ARC
  8
0
 62
4
 10
9.87331726E+01
 20
3.50187785E+01
 40
5.00160181E-01
 50
9.00000002E+01
 51
1.79981654E+02
  0
ARC
  8
0
 62
4
 10
1.04740638E+02
 20
3.50265639E+01
 40
4.92433852E-01
 50
3.59112757E+02
 51
9.08872431E+01
  0
ARC
  8
0
 62
4
 10
9.82331507E+01
 20
3.55188003E+01
 40
8.00138358E-01
 50
9.00000002E+01
 51
1.79990093E+02
  0
ARC
  8
0
 62
4
 10
1.05240638E+02
 20
3.55265639E+01
 40
7.92411497E-01
 50
3.59448647E+02
 51
9.05513523E+01
  0
ARC
  8
0
 62
4
 10
1.00233142E+02
 20
3.78188091E+01
 40
1.00012957E+00
 50
9.00000002E+01
 51
1.79992578E+02
  0
ARC
  8
0
 62
4
 10
1.03240639E+02
 20
3.78265654E+01
 40
9.92402587E-01
 50
3.59559672E+02
 51
9.04403286E+01
  0
ARC
  8
0
 62
7
 10
1.01725971E+02
 20
2.13239389E+01
 40
7.00000000E+00
 50
1.03153789E+02
 51
2.56846211E+02
  0
LINE
  8
0
  6
CENTER
 62
2
 10
9.28857721E+01
 20
2.13189387E+01
 11
1.10617734E+02
 21
2.13189387E+01
  0
LINE
  8
0
  6
CENTER
 62
2
 10
1.01733012E+02
 20
4.00594493E+01
 11
1.01733012E+02
 21
1.23050737E+01
  0
LINE
  8
0
 62
7
 10
1.03333012E+02
 20
2.83189387E+01
 11
1.03333012E+02
 21
1.43189387E+01
  0
LINE
  8
0
 62
7
 10
1.00133012E+02
 20
2.83189387E+01
 11
1.00133012E+02
 21
1.43189387E+01
  0
ARC
  8
0
 62
7
 10
1.01725971E+02
 20
2.13239389E+01
 40
7.00000000E+00
 50
2.83272186E+02
 51
7.67278139E+01
  0
LINE
  8
0
 62
7
 10
9.69130124E+01
 20
2.83189387E+01
 11
1.06553012E+02
 21
2.83189387E+01
  0
LINE
  8
0
 62
7
 10
9.47330124E+01
 20
2.61389387E+01
 11
9.47330124E+01
 21
1.64989387E+01
  0
ARC
  8
0
 62
7
 10
1.01726992E+02
 20
2.13249592E+01
 40
8.49059170E+00
 50
1.24539767E+02
 51
1.45460233E+02
  0
LINE
  8
0
 62
7
 10
1.08733012E+02
 20
2.61389387E+01
 11
1.08733012E+02
 21
1.64989387E+01
  0
ARC
  8
0
 62
7
 10
1.01731989E+02
 20
2.13179153E+01
 40
8.50038792E+00
 50
3.45519569E+01
 51
5.54480430E+01
  0
LINE
  8
0
 62
7
 10
9.69130124E+01
 20
1.43189387E+01
 11
1.06553012E+02
 21
1.43189387E+01
  0
ARC
  8
0
 62
7
 10
1.01726992E+02
 20
2.13249594E+01
 40
8.50733810E+00
 50
3.04560588E+02
 51
3.25439412E+02
  0
ARC
  8
0
 62
7
 10
1.01731995E+02
 20
2.13179212E+01
 40
8.49754963E+00
 50
2.14548428E+02
 51
2.35451572E+02
  0
TEXT
  8
0
 62
7
 10
-1.53796420E+01
 20
5.11233098E+01
 40
1.50000000E+00
  1
PBDACS10-7
 41
1.00000000E+00
  7
MONOTXT
  0
LINE
  8
0
 62
7
 10
-1.80437045E+01
 20
6.10284306E+01
 11
1.49462955E+01
 21
6.10284306E+01
  0
LINE
  8
0
 62
7
 10
-1.80437045E+01
 20
5.00284306E+01
 11
1.49462955E+01
 21
5.00284306E+01
  0
LINE
  8
0
  6
CENTER
 62
6
 10
-2.25437045E+01
 20
6.28233098E+01
 11
-2.25437045E+01
 21
4.73433098E+01
  0
LINE
  8
0
 62
4
 10
-2.05437045E+01
 20
6.13877887E+01
 11
-2.05437045E+01
 21
6.03705047E+01
  0
LINE
  8
0
 62
4
 10
-1.80437045E+01
 20
4.98733098E+01
 11
-1.80437045E+01
 21
6.13877887E+01
  0
LINE
  8
0
 62
4
 10
-2.70437045E+01
 20
4.98733098E+01
 11
-2.70437045E+01
 21
6.13877887E+01
  0
LINE
  8
0
 62
4
 10
-2.70437045E+01
 20
6.03705047E+01
 11
-1.80437045E+01
 21
6.03705047E+01
  0
LINE
  8
0
 62
6
 10
-2.10670544E+00
 20
5.68233098E+01
 11
-4.70670544E+00
 21
5.42233098E+01
  0
LINE
  8
0
 62
4
 10
-1.00437045E+01
 20
5.35233098E+01
 11
-7.04370453E+00
 21
5.42233098E+01
  0
LINE
  8
0
 62
4
 10
-7.04370452E+00
 20
5.68233098E+01
 11
-7.04370452E+00
 21
5.42233098E+01
  0
LINE
  8
0
 62
4
 10
-7.04370453E+00
 20
5.42233098E+01
 11
-4.70670544E+00
 21
5.42233098E+01
  0
LINE
  8
0
 62
4
 10
-7.04370453E+00
 20
5.68233098E+01
 11
-2.10670544E+00
 21
5.68233098E+01
  0
LINE
  8
0
 62
4
 10
-1.00437045E+01
 20
5.75233098E+01
 11
-7.04370452E+00
 21
5.68233098E+01
  0
LINE
  8
0
 62
4
 10
-2.70437045E+01
 20
5.98233465E+01
 11
-1.80437045E+01
 21
5.98233465E+01
  0
LINE
  8
0
 62
4
 10
-2.70437045E+01
 20
5.12233098E+01
 11
-1.80437045E+01
 21
5.12233098E+01
  0
LINE
  8
0
 62
4
 10
-2.95437045E+01
 20
5.22733098E+01
 11
-2.95437045E+01
 21
5.87733098E+01
  0
LINE
  8
0
 62
4
 10
-2.70437045E+01
 20
4.98733098E+01
 11
-1.80437045E+01
 21
4.98733098E+01
  0
LINE
  8
0
 62
4
 10
-2.14337045E+01
 20
5.44233098E+01
 11
-2.14837045E+01
 21
5.44633098E+01
  0
LINE
  8
0
 62
4
 10
-2.36037045E+01
 20
5.44633098E+01
 11
-2.14837045E+01
 21
5.65833098E+01
  0
LINE
  8
0
 62
4
 10
-2.15337045E+01
 20
5.45233098E+01
 11
-2.36037045E+01
 21
5.65833098E+01
  0
LINE
  8
0
 62
4
 10
-1.00437045E+01
 20
5.75233098E+01
 11
-1.00437045E+01
 21
5.35233098E+01
  0
LINE
  8
0
 62
4
 10
-3.50437045E+01
 20
5.65233098E+01
 11
-3.50437045E+01
 21
5.45233098E+01
  0
LINE
  8
0
 62
4
 10
-3.40437045E+01
 20
5.35233098E+01
 11
-2.95437045E+01
 21
5.35233098E+01
  0
LINE
  8
0
 62
4
 10
-3.40437045E+01
 20
5.75233098E+01
 11
-2.95437045E+01
 21
5.75233098E+01
  0
LINE
  8
0
 62
4
 10
-3.40437045E+01
 20
5.75233098E+01
 11
-3.40437045E+01
 21
5.35233098E+01
  0
LINE
  8
0
 62
4
 10
-3.50437045E+01
 20
5.65233098E+01
 11
-3.40437045E+01
 21
5.75233098E+01
  0
LINE
  8
0
 62
4
 10
-3.50437045E+01
 20
5.45233098E+01
 11
-3.40437045E+01
 21
5.35233098E+01
  0
LINE
  8
0
 62
4
 10
-2.95437045E+01
 20
5.22733098E+01
 11
-2.70437045E+01
 21
5.22733098E+01
  0
LINE
  8
0
 62
4
 10
-2.95437045E+01
 20
5.87733098E+01
 11
-2.70437045E+01
 21
5.87733098E+01
  0
LINE
  8
0
 62
4
 10
-1.55437045E+01
 20
5.22733098E+01
 11
-1.55437045E+01
 21
5.87733098E+01
  0
LINE
  8
0
 62
4
 10
-1.80437045E+01
 20
5.87733098E+01
 11
-1.55437045E+01
 21
5.87733098E+01
  0
LINE
  8
0
 62
4
 10
-1.80437045E+01
 20
5.22733098E+01
 11
-1.55437045E+01
 21
5.22733098E+01
  0
LINE
  8
0
 62
4
 10
-1.55437045E+01
 20
5.75233098E+01
 11
-1.00437045E+01
 21
5.75233098E+01
  0
LINE
  8
0
 62
4
 10
-1.55437045E+01
 20
5.35233098E+01
 11
-1.00437045E+01
 21
5.35233098E+01
  0
CIRCLE
  8
0
 62
4
 10
-2.25445798E+01
 20
5.55208513E+01
 40
2.50000000E+00
  0
LINE
  8
0
 62
4
 10
-2.45437045E+01
 20
6.06233098E+01
 11
-2.05437045E+01
 21
6.06233098E+01
  0
LINE
  8
0
 62
4
 10
-2.70437045E+01
 20
6.13877887E+01
 11
-1.80437045E+01
 21
6.13877887E+01
  0
LINE
  8
0
 62
4
 10
-2.45437045E+01
 20
6.03705047E+01
 11
-2.45437045E+01
 21
6.13877887E+01
  0
ARC
  8
0
 62
7
 10
5.73585300E+01
 20
5.55290065E+01
 40
7.58626181E+00
 50
3.20547748E+02
 51
3.47820007E+02
  0
LINE
  8
0
 62
7
 10
3.86762955E+01
 20
5.07084306E+01
 11
3.86762955E+01
 21
4.85284306E+01
  0
LINE
  8
0
 62
7
 10
3.86762955E+01
 20
6.03484306E+01
 11
3.86762955E+01
 21
6.25284306E+01
  0
LINE
  8
0
 62
7
 10
3.86753478E+01
 20
6.03484306E+01
 11
6.32172432E+01
 21
6.03484306E+01
  0
LINE
  8
0
 62
7
 10
6.32162955E+01
 20
6.03484306E+01
 11
6.32162955E+01
 21
6.25284306E+01
  0
LINE
  8
0
 62
7
 10
3.86762955E+01
 20
5.07084306E+01
 11
4.13556045E+01
 21
5.07084306E+01
  0
LINE
  8
0
 62
7
 10
6.32162955E+01
 20
5.07084306E+01
 11
6.32162955E+01
 21
4.85284306E+01
  0
ARC
  8
0
 62
7
 10
5.73585300E+01
 20
5.55290065E+01
 40
7.58626181E+00
 50
1.21710935E+01
 51
3.94409863E+01
  0
LINE
  8
0
  6
CENTER
 62
2
 10
-4.20471103E+01
 20
4.87672526E+01
 11
-4.20471103E+01
 21
5.41436068E+01
  0
LINE
  8
0
  6
CENTER
 62
2
 10
4.29462955E+01
 20
5.46282833E+01
 11
4.29462955E+01
 21
4.86084306E+01
  0
LINE
  8
0
  6
CENTER
 62
2
 10
3.95162955E+01
 20
5.14284306E+01
 11
4.61162955E+01
 21
5.14284306E+01
  0
LINE
  8
0
 62
7
 10
4.31462955E+01
 20
5.26484306E+01
 11
4.31462955E+01
 21
5.01984306E+01
  0
LINE
  8
0
 62
7
 10
4.27462955E+01
 20
5.26484306E+01
 11
4.27462955E+01
 21
5.01984306E+01
  0
LINE
  8
0
  6
CENTER
 62
2
 10
-4.48982595E+01
 20
5.14284306E+01
 11
-3.91656409E+01
 21
5.14284306E+01
  0
LINE
  8
0
 62
7
 10
-4.18437045E+01
 20
5.26484306E+01
 11
-4.18437045E+01
 21
5.01984306E+01
  0
LINE
  8
0
 62
7
 10
-4.22437045E+01
 20
5.26484306E+01
 11
-4.22437045E+01
 21
5.01984306E+01
  0
LINE
  8
0
 62
7
 10
-5.33137045E+01
 20
5.07084306E+01
 11
-4.36337045E+01
 21
5.07084306E+01
  0
LINE
  8
0
 62
7
 10
-4.04437045E+01
 20
5.07084306E+01
 11
-3.87737045E+01
 21
5.07084306E+01
  0
LINE
  8
0
 62
7
 10
-3.87737045E+01
 20
5.07084306E+01
 11
-3.87737045E+01
 21
4.85284306E+01
  0
CIRCLE
  8
0
 62
7
 10
4.29528745E+01
 20
5.14234332E+01
 40
1.25000000E+00
  0
CIRCLE
  8
0
 62
7
 10
4.29528745E+01
 20
5.14234332E+01
 40
1.75000000E+00
  0
CIRCLE
  8
0
 62
7
 10
-4.20471103E+01
 20
5.14234323E+01
 40
1.25000000E+00
  0
CIRCLE
  8
0
 62
7
 10
-4.20471103E+01
 20
5.14234323E+01
 40
1.75000000E+00
  0
ARC
  8
0
 62
7
 10
-4.46317660E+01
 20
5.55234306E+01
 40
7.58294862E+00
 50
3.20581701E+02
 51
3.94182985E+01
  0
CIRCLE
  8
0
 62
7
 10
4.69462955E+01
 20
5.55284306E+01
 40
2.06700000E+00
  0
CIRCLE
  8
0
 62
7
 10
-4.70437045E+01
 20
5.55284306E+01
 40
2.06700000E+00
  0
ARC
  8
0
 62
4
 10
-7.95905011E+01
 20
5.37784306E+01
 40
4.32351351E+00
 50
3.36123699E+02
 51
2.38763010E+01
  0
ARC
  8
0
 62
4
 10
-7.95905011E+01
 20
5.72784306E+01
 40
4.32351351E+00
 50
3.36123699E+02
 51
2.38763010E+01
  0
ARC
  8
0
 62
4
 10
-7.41434741E+01
 20
5.37784306E+01
 40
4.32351351E+00
 50
1.56123699E+02
 51
2.03876301E+02
  0
ARC
  8
0
 62
4
 10
-7.41434741E+01
 20
5.72784306E+01
 40
4.32351351E+00
 50
1.56123699E+02
 51
2.03876301E+02
  0
LINE
  8
0
 62
4
 10
-7.80969876E+01
 20
5.55284306E+01
 11
-7.56369876E+01
 21
5.55284306E+01
  0
LINE
  8
0
 62
4
 10
-7.84669876E+01
 20
5.20284306E+01
 11
-7.52669876E+01
 21
5.20284306E+01
  0
LINE
  8
0
 62
4
 10
-7.84669876E+01
 20
5.90284306E+01
 11
-7.52669876E+01
 21
5.90284306E+01
  0
LINE
  8
0
 62
4
 10
-7.52669876E+01
 20
5.90284306E+01
 11
-7.52669876E+01
 21
5.20284306E+01
  0
LINE
  8
0
 62
4
 10
-7.84669876E+01
 20
5.90284306E+01
 11
-7.84669876E+01
 21
5.20284306E+01
  0
LINE
  8
0
 62
7
 10
-7.52669876E+01
 20
5.35284306E+01
 11
-6.30469876E+01
 21
5.35284306E+01
  0
LINE
  8
0
 62
7
 10
-7.52669876E+01
 20
5.75284306E+01
 11
-6.30469876E+01
 21
5.75284306E+01
  0
LINE
  8
0
 62
7
 10
-8.23469876E+01
 20
5.75284306E+01
 11
-8.23469876E+01
 21
5.35284306E+01
  0
LINE
  8
0
 62
7
 10
-8.30469876E+01
 20
5.42284306E+01
 11
-8.23469876E+01
 21
5.35284306E+01
  0
LINE
  8
0
 62
7
 10
-8.23469876E+01
 20
5.75284306E+01
 11
-8.30469876E+01
 21
5.68284306E+01
  0
LINE
  8
0
 62
7
 10
-8.23469876E+01
 20
5.35284306E+01
 11
-7.84669876E+01
 21
5.35284306E+01
  0
LINE
  8
0
 62
7
 10
-8.23469876E+01
 20
5.75284306E+01
 11
-7.84669876E+01
 21
5.75284306E+01
  0
LINE
  8
0
 62
7
 10
-6.80469876E+01
 20
5.75284306E+01
 11
-6.80469876E+01
 21
5.35284306E+01
  0
LINE
  8
0
 62
7
 10
-8.30469876E+01
 20
5.68284306E+01
 11
-8.30469876E+01
 21
5.42284306E+01
  0
LINE
  8
0
 62
7
 10
-5.65469876E+01
 20
5.95284306E+01
 11
-5.65469876E+01
 21
5.15284306E+01
  0
LINE
  8
0
 62
7
 10
-6.22469876E+01
 20
5.95284306E+01
 11
-6.22469876E+01
 21
5.15284306E+01
  0
LINE
  8
0
 62
7
 10
-6.30469876E+01
 20
5.23284306E+01
 11
-6.22469876E+01
 21
5.15284306E+01
  0
LINE
  8
0
 62
7
 10
-6.22469876E+01
 20
5.95284306E+01
 11
-6.30469876E+01
 21
5.87284306E+01
  0
LINE
  8
0
 62
7
 10
-6.30469876E+01
 20
5.87284306E+01
 11
-6.30469876E+01
 21
5.23284306E+01
  0
LINE
  8
0
 62
2
 10
-8.27259876E+01
 20
5.71494306E+01
 11
-7.84669876E+01
 21
5.71494306E+01
  0
LINE
  8
0
 62
2
 10
-8.27259876E+01
 20
5.39074306E+01
 11
-7.84669876E+01
 21
5.39074306E+01
  0
LINE
  8
0
 62
2
 10
-7.52669876E+01
 20
5.71494306E+01
 11
-6.80469876E+01
 21
5.71494306E+01
  0
LINE
  8
0
 62
2
 10
-7.52669876E+01
 20
5.39074306E+01
 11
-6.80469876E+01
 21
5.39074306E+01
  0
LINE
  8
0
 62
2
 10
-6.29234876E+01
 20
5.22049306E+01
 11
-5.65469876E+01
 21
5.22049306E+01
  0
LINE
  8
0
 62
2
 10
-6.29234876E+01
 20
5.88519306E+01
 11
-5.65469876E+01
 21
5.88519306E+01
  0
LINE
  8
0
 62
7
 10
-6.22469876E+01
 20
5.95284306E+01
 11
-5.50469876E+01
 21
5.95284306E+01
  0
LINE
  8
0
 62
7
 10
-6.22469876E+01
 20
5.15284306E+01
 11
-5.50469876E+01
 21
5.15284306E+01
  0
LINE
  8
0
  6
CENTER
 62
2
 10
-8.50469876E+01
 20
5.55284306E+01
 11
5.32532036E+01
 21
5.55284306E+01
  0
LINE
  8
0
 62
7
 10
-3.70437045E+01
 20
5.00284306E+01
 11
-2.70437045E+01
 21
5.00284306E+01
  0
LINE
  8
0
 62
7
 10
-5.50437045E+01
 20
4.85284306E+01
 11
-3.70437045E+01
 21
4.85284306E+01
  0
LINE
  8
0
 62
7
 10
-5.33137045E+01
 20
5.07084306E+01
 11
-5.33137045E+01
 21
4.85284306E+01
  0
LINE
  8
0
  6
CENTER
 62
2
 10
4.69462955E+01
 20
5.91392148E+01
 11
4.69462955E+01
 21
5.16695297E+01
  0
LINE
  8
0
 62
7
 10
6.49462955E+01
 20
6.25284306E+01
 11
6.49462955E+01
 21
5.71284306E+01
  0
LINE
  8
0
  6
CENTER
 62
2
 10
5.99462955E+01
 20
6.44884306E+01
 11
5.99462955E+01
 21
4.66184306E+01
  0
LINE
  8
0
 62
7
 10
5.19462955E+01
 20
5.71284306E+01
 11
6.49462955E+01
 21
5.71284306E+01
  0
LINE
  8
0
 62
7
 10
5.19462955E+01
 20
5.39284306E+01
 11
6.49462955E+01
 21
5.39284306E+01
  0
LINE
  8
0
 62
7
 10
3.69462955E+01
 20
6.25284306E+01
 11
6.49462955E+01
 21
6.25284306E+01
  0
LINE
  8
0
 62
7
 10
3.69462955E+01
 20
4.85284306E+01
 11
6.49462955E+01
 21
4.85284306E+01
  0
LINE
  8
0
 62
7
 10
6.49462955E+01
 20
5.39284306E+01
 11
6.49462955E+01
 21
4.85284306E+01
  0
LINE
  8
0
  6
CENTER
 62
2
 10
-4.70437045E+01
 20
5.15749767E+01
 11
-4.70437045E+01
 21
5.91384306E+01
  0
LINE
  8
0
 62
7
 10
-5.50437045E+01
 20
4.85284306E+01
 11
-5.50437045E+01
 21
6.25284306E+01
  0
LINE
  8
0
 62
7
 10
-3.70437045E+01
 20
4.85284306E+01
 11
-3.70437045E+01
 21
6.25284306E+01
  0
LINE
  8
0
 62
7
 10
-3.70437045E+01
 20
6.10284306E+01
 11
-2.70437045E+01
 21
6.10284306E+01
  0
LINE
  8
0
 62
7
 10
-5.50437045E+01
 20
6.25284306E+01
 11
-3.70437045E+01
 21
6.25284306E+01
  0
LINE
  8
0
 62
7
 10
-5.33137045E+01
 20
6.03484306E+01
 11
-5.33137045E+01
 21
6.25284306E+01
  0
LINE
  8
0
 62
7
 10
-3.87737045E+01
 20
6.03484306E+01
 11
-3.87737045E+01
 21
6.25284306E+01
  0
LINE
  8
0
 62
7
 10
5.19462955E+01
 20
5.71284306E+01
 11
5.19462955E+01
 21
5.39284306E+01
  0
LINE
  8
0
 62
7
 10
-5.33137045E+01
 20
6.03484306E+01
 11
-3.87737045E+01
 21
6.03484306E+01
  0
CIRCLE
  8
0
 62
2
 10
4.69528745E+01
 20
5.55334308E+01
 40
2.50000000E+00
  0
CIRCLE
  8
0
 62
2
 10
-4.70437045E+01
 20
5.55284306E+01
 40
2.50000500E+00
  0
ARC
  8
0
 62
7
 10
-4.74624380E+01
 20
5.55284306E+01
 40
7.58087858E+00
 50
1.40519898E+02
 51
2.19480102E+02
  0
LINE
  8
0
 62
4
 10
2.14462955E+01
 20
6.03705047E+01
 11
2.14462955E+01
 21
6.13877887E+01
  0
LINE
  8
0
 62
4
 10
2.39462955E+01
 20
6.13877887E+01
 11
1.49462955E+01
 21
6.13877887E+01
  0
LINE
  8
0
 62
4
 10
2.14462955E+01
 20
6.06233098E+01
 11
1.74462955E+01
 21
6.06233098E+01
  0
CIRCLE
  8
0
 62
4
 10
1.94471707E+01
 20
5.55208513E+01
 40
2.50000000E+00
  0
LINE
  8
0
 62
4
 10
1.24462955E+01
 20
5.35233098E+01
 11
6.94629547E+00
 21
5.35233098E+01
  0
LINE
  8
0
 62
4
 10
1.24462955E+01
 20
5.75233098E+01
 11
6.94629547E+00
 21
5.75233098E+01
  0
LINE
  8
0
 62
4
 10
1.49462955E+01
 20
5.22733098E+01
 11
1.24462955E+01
 21
5.22733098E+01
  0
LINE
  8
0
 62
4
 10
1.49462955E+01
 20
5.87733098E+01
 11
1.24462955E+01
 21
5.87733098E+01
  0
LINE
  8
0
 62
4
 10
1.24462955E+01
 20
5.22733098E+01
 11
1.24462955E+01
 21
5.87733098E+01
  0
LINE
  8
0
 62
4
 10
2.64462955E+01
 20
5.87733098E+01
 11
2.39462955E+01
 21
5.87733098E+01
  0
LINE
  8
0
 62
4
 10
2.64462955E+01
 20
5.22733098E+01
 11
2.39462955E+01
 21
5.22733098E+01
  0
LINE
  8
0
 62
4
 10
3.19462955E+01
 20
5.45233098E+01
 11
3.09462955E+01
 21
5.35233098E+01
  0
LINE
  8
0
 62
4
 10
3.19462955E+01
 20
5.65233098E+01
 11
3.09462955E+01
 21
5.75233098E+01
  0
LINE
  8
0
 62
4
 10
3.09462955E+01
 20
5.75233098E+01
 11
3.09462955E+01
 21
5.35233098E+01
  0
LINE
  8
0
 62
4
 10
3.09462955E+01
 20
5.75233098E+01
 11
2.64462955E+01
 21
5.75233098E+01
  0
LINE
  8
0
 62
4
 10
3.09462955E+01
 20
5.35233098E+01
 11
2.64462955E+01
 21
5.35233098E+01
  0
LINE
  8
0
 62
4
 10
3.19462955E+01
 20
5.65233098E+01
 11
3.19462955E+01
 21
5.45233098E+01
  0
LINE
  8
0
 62
4
 10
6.94629547E+00
 20
5.75233098E+01
 11
6.94629547E+00
 21
5.35233098E+01
  0
LINE
  8
0
 62
4
 10
1.84362955E+01
 20
5.45233098E+01
 11
2.05062955E+01
 21
5.65833098E+01
  0
LINE
  8
0
 62
4
 10
2.05062955E+01
 20
5.44633098E+01
 11
1.83862955E+01
 21
5.65833098E+01
  0
LINE
  8
0
 62
4
 10
1.83362955E+01
 20
5.44233098E+01
 11
1.83862955E+01
 21
5.44633098E+01
  0
LINE
  8
0
 62
4
 10
2.39462955E+01
 20
4.98733098E+01
 11
1.49462955E+01
 21
4.98733098E+01
  0
LINE
  8
0
 62
4
 10
2.64462955E+01
 20
5.22733098E+01
 11
2.64462955E+01
 21
5.87733098E+01
  0
LINE
  8
0
 62
4
 10
2.39462955E+01
 20
5.12233098E+01
 11
1.49462955E+01
 21
5.12233098E+01
  0
LINE
  8
0
 62
4
 10
2.39462955E+01
 20
5.98233465E+01
 11
1.49462955E+01
 21
5.98233465E+01
  0
LINE
  8
0
 62
4
 10
6.94629547E+00
 20
5.75233098E+01
 11
3.94629547E+00
 21
5.68233098E+01
  0
LINE
  8
0
 62
4
 10
3.94629548E+00
 20
5.68233098E+01
 11
-9.90703605E-01
 21
5.68233098E+01
  0
LINE
  8
0
 62
4
 10
3.94629548E+00
 20
5.42233098E+01
 11
1.60929639E+00
 21
5.42233098E+01
  0
LINE
  8
0
 62
4
 10
3.94629547E+00
 20
5.68233098E+01
 11
3.94629547E+00
 21
5.42233098E+01
  0
LINE
  8
0
 62
4
 10
6.94629547E+00
 20
5.35233098E+01
 11
3.94629548E+00
 21
5.42233098E+01
  0
LINE
  8
0
 62
6
 10
-9.90703605E-01
 20
5.68233098E+01
 11
1.60929639E+00
 21
5.42233098E+01
  0
LINE
  8
0
 62
4
 10
2.39462955E+01
 20
6.03705047E+01
 11
1.49462955E+01
 21
6.03705047E+01
  0
LINE
  8
0
 62
4
 10
2.39462955E+01
 20
4.98733098E+01
 11
2.39462955E+01
 21
6.13877887E+01
  0
LINE
  8
0
 62
4
 10
1.49462955E+01
 20
4.98733098E+01
 11
1.49462955E+01
 21
6.13877887E+01
  0
LINE
  8
0
 62
4
 10
1.74462955E+01
 20
6.13877887E+01
 11
1.74462955E+01
 21
6.03705047E+01
  0
LINE
  8
0
  6
CENTER
 62
6
 10
1.94462955E+01
 20
6.28233098E+01
 11
1.94462955E+01
 21
4.73433098E+01
  0
LINE
  8
0
 62
7
 10
2.39462955E+01
 20
6.10284306E+01
 11
3.69462955E+01
 21
6.10284306E+01
  0
LINE
  8
0
 62
7
 10
2.39462955E+01
 20
5.00284306E+01
 11
3.69462955E+01
 21
5.00284306E+01
  0
ARC
  8
0
 62
7
 10
4.45340609E+01
 20
5.55290065E+01
 40
7.58626181E+00
 50
1.80004350E+02
 51
2.19452252E+02
  0
LINE
  8
0
 62
7
 10
3.69462955E+01
 20
6.25284306E+01
 11
3.69462955E+01
 21
4.85284306E+01
  0
LINE
  8
0
 62
7
 10
4.45501444E+01
 20
5.07084306E+01
 11
6.32162955E+01
 21
5.07084306E+01
  0
ARC
  8
0
 62
7
 10
4.45340609E+01
 20
5.55278547E+01
 40
7.58626181E+00
 50
1.40547749E+02
 51
1.79995650E+02
  0
LINE
  8
0
  6
PHANTOM
 10
-1.54870452E+00
 20
3.93674591E+01
 11
-1.54870452E+00
 21
6.89648988E+01
  0
LINE
  8
0
  6
CENTER
 62
6
 10
-8.21942011E+01
 20
-2.89768262E+01
 11
-8.21942011E+01
 21
-1.95916818E+01
  0
CIRCLE
  8
0
 62
4
 10
-8.21942011E+01
 20
-2.41323940E+01
 40
3.00000000E+00
  0
CIRCLE
  8
0
 62
4
 10
-8.21942011E+01
 20
-2.41323940E+01
 40
1.60000000E+00
  0
LINE
  8
0
  6
CENTER
 62
6
 10
-8.74883851E+01
 20
-2.41323940E+01
 11
-7.70555484E+01
 21
-2.41323940E+01
  0
LINE
  8
0
  6
CENTER
 62
6
 10
-5.43462798E+01
 20
-2.41323940E+01
 11
-3.32128796E+01
 21
-2.41323940E+01
  0
LINE
  8
0
 62
4
 10
-3.49111534E+01
 20
-2.57323940E+01
 11
-3.49111534E+01
 21
-2.25323940E+01
  0
LINE
  8
0
 62
4
 10
-3.64111534E+01
 20
-2.71323940E+01
 11
-3.60111534E+01
 21
-2.71323940E+01
  0
LINE
  8
0
 62
4
 10
-3.64111534E+01
 20
-2.11323940E+01
 11
-3.60111534E+01
 21
-2.11323940E+01
  0
LINE
  8
0
 62
4
 10
-3.64111534E+01
 20
-2.71323940E+01
 11
-3.64111534E+01
 21
-2.11323940E+01
  0
LINE
  8
0
 62
4
 10
-3.60111534E+01
 20
-2.71323940E+01
 11
-3.60111534E+01
 21
-2.11323940E+01
  0
LINE
  8
0
 62
4
 10
-3.60111534E+01
 20
-2.57323940E+01
 11
-3.49111534E+01
 21
-2.57323940E+01
  0
LINE
  8
0
 62
4
 10
-3.60111534E+01
 20
-2.25323940E+01
 11
-3.49111534E+01
 21
-2.25323940E+01
  0
LINE
  8
0
 62
4
 10
-5.24011534E+01
 20
-2.25323940E+01
 11
-5.13011534E+01
 21
-2.25323940E+01
  0
LINE
  8
0
 62
4
 10
-5.24011534E+01
 20
-2.57323940E+01
 11
-5.13011534E+01
 21
-2.57323940E+01
  0
LINE
  8
0
 62
4
 10
-5.24011534E+01
 20
-2.57323940E+01
 11
-5.24011534E+01
 21
-2.25323940E+01
  0
LINE
  8
0
 62
4
 10
-5.13011534E+01
 20
-2.11323940E+01
 11
-5.09011534E+01
 21
-2.11323940E+01
  0
LINE
  8
0
 62
4
 10
-5.13011534E+01
 20
-2.71323940E+01
 11
-5.09011534E+01
 21
-2.71323940E+01
  0
LINE
  8
0
 62
4
 10
-5.09011534E+01
 20
-2.71323940E+01
 11
-5.09011534E+01
 21
-2.11323940E+01
  0
LINE
  8
0
 62
4
 10
-5.13011534E+01
 20
-2.71323940E+01
 11
-5.13011534E+01
 21
-2.11323940E+01
  0
LINE
  8
0
 62
4
 10
-5.09011534E+01
 20
-2.57323940E+01
 11
-3.64111534E+01
 21
-2.57323940E+01
  0
LINE
  8
0
 62
4
 10
-5.09011534E+01
 20
-2.25323940E+01
 11
-3.64111534E+01
 21
-2.25323940E+01
  0
LINE
  8
0
  6
CENTER
 62
6
 10
7.98642961E+01
 20
-7.33716428E+01
 11
7.98642961E+01
 21
-8.13716428E+01
  0
LINE
  8
0
  6
CENTER
 62
6
 10
4.96642961E+01
 20
-7.33716428E+01
 11
4.96642961E+01
 21
-8.13716428E+01
  0
LINE
  8
0
  6
CENTER
 62
6
 10
6.47642961E+01
 20
-3.93716428E+01
 11
6.47642961E+01
 21
-8.13716428E+01
  0
LINE
  8
0
 62
4
 10
6.06642961E+01
 20
-7.83716428E+01
 11
6.88642961E+01
 21
-7.83716428E+01
  0
LINE
  8
0
 62
4
 10
5.47642961E+01
 20
-7.83716428E+01
 11
4.47642961E+01
 21
-7.83716428E+01
  0
LINE
  8
0
 62
4
 10
7.47642961E+01
 20
-7.83716428E+01
 11
8.47642961E+01
 21
-7.83716428E+01
  0
ARC
  8
0
 62
4
 10
7.07642961E+01
 20
-7.33716428E+01
 40
3.00000000E+00
 50
0.00000000E+00
 51
9.00000002E+01
  0
ARC
  8
0
 62
4
 10
7.07642961E+01
 20
-7.33716428E+01
 40
1.00000000E+00
 50
0.00000000E+00
 51
9.00000002E+01
  0
ARC
  8
0
 62
4
 10
5.87642961E+01
 20
-7.33716428E+01
 40
3.00000000E+00
 50
9.00000002E+01
 51
1.80000000E+02
  0
ARC
  8
0
 62
4
 10
7.47642961E+01
 20
-7.53716428E+01
 40
1.00000000E+00
 50
1.80000000E+02
 51
2.70000000E+02
  0
ARC
  8
0
 62
4
 10
5.87642961E+01
 20
-7.33716428E+01
 40
1.00000000E+00
 50
9.00000002E+01
 51
1.80000000E+02
  0
ARC
  8
0
 62
4
 10
5.47642961E+01
 20
-7.53716428E+01
 40
1.00000000E+00
 50
2.70000000E+02
 51
0.00000000E+00
  0
LINE
  8
0
 62
4
 10
6.32142961E+01
 20
-4.39816428E+01
 11
6.63142961E+01
 21
-4.39816428E+01
  0
LINE
  8
0
 62
4
 10
6.06642961E+01
 20
-7.33716428E+01
 11
6.88642961E+01
 21
-7.33716428E+01
  0
LINE
  8
0
 62
4
 10
5.77642961E+01
 20
-7.33716428E+01
 11
5.77642961E+01
 21
-7.53716428E+01
  0
LINE
  8
0
 62
4
 10
5.47642961E+01
 20
-7.63716428E+01
 11
4.47642961E+01
 21
-7.63716428E+01
  0
LINE
  8
0
 62
4
 10
5.57642961E+01
 20
-7.33716428E+01
 11
5.57642961E+01
 21
-7.53716428E+01
  0
LINE
  8
0
 62
4
 10
5.87642961E+01
 20
-6.13716428E+01
 11
5.87642961E+01
 21
-7.03716428E+01
  0
LINE
  8
0
 62
4
 10
6.32142961E+01
 20
-6.13716428E+01
 11
5.87642961E+01
 21
-6.13716428E+01
  0
LINE
  8
0
 62
4
 10
6.32142961E+01
 20
-4.23716428E+01
 11
6.32142961E+01
 21
-6.13716428E+01
  0
LINE
  8
0
 62
4
 10
5.87642961E+01
 20
-7.23716428E+01
 11
7.07642961E+01
 21
-7.23716428E+01
  0
LINE
  8
0
 62
4
 10
5.87642961E+01
 20
-7.03716428E+01
 11
7.07642961E+01
 21
-7.03716428E+01
  0
LINE
  8
0
 62
4
 10
7.17642961E+01
 20
-7.33716428E+01
 11
7.17642961E+01
 21
-7.53716428E+01
  0
LINE
  8
0
 62
4
 10
6.63142961E+01
 20
-4.23716428E+01
 11
6.63142961E+01
 21
-6.13716428E+01
  0
LINE
  8
0
 62
4
 10
7.07642961E+01
 20
-6.13716428E+01
 11
7.07642961E+01
 21
-7.03716428E+01
  0
LINE
  8
0
 62
4
 10
7.37642961E+01
 20
-7.33716428E+01
 11
7.37642961E+01
 21
-7.53716428E+01
  0
LINE
  8
0
 62
4
 10
6.32142961E+01
 20
-4.23716428E+01
 11
6.63142961E+01
 21
-4.23716428E+01
  0
LINE
  8
0
  6
CENTER
 62
6
 10
6.02142961E+01
 20
-4.93716428E+01
 11
6.93142961E+01
 21
-4.93716428E+01
  0
LINE
  8
0
 62
4
 10
6.63142961E+01
 20
-6.13716428E+01
 11
7.07642961E+01
 21
-6.13716428E+01
  0
LINE
  8
0
 62
4
 10
7.47642961E+01
 20
-7.63716428E+01
 11
8.47642961E+01
 21
-7.63716428E+01
  0
LINE
  8
0
 62
4
 10
8.47642961E+01
 20
-7.63716428E+01
 11
8.47642961E+01
 21
-7.83716428E+01
  0
LINE
  8
0
 62
4
 10
4.47642961E+01
 20
-7.63716428E+01
 11
4.47642961E+01
 21
-7.83716428E+01
  0
LINE
  8
0
 62
4
 10
6.06642961E+01
 20
-7.23716428E+01
 11
6.06642961E+01
 21
-7.83716428E+01
  0
LINE
  8
0
 62
4
 10
6.88642961E+01
 20
-7.23716428E+01
 11
6.88642961E+01
 21
-7.83716428E+01
  0
ARC
  8
0
 62
4
 10
5.47642961E+01
 20
-7.53716428E+01
 40
3.00000000E+00
 50
2.70000000E+02
 51
0.00000000E+00
  0
ARC
  8
0
 62
4
 10
7.47642961E+01
 20
-7.53716428E+01
 40
3.00000000E+00
 50
1.80000000E+02
 51
2.70000000E+02
  0
LINE
  8
0
  6
CENTER
 62
6
 10
1.27642961E+01
 20
-7.33666426E+01
 11
1.27642961E+01
 21
-8.13666426E+01
  0
LINE
  8
0
  6
CENTER
 62
6
 10
2.47642961E+01
 20
-7.33666426E+01
 11
2.47642961E+01
 21
-8.13666426E+01
  0
LINE
  8
0
  6
CENTER
 62
6
 10
1.87642961E+01
 20
-3.93666426E+01
 11
1.87642961E+01
 21
-8.13666426E+01
  0
LINE
  8
0
 62
4
 10
7.76429608E+00
 20
-7.83666426E+01
 11
2.97642961E+01
 21
-7.83666426E+01
  0
ARC
  8
0
 62
4
 10
1.87642961E+01
 20
-5.43666445E+01
 40
1.19980057E+01
 50
5.99945013E+01
 51
1.20005499E+02
  0
CIRCLE
  8
0
 62
4
 10
1.87642961E+01
 20
-4.93666426E+01
 40
1.64999962E+00
  0
LINE
  8
0
 62
4
 10
1.27642961E+01
 20
-4.39766426E+01
 11
1.27642961E+01
 21
-7.03666426E+01
  0
LINE
  8
0
 62
4
 10
7.76429608E+00
 20
-7.63666426E+01
 11
2.97642961E+01
 21
-7.63666426E+01
  0
LINE
  8
0
 62
4
 10
2.47642961E+01
 20
-4.39766426E+01
 11
2.47642961E+01
 21
-7.03666426E+01
  0
LINE
  8
0
 62
4
 10
7.76429608E+00
 20
-7.03666426E+01
 11
2.97642961E+01
 21
-7.03666426E+01
  0
LINE
  8
0
 62
4
 10
1.27642961E+01
 20
-6.13666426E+01
 11
2.47642961E+01
 21
-6.13666426E+01
  0
LINE
  8
0
  6
CENTER
 62
6
 10
9.76429608E+00
 20
-4.93666426E+01
 11
2.77642961E+01
 21
-4.93666426E+01
  0
LINE
  8
0
 62
4
 10
2.97642961E+01
 20
-7.03666426E+01
 11
2.97642961E+01
 21
-7.83666426E+01
  0
LINE
  8
0
 62
4
 10
2.26642961E+01
 20
-7.63666426E+01
 11
2.26642961E+01
 21
-7.83666426E+01
  0
LINE
  8
0
 62
4
 10
2.68642961E+01
 20
-7.63666426E+01
 11
2.68642961E+01
 21
-7.83666426E+01
  0
LINE
  8
0
 62
4
 10
7.76429608E+00
 20
-7.03666426E+01
 11
7.76429608E+00
 21
-7.83666426E+01
  0
LINE
  8
0
 62
4
 10
1.06642961E+01
 20
-7.63666426E+01
 11
1.06642961E+01
 21
-7.83666426E+01
  0
LINE
  8
0
 62
4
 10
1.48642961E+01
 20
-7.63666426E+01
 11
1.48642961E+01
 21
-7.83666426E+01
  0
LINE
  8
0
  6
CENTER
 62
6
 10
6.47642961E+01
 20
-2.66410813E+00
 11
6.47642961E+01
 21
-2.62890869E+01
  0
LINE
  8
0
  6
CENTER
 62
6
 10
8.77642961E+01
 20
-1.43716485E+01
 11
4.17642961E+01
 21
-1.43716485E+01
  0
LINE
  8
0
 62
4
 10
8.47642961E+01
 20
-2.53716485E+01
 11
4.47642961E+01
 21
-2.53716485E+01
  0
LINE
  8
0
 62
4
 10
8.47642961E+01
 20
-3.37164848E+00
 11
4.47642961E+01
 21
-3.37164848E+00
  0
LINE
  8
0
 62
4
 10
4.96642961E+01
 20
-6.27164848E+00
 11
4.47642961E+01
 21
-6.27164848E+00
  0
LINE
  8
0
 62
4
 10
4.96642961E+01
 20
-1.04716485E+01
 11
4.47642961E+01
 21
-1.04716485E+01
  0
LINE
  8
0
 62
4
 10
4.96642961E+01
 20
-1.82716485E+01
 11
4.47642961E+01
 21
-1.82716485E+01
  0
LINE
  8
0
 62
4
 10
4.96642961E+01
 20
-2.24716485E+01
 11
4.47642961E+01
 21
-2.24716485E+01
  0
LINE
  8
0
  6
CENTER
 62
6
 10
7.98642961E+01
 20
-2.48096876E+00
 11
7.98642961E+01
 21
-2.62890869E+01
  0
LINE
  8
0
  6
CENTER
 62
6
 10
4.96642961E+01
 20
-2.66410813E+00
 11
4.96642961E+01
 21
-2.62890869E+01
  0
LINE
  8
0
  6
CENTER
 62
6
 10
5.47642961E+01
 20
-8.37164848E+00
 11
4.17642961E+01
 21
-8.37164848E+00
  0
LINE
  8
0
  6
CENTER
 62
6
 10
5.47642961E+01
 20
-2.03716485E+01
 11
4.17642961E+01
 21
-2.03716485E+01
  0
ARC
  8
0
 62
4
 10
7.98642961E+01
 20
-8.37164848E+00
 40
2.10000000E+00
 50
9.00000002E+01
 51
2.70000000E+02
  0
ARC
  8
0
 62
4
 10
4.96642961E+01
 20
-8.37164848E+00
 40
2.10000000E+00
 50
2.70000000E+02
 51
9.00000002E+01
  0
ARC
  8
0
 62
4
 10
4.96642961E+01
 20
-2.03716485E+01
 40
2.10000000E+00
 50
2.70000000E+02
 51
9.00000002E+01
  0
ARC
  8
0
 62
4
 10
7.98642961E+01
 20
-2.03716485E+01
 40
2.10000000E+00
 50
9.00000002E+01
 51
2.70000000E+02
  0
LINE
  8
0
 62
4
 10
8.47642961E+01
 20
-2.24716485E+01
 11
8.47642961E+01
 21
-2.53716485E+01
  0
LINE
  8
0
 62
4
 10
8.47642961E+01
 20
-1.06316485E+01
 11
8.47642961E+01
 21
-1.82716485E+01
  0
LINE
  8
0
  6
CENTER
 62
6
 10
8.77642961E+01
 20
-2.03716485E+01
 11
7.47642961E+01
 21
-2.03716485E+01
  0
LINE
  8
0
  6
CENTER
 62
6
 10
8.77642961E+01
 20
-8.37164848E+00
 11
7.47642961E+01
 21
-8.37164848E+00
  0
LINE
  8
0
 62
4
 10
6.32142961E+01
 20
-8.37164848E+00
 11
6.32142961E+01
 21
-2.03716485E+01
  0
LINE
  8
0
 62
4
 10
6.63142961E+01
 20
-8.37164848E+00
 11
6.63142961E+01
 21
-2.03716485E+01
  0
LINE
  8
0
 62
4
 10
8.47642961E+01
 20
-2.24716485E+01
 11
7.98642961E+01
 21
-2.24716485E+01
  0
LINE
  8
0
 62
4
 10
8.47642961E+01
 20
-1.82716485E+01
 11
7.98642961E+01
 21
-1.82716485E+01
  0
LINE
  8
0
 62
4
 10
8.47642961E+01
 20
-1.04716485E+01
 11
7.98642961E+01
 21
-1.04716485E+01
  0
LINE
  8
0
 62
4
 10
8.47642961E+01
 20
-6.27164848E+00
 11
7.98642961E+01
 21
-6.27164848E+00
  0
LINE
  8
0
 62
4
 10
7.07642961E+01
 20
-8.37164848E+00
 11
5.87642961E+01
 21
-8.37164848E+00
  0
LINE
  8
0
 62
4
 10
7.07642961E+01
 20
-2.03716485E+01
 11
5.87642961E+01
 21
-2.03716485E+01
  0
LINE
  8
0
 62
4
 10
8.47642961E+01
 20
-3.37164848E+00
 11
8.47642961E+01
 21
-6.27164848E+00
  0
LINE
  8
0
 62
4
 10
7.37642961E+01
 20
-3.37164848E+00
 11
7.37642961E+01
 21
-2.53716485E+01
  0
LINE
  8
0
 62
4
 10
7.07642961E+01
 20
-8.37164848E+00
 11
7.07642961E+01
 21
-2.03716485E+01
  0
LINE
  8
0
 62
4
 10
5.87642961E+01
 20
-8.37164848E+00
 11
5.87642961E+01
 21
-2.03716485E+01
  0
LINE
  8
0
 62
4
 10
5.57642961E+01
 20
-3.37164848E+00
 11
5.57642961E+01
 21
-2.53716485E+01
  0
LINE
  8
0
 62
4
 10
4.47642961E+01
 20
-2.24716485E+01
 11
4.47642961E+01
 21
-2.53716485E+01
  0
LINE
  8
0
 62
4
 10
4.47642961E+01
 20
-1.04716485E+01
 11
4.47642961E+01
 21
-1.82716485E+01
  0
LINE
  8
0
 62
4
 10
4.47642961E+01
 20
-3.37164848E+00
 11
4.47642961E+01
 21
-6.27164848E+00
  0
TEXT
  8
0
 62
7
 10
-1.05449994E+02
 20
-8.24000031E+01
 40
3.20000005E+00
  1
25
 41
1.00000000E+00
  7
MONOTXT
  0
TEXT
  8
0
 62
7
 10
-1.07049994E+02
 20
-8.84000031E+01
 40
3.20000005E+00
  1
-25
 41
1.00000000E+00
  7
MONOTXT
  0
TEXT
  8
0
 62
7
 10
-9.58499939E+01
 20
-8.24000031E+01
 40
3.20000005E+00
  1
50
 41
1.00000000E+00
  7
MONOTXT
  0
TEXT
  8
0
 62
7
 10
-8.62499939E+01
 20
-8.24000031E+01
 40
3.20000005E+00
  1
75
 41
1.00000000E+00
  7
MONOTXT
  0
TEXT
  8
0
 62
7
 10
-7.82499940E+01
 20
-8.24000031E+01
 40
3.20000005E+00
  1
100
 41
1.00000000E+00
  7
MONOTXT
  0
TEXT
  8
0
 62
7
 10
-9.42499939E+01
 20
-8.84000031E+01
 40
3.20000005E+00
  1
0
 41
1.00000000E+00
  7
MONOTXT
  0
TEXT
  8
0
 62
7
 10
-8.62499939E+01
 20
-8.84000031E+01
 40
3.20000005E+00
  1
25
 41
1.00000000E+00
  7
MONOTXT
  0
TEXT
  8
0
 62
7
 10
-7.66499939E+01
 20
-8.84000031E+01
 40
3.20000005E+00
  1
50
 41
1.00000000E+00
  7
MONOTXT
  0
TEXT
  8
0
 62
7
 10
-1.31249994E+02
 20
-8.84000031E+01
 40
3.20000005E+00
  1
STRETCH
 41
1.00000000E+00
  7
MONOTXT
  0
TEXT
  8
0
 62
7
 10
-1.29649994E+02
 20
-8.24000031E+01
 40
3.20000005E+00
  1
STROKE
 41
1.00000000E+00
  7
MONOTXT
  0
LINE
  8
0
 62
7
 10
-6.89999939E+01
 20
-8.98000031E+01
 11
-6.89999939E+01
 21
-7.78000031E+01
  0
LINE
  8
0
 62
7
 10
-7.85999939E+01
 20
-8.98000031E+01
 11
-7.85999939E+01
 21
-7.78000031E+01
  0
LINE
  8
0
 62
7
 10
-8.81999939E+01
 20
-8.98000031E+01
 11
-8.81999939E+01
 21
-7.78000031E+01
  0
LINE
  8
0
 62
7
 10
-1.33399994E+02
 20
-7.78000031E+01
 11
-6.89999939E+01
 21
-7.78000031E+01
  0
LINE
  8
0
 62
7
 10
-9.77999939E+01
 20
-8.98000031E+01
 11
-9.77999939E+01
 21
-7.78000031E+01
  0
LINE
  8
0
 62
7
 10
-1.07399994E+02
 20
-8.98000031E+01
 11
-1.07399994E+02
 21
-7.78000031E+01
  0
LINE
  8
0
 62
7
 10
-1.33399994E+02
 20
-8.38000031E+01
 11
-6.89999939E+01
 21
-8.38000031E+01
  0
LINE
  8
0
 62
7
 10
-1.33399994E+02
 20
-8.98000031E+01
 11
-1.33399994E+02
 21
-7.78000031E+01
  0
LINE
  8
0
 62
7
 10
-1.33399994E+02
 20
-8.98000031E+01
 11
-6.89999939E+01
 21
-8.98000031E+01
  0
TEXT
  8
0
 62
7
 10
-8.00437339E+01
 20
-7.60119966E+01
 40
3.20000005E+00
  1
(mm)
 41
1.00000000E+00
  7
MONOTXT
  0
TEXT
  8
0
 62
7
 10
-1.20049994E+02
 20
-7.57696827E+01
 40
3.20000005E+00
  1
STRETCH LIST
 41
1.05263158E+00
  7
MONOTXT
  0
TEXT
  8
0
 10
-1.49988359E+01
 20
7.36625828E+01
 40
3.20000005E+00
  1
STRETCH LINE
 41
1.05263158E+00
  7
MONOTXT
  0
LINE
  8
0
 62
7
 10
-1.38399994E+02
 20
9.45000000E+01
 11
1.38350006E+02
 21
9.45000000E+01
  0
LINE
  8
0
 62
7
 10
1.38350006E+02
 20
9.45000000E+01
 11
1.38350006E+02
 21
-9.48000031E+01
  0
LINE
  8
0
 62
7
 10
-1.38399994E+02
 20
-9.48000031E+01
 11
1.38350006E+02
 21
-9.48000031E+01
  0
LINE
  8
0
 62
7
 10
-1.38399994E+02
 20
9.45000000E+01
 11
-1.38399994E+02
 21
-9.48000031E+01
  0
LINE
  8
0
 62
7
 10
7.33500061E+01
 20
-8.48000031E+01
 11
1.38350006E+02
 21
-8.48000031E+01
  0
LINE
  8
0
 62
7
 10
-1.38399994E+02
 20
8.45000000E+01
 11
-7.33999939E+01
 21
8.45000000E+01
  0
LINE
  8
0
 62
7
 10
7.33500061E+01
 20
8.45000000E+01
 11
1.38350006E+02
 21
8.45000000E+01
  0
LINE
  8
0
 62
7
 10
7.33500061E+01
 20
-8.48000031E+01
 11
7.33500061E+01
 21
-9.48000031E+01
  0
LINE
  8
0
 62
7
 10
7.33500061E+01
 20
9.45000000E+01
 11
7.33500061E+01
 21
8.45000000E+01
  0
LINE
  8
0
 62
7
 10
-7.33999939E+01
 20
9.45000000E+01
 11
-7.33999939E+01
 21
8.45000000E+01
  0
TEXT
  8
0
 62
7
 10
7.72426624E+01
 20
-9.20500031E+01
 40
4.50000000E+00
  1
KOGANEI CORP.
 41
1.04838710E+00
  7
MONOTXT
  0
TEXT
  8
0
 62
7
 10
9.35071483E+01
 20
8.79000000E+01
 40
3.20000005E+00
  1
Ver. 1.1
 41
1.08108108E+00
  7
MONOTXT
  0
TEXT
  8
0
 62
7
 10
-1.31042852E+02
 20
8.79000000E+01
 40
3.20000005E+00
  1
NEW PEN CYLINDER
 41
1.08108108E+00
  7
MONOTXT
  0
TEXT
  8
0
 62
7
 10
-1.29085994E+02
 20
7.29000000E+01
 40
3.20000005E+00
  1
MODEL:PBDACS10*ST(50)-7-ZC230
 41
1.00000000E+00
  7
MONOTXT
  0
ENDSEC
  0
EOF
