  0
SECTION
  2
HEADER
  9
$ACADVER
  1
AC1003
  9
$EXTMIN
 10
-1.38399994E+02
 20
-9.48000031E+01
  9
$EXTMAX
 10
1.38350006E+02
 20
9.45000000E+01
  9
$LIMMIN
 10
-1.38400994E+02
 20
-9.48010031E+01
  9
$LIMMAX
 10
1.38351006E+02
 20
9.45010000E+01
  9
$SNAPUNIT
 10
1
 20
1
  9
$SNAPBASE
 10
0
 20
0
  9
$GRIDMODE
 70
0
  9
$GRIDUNIT
 10
0
 20
0
  9
$LTSCALE
 40
4.61250000E+00
  9
$TEXTSIZE
 40
3.2
  9
$DIMTAD
 70
0
  9
$LUNITS
 70
2
  9
$LUPREC
 70
4
  9
$FILLETRAD
 40
0
  9
$AUNITS
 70
0
  9
$AUPREC
 70
0
  0
ENDSEC
  0
SECTION
  2
TABLES
  0
TABLE
  2
LTYPE
 70
2
  0
LTYPE
  2
CONTINUOUS
 70
64
  3
Solid-Line
 72
65
 73
0
 40
0
  0
LTYPE
  2
DASHED
 70
64
  3
DASHED
 72
65
 73
2
 40
.75
 49
.5
 49
-.25
  0
LTYPE
  2
HIDDEN
 70
64
  3
HIDDEN
 72
65
 73
2
 40
.375
 49
.25
 49
-.125
  0
LTYPE
  2
CENTER
 70
64
  3
CENTER
 72
65
 73
4
 40
2
 49
1.25
 49
-.25
 49
.25
 49
-.25
  0
LTYPE
  2
PHANTOM
 70
64
  3
PHANTOM
 72
65
 73
6
 40
2.5
 49
1.25
 49
-.25
 49
.25
 49
-.25
 49
.25
 49
-.25
  0
ENDTAB
  0
TABLE
  2
LAYER
 70
1
  0
LAYER
  2
1
 70
0
 62
7
  6
CONTINUOUS
 0
ENDTAB
  0
TABLE
  2
STYLE
 70
2
  0
STYLE
  2
MONOTXT
 70
0
 40
0
 41
1
 50
0
 71
0
 42
.2
  3
monotxt
  0
STYLE
  2
BIGFONT
 70
0
 40
0
 41
1
 50
0
 71
0
 42
.2
  3
txt
  4
bigfont
  0
ENDTAB
  0
ENDSEC
  0
SECTION
  2
ENTITIES
  0
LINE
  8
0
  6
PHANTOM
 10
1.53467851E+01
 20
1.98836154E+00
 11
1.53467851E+01
 21
4.15471443E+01
  0
LINE
  8
0
  6
CENTER
 62
6
 10
3.81722778E+01
 20
4.38427477E+01
 11
3.81722778E+01
 21
1.07980886E+01
  0
LINE
  8
0
 62
4
 10
3.96722778E+01
 20
3.95327477E+01
 11
3.96722778E+01
 21
3.85327477E+01
  0
LINE
  8
0
 62
4
 10
3.66722778E+01
 20
3.95327477E+01
 11
3.66722778E+01
 21
3.85327477E+01
  0
LINE
  8
0
 62
6
 10
3.94022778E+01
 20
3.95327477E+01
 11
3.94022778E+01
 21
3.85327477E+01
  0
LINE
  8
0
 62
6
 10
3.69422778E+01
 20
3.95327477E+01
 11
3.69422778E+01
 21
3.85327477E+01
  0
LINE
  8
0
  6
CENTER
 62
6
 10
-1.18177221E+01
 20
4.38427477E+01
 11
-1.18177221E+01
 21
1.07980886E+01
  0
LINE
  8
0
 62
4
 10
-1.03177221E+01
 20
3.95327477E+01
 11
-1.03177221E+01
 21
3.85327477E+01
  0
LINE
  8
0
 62
4
 10
-1.33177221E+01
 20
3.95327477E+01
 11
-1.33177221E+01
 21
3.85327477E+01
  0
LINE
  8
0
 62
6
 10
-1.05877221E+01
 20
3.95327477E+01
 11
-1.05877221E+01
 21
3.85327477E+01
  0
LINE
  8
0
 62
6
 10
-1.30477221E+01
 20
3.95327477E+01
 11
-1.30477221E+01
 21
3.85327477E+01
  0
LINE
  8
0
 62
7
 10
4.51722778E+01
 20
2.90327477E+01
 11
6.31722829E+01
 21
2.90327477E+01
  0
LINE
  8
0
 62
7
 10
4.26722778E+01
 20
1.20327477E+01
 11
6.31722829E+01
 21
1.20327477E+01
  0
LINE
  8
0
 62
7
 10
-7.31772212E+00
 20
1.20327477E+01
 11
3.36722778E+01
 21
1.20327477E+01
  0
LINE
  8
0
 62
7
 10
-4.81772212E+00
 20
2.90327477E+01
 11
3.11722778E+01
 21
2.90327477E+01
  0
LINE
  8
0
 62
4
 10
-4.81772212E+00
 20
3.38327477E+01
 11
6.82277877E-01
 21
3.38327477E+01
  0
LINE
  8
0
 62
4
 10
-4.81772212E+00
 20
2.98327477E+01
 11
6.82277877E-01
 21
2.98327477E+01
  0
LINE
  8
0
 62
4
 10
-1.88177221E+01
 20
3.16327477E+01
 11
-1.88177221E+01
 21
2.85646299E+01
  0
LINE
  8
0
 62
4
 10
-4.81772212E+00
 20
3.16327477E+01
 11
-4.81772212E+00
 21
2.85646299E+01
  0
LINE
  8
0
 62
4
 10
-1.63177221E+01
 20
3.20327477E+01
 11
-7.31772212E+00
 21
3.20327477E+01
  0
LINE
  8
0
 62
4
 10
-1.88177221E+01
 20
2.85646299E+01
 11
-1.63177221E+01
 21
2.85646299E+01
  0
LINE
  8
0
 62
4
 10
-4.81772214E+00
 20
2.85646299E+01
 11
-7.31772214E+00
 21
2.85646299E+01
  0
LINE
  8
0
 62
4
 10
-7.31772212E+00
 20
3.17327477E+01
 11
-7.31772212E+00
 21
3.85327477E+01
  0
LINE
  8
0
 62
4
 10
-1.63177221E+01
 20
3.17327477E+01
 11
-1.63177221E+01
 21
3.85327477E+01
  0
LINE
  8
0
 62
4
 10
-7.31772212E+00
 20
3.16327477E+01
 11
-4.81772212E+00
 21
3.16327477E+01
  0
LINE
  8
0
 62
4
 10
-7.31772212E+00
 20
3.20327477E+01
 11
-4.81772212E+00
 21
3.20327477E+01
  0
LINE
  8
0
 62
4
 10
-7.31772212E+00
 20
3.48327477E+01
 11
-4.81772212E+00
 21
3.48327477E+01
  0
LINE
  8
0
 62
4
 10
-1.88177221E+01
 20
3.16327477E+01
 11
-1.63177221E+01
 21
3.16327477E+01
  0
LINE
  8
0
 62
4
 10
-1.88177221E+01
 20
3.20327477E+01
 11
-1.63177221E+01
 21
3.20327477E+01
  0
LINE
  8
0
 62
4
 10
-1.88177221E+01
 20
3.48327477E+01
 11
-1.63177221E+01
 21
3.48327477E+01
  0
LINE
  8
0
 62
4
 10
-1.63177221E+01
 20
1.18827630E+01
 11
-7.31772212E+00
 21
1.18827630E+01
  0
LINE
  8
0
 62
4
 10
-4.81772212E+00
 20
3.48327477E+01
 11
-4.81772212E+00
 21
3.20327477E+01
  0
LINE
  8
0
 62
4
 10
-1.88177221E+01
 20
3.48327477E+01
 11
-1.88177221E+01
 21
3.20327477E+01
  0
LINE
  8
0
 62
4
 10
-2.43177221E+01
 20
3.28327477E+01
 11
-2.33177221E+01
 21
3.38327477E+01
  0
LINE
  8
0
 62
4
 10
-2.43177221E+01
 20
3.28327477E+01
 11
-2.43177221E+01
 21
3.08327477E+01
  0
LINE
  8
0
 62
4
 10
-1.63177221E+01
 20
3.85327477E+01
 11
-7.31772212E+00
 21
3.85327477E+01
  0
LINE
  8
0
 62
4
 10
-2.33177221E+01
 20
2.98327477E+01
 11
-1.88177221E+01
 21
2.98327477E+01
  0
LINE
  8
0
 62
4
 10
-2.33177221E+01
 20
3.38327477E+01
 11
-1.88177221E+01
 21
3.38327477E+01
  0
LINE
  8
0
 62
4
 10
-2.43177221E+01
 20
3.08327477E+01
 11
-2.33177221E+01
 21
2.98327477E+01
  0
LINE
  8
0
 62
4
 10
-2.33177221E+01
 20
3.38327477E+01
 11
-2.33177221E+01
 21
2.98327477E+01
  0
LINE
  8
0
 62
4
 10
-7.31772212E+00
 20
3.17327477E+01
 11
-7.31772212E+00
 21
1.18827630E+01
  0
LINE
  8
0
 62
4
 10
-1.63177221E+01
 20
3.17327477E+01
 11
-1.63177221E+01
 21
1.18827630E+01
  0
LINE
  8
0
 62
4
 10
6.82277877E-01
 20
3.38327477E+01
 11
3.68227788E+00
 21
3.31327477E+01
  0
LINE
  8
0
 62
4
 10
6.82277877E-01
 20
2.98327477E+01
 11
3.68227787E+00
 21
3.05327477E+01
  0
LINE
  8
0
 62
4
 10
6.82277877E-01
 20
3.38327477E+01
 11
6.82277877E-01
 21
2.98327477E+01
  0
LINE
  8
0
 62
6
 10
8.61927695E+00
 20
3.31327477E+01
 11
6.01927695E+00
 21
3.05327477E+01
  0
LINE
  8
0
 62
4
 10
3.68227787E+00
 20
3.05327477E+01
 11
6.01927695E+00
 21
3.05327477E+01
  0
LINE
  8
0
 62
4
 10
3.68227788E+00
 20
3.31327477E+01
 11
3.68227788E+00
 21
3.05327477E+01
  0
LINE
  8
0
 62
4
 10
3.68227787E+00
 20
3.31327477E+01
 11
8.61927695E+00
 21
3.31327477E+01
  0
LINE
  8
0
 62
4
 10
4.51722778E+01
 20
3.38327477E+01
 11
5.06722778E+01
 21
3.38327477E+01
  0
LINE
  8
0
 62
4
 10
4.51722778E+01
 20
2.98327477E+01
 11
5.06722778E+01
 21
2.98327477E+01
  0
LINE
  8
0
 62
4
 10
3.11722778E+01
 20
3.16327477E+01
 11
3.11722778E+01
 21
2.85646299E+01
  0
LINE
  8
0
 62
4
 10
4.51722778E+01
 20
3.16327477E+01
 11
4.51722778E+01
 21
2.85646299E+01
  0
LINE
  8
0
 62
4
 10
3.36722778E+01
 20
3.20327477E+01
 11
4.26722778E+01
 21
3.20327477E+01
  0
LINE
  8
0
 62
4
 10
3.11722779E+01
 20
2.85646299E+01
 11
3.36722779E+01
 21
2.85646299E+01
  0
LINE
  8
0
 62
4
 10
4.51722778E+01
 20
2.85646299E+01
 11
4.26722778E+01
 21
2.85646299E+01
  0
LINE
  8
0
 62
4
 10
4.26722778E+01
 20
3.17327477E+01
 11
4.26722778E+01
 21
3.85327477E+01
  0
LINE
  8
0
 62
4
 10
3.36722778E+01
 20
3.17327477E+01
 11
3.36722778E+01
 21
3.85327477E+01
  0
LINE
  8
0
 62
4
 10
4.26722778E+01
 20
3.16327477E+01
 11
4.51722778E+01
 21
3.16327477E+01
  0
LINE
  8
0
 62
4
 10
4.26722778E+01
 20
3.20327477E+01
 11
4.51722778E+01
 21
3.20327477E+01
  0
LINE
  8
0
 62
4
 10
4.26722778E+01
 20
3.48327477E+01
 11
4.51722778E+01
 21
3.48327477E+01
  0
LINE
  8
0
 62
4
 10
3.11722778E+01
 20
3.16327477E+01
 11
3.36722778E+01
 21
3.16327477E+01
  0
LINE
  8
0
 62
4
 10
3.11722778E+01
 20
3.20327477E+01
 11
3.36722778E+01
 21
3.20327477E+01
  0
LINE
  8
0
 62
4
 10
3.11722778E+01
 20
3.48327477E+01
 11
3.36722778E+01
 21
3.48327477E+01
  0
LINE
  8
0
 62
4
 10
3.36722778E+01
 20
1.18827630E+01
 11
4.26722778E+01
 21
1.18827630E+01
  0
LINE
  8
0
 62
4
 10
4.51722778E+01
 20
3.48327477E+01
 11
4.51722778E+01
 21
3.20327477E+01
  0
LINE
  8
0
 62
4
 10
3.11722778E+01
 20
3.48327477E+01
 11
3.11722778E+01
 21
3.20327477E+01
  0
LINE
  8
0
 62
4
 10
2.56722778E+01
 20
3.28327477E+01
 11
2.66722778E+01
 21
3.38327477E+01
  0
LINE
  8
0
 62
4
 10
2.56722778E+01
 20
3.28327477E+01
 11
2.56722778E+01
 21
3.08327477E+01
  0
LINE
  8
0
 62
4
 10
3.36722778E+01
 20
3.85327477E+01
 11
4.26722778E+01
 21
3.85327477E+01
  0
LINE
  8
0
 62
4
 10
2.66722778E+01
 20
2.98327477E+01
 11
3.11722778E+01
 21
2.98327477E+01
  0
LINE
  8
0
 62
4
 10
2.66722778E+01
 20
3.38327477E+01
 11
3.11722778E+01
 21
3.38327477E+01
  0
LINE
  8
0
 62
4
 10
2.56722778E+01
 20
3.08327477E+01
 11
2.66722778E+01
 21
2.98327477E+01
  0
LINE
  8
0
 62
4
 10
2.66722778E+01
 20
3.38327477E+01
 11
2.66722778E+01
 21
2.98327477E+01
  0
LINE
  8
0
 62
4
 10
4.26722778E+01
 20
3.17327477E+01
 11
4.26722778E+01
 21
1.18827630E+01
  0
LINE
  8
0
 62
4
 10
3.36722778E+01
 20
3.17327477E+01
 11
3.36722778E+01
 21
1.18827630E+01
  0
LINE
  8
0
 62
4
 10
5.06722778E+01
 20
3.38327477E+01
 11
5.36722778E+01
 21
3.31327477E+01
  0
LINE
  8
0
 62
4
 10
5.06722778E+01
 20
2.98327477E+01
 11
5.36722778E+01
 21
3.05327477E+01
  0
LINE
  8
0
 62
4
 10
5.06722778E+01
 20
3.38327477E+01
 11
5.06722778E+01
 21
2.98327477E+01
  0
LINE
  8
0
 62
6
 10
5.86092769E+01
 20
3.31327477E+01
 11
5.60092769E+01
 21
3.05327477E+01
  0
LINE
  8
0
 62
4
 10
5.36722778E+01
 20
3.05327477E+01
 11
5.60092769E+01
 21
3.05327477E+01
  0
LINE
  8
0
 62
4
 10
5.36722778E+01
 20
3.31327477E+01
 11
5.36722778E+01
 21
3.05327477E+01
  0
LINE
  8
0
 62
4
 10
5.36722778E+01
 20
3.31327477E+01
 11
5.86092769E+01
 21
3.31327477E+01
  0
LINE
  8
0
 62
7
 10
6.31722829E+01
 20
2.90327477E+01
 11
6.31722829E+01
 21
1.20327477E+01
  0
LINE
  8
0
 62
7
 10
-4.38177221E+01
 20
2.90327477E+01
 11
-4.38177221E+01
 21
1.20327477E+01
  0
LINE
  8
0
 62
7
 10
4.86722779E+01
 20
2.90327477E+01
 11
4.86722779E+01
 21
1.20327477E+01
  0
LINE
  8
0
 62
7
 10
-4.38177221E+01
 20
1.20327477E+01
 11
-1.63177221E+01
 21
1.20327477E+01
  0
LINE
  8
0
 62
7
 10
-4.20677221E+01
 20
1.62927477E+01
 11
-3.43477221E+01
 21
1.62927477E+01
  0
LINE
  8
0
 62
7
 10
-4.20677221E+01
 20
1.62927477E+01
 11
-4.20677221E+01
 21
1.20327477E+01
  0
LINE
  8
0
 62
7
 10
-2.90677221E+01
 20
1.62927477E+01
 11
-2.90677221E+01
 21
1.20327477E+01
  0
LINE
  8
0
 62
7
 10
5.04222779E+01
 20
1.62927477E+01
 11
5.04222779E+01
 21
1.20327477E+01
  0
LINE
  8
0
 62
7
 10
6.14222779E+01
 20
1.62927477E+01
 11
6.14222779E+01
 21
1.20327477E+01
  0
LINE
  8
0
 62
7
 10
5.04222779E+01
 20
1.62927477E+01
 11
5.26422779E+01
 21
1.62927477E+01
  0
LINE
  8
0
 62
7
 10
-2.73177221E+01
 20
1.20327477E+01
 11
-2.73177221E+01
 21
2.90327477E+01
  0
LINE
  8
0
 62
7
 10
-4.38177221E+01
 20
2.90327477E+01
 11
-1.88177221E+01
 21
2.90327477E+01
  0
LINE
  8
0
 62
7
 10
-4.20677221E+01
 20
2.47827477E+01
 11
-2.90677221E+01
 21
2.47827477E+01
  0
LINE
  8
0
 62
7
 10
-4.20677221E+01
 20
2.47827477E+01
 11
-4.20677221E+01
 21
2.90327477E+01
  0
LINE
  8
0
 62
7
 10
-2.90677221E+01
 20
2.47827477E+01
 11
-2.90677221E+01
 21
2.90327477E+01
  0
LINE
  8
0
 62
7
 10
5.04222779E+01
 20
2.47827477E+01
 11
5.04222779E+01
 21
2.90327477E+01
  0
LINE
  8
0
 62
7
 10
6.14222779E+01
 20
2.47827477E+01
 11
6.14222779E+01
 21
2.90327477E+01
  0
LINE
  8
0
 62
7
 10
5.04222779E+01
 20
2.47827477E+01
 11
6.14222779E+01
 21
2.47827477E+01
  0
LINE
  8
0
 62
7
 10
-3.12977221E+01
 20
1.62927477E+01
 11
-2.90677221E+01
 21
1.62927477E+01
  0
LINE
  8
0
 62
7
 10
5.57022779E+01
 20
1.62927477E+01
 11
6.14222779E+01
 21
1.62927477E+01
  0
ARC
  8
0
 62
7
 10
5.46927660E+01
 20
2.05364751E+01
 40
6.02048924E+00
 50
1.80035473E+02
 51
2.24819917E+02
  0
ARC
  8
0
 62
7
 10
5.71589069E+01
 20
2.05335376E+01
 40
6.01337101E+00
 50
3.15152137E+02
 51
3.59992474E+02
  0
ARC
  8
0
 62
7
 10
5.71553852E+01
 20
2.05404978E+01
 40
6.01689769E+00
 50
0.00000000E+00
 51
4.48340700E+01
  0
ARC
  8
0
 62
7
 10
5.46962884E+01
 20
2.05375669E+01
 40
6.02401246E+00
 50
1.35193893E+02
 51
1.80045836E+02
  0
ARC
  8
0
 62
7
 10
-3.33431616E+01
 20
2.05369785E+01
 40
6.02544098E+00
 50
3.15209881E+02
 51
4.48005007E+01
  0
ARC
  8
0
 62
7
 10
-3.78022580E+01
 20
2.05410860E+01
 40
6.01546987E+00
 50
1.35160310E+02
 51
2.24884748E+02
  0
CIRCLE
  8
0
 62
7
 10
5.81722829E+01
 20
2.05327477E+01
 40
2.06700000E+00
  0
CIRCLE
  8
0
 62
7
 10
-3.68177221E+01
 20
2.05327477E+01
 40
2.06700000E+00
  0
LINE
  8
0
  6
CENTER
 62
2
 10
-3.68177221E+01
 20
2.41927477E+01
 11
-3.68177221E+01
 21
1.68527477E+01
  0
CIRCLE
  8
0
 62
2
 10
-3.68235504E+01
 20
2.05327492E+01
 40
2.50000000E+00
  0
ARC
  8
0
 62
4
 10
-6.57455213E+01
 20
2.05370392E+01
 40
1.99577996E+01
 50
3.59987680E+02
 51
1.14905173E+01
  0
ARC
  8
0
 62
4
 10
-6.57445254E+01
 20
2.05383576E+01
 40
1.99568041E+01
 50
3.48509191E+02
 51
3.59983894E+02
  0
ARC
  8
0
 62
4
 10
-2.98394397E+01
 20
2.05374991E+01
 40
1.99482829E+01
 50
1.80013647E+02
 51
1.91493268E+02
  0
ARC
  8
0
 62
4
 10
-4.45287713E+01
 20
1.45509913E+01
 40
5.25895115E+00
 50
1.57508928E+02
 51
1.79980864E+02
  0
ARC
  8
0
 62
4
 10
-5.10539466E+01
 20
1.45459605E+01
 40
5.26622888E+00
 50
3.37524561E+02
 51
7.38440165E-02
  0
ARC
  8
0
 62
4
 10
-4.45297800E+01
 20
1.45443204E+01
 40
5.25794885E+00
 50
1.79908168E+02
 51
2.02493428E+02
  0
ARC
  8
0
 62
4
 10
-5.10530381E+01
 20
2.65257708E+01
 40
5.26531686E+00
 50
3.37522688E+02
 51
3.59967104E+02
  0
ARC
  8
0
 62
4
 10
-5.10539477E+01
 20
2.65195436E+01
 40
5.26622655E+00
 50
3.48600779E-02
 51
2.24753479E+01
  0
ARC
  8
0
 62
4
 10
-4.45297758E+01
 20
2.65211912E+01
 40
5.25794651E+00
 50
1.57506753E+02
 51
1.79983039E+02
  0
ARC
  8
0
 62
4
 10
-4.45306869E+01
 20
2.65241229E+01
 40
5.25703545E+00
 50
1.80014988E+02
 51
2.02495220E+02
  0
ARC
  8
0
 62
4
 10
-2.98384439E+01
 20
2.05378956E+01
 40
1.99492789E+01
 50
1.68507018E+02
 51
1.80014785E+02
  0
ARC
  8
0
 62
4
 10
-5.10549507E+01
 20
1.45493440E+01
 40
5.26722966E+00
 50
3.70246508E-02
 51
2.24731834E+01
  0
ARC
  8
0
 62
4
 10
-6.53465889E+01
 20
2.39151951E+01
 40
1.49888586E+00
 50
2.88704672E-01
 51
4.82097042E+01
  0
ARC
  8
0
 62
4
 10
-6.53466083E+01
 20
1.71502862E+01
 40
1.49888818E+00
 50
3.11791208E+02
 51
9.40935745E-02
  0
ARC
  8
0
 62
4
 10
-6.53471725E+01
 20
1.71449322E+01
 40
1.49947071E+00
 50
2.98635695E-01
 51
4.81997731E+01
  0
ARC
  8
0
 62
4
 10
-6.92658664E+01
 20
2.05361055E+01
 40
5.41814532E+00
 50
3.35191782E+02
 51
3.59964492E+02
  0
ARC
  8
0
 62
4
 10
-6.53434620E+01
 20
2.39288918E+01
 40
1.49575246E+00
 50
3.11736944E+02
 51
3.59764647E+02
  0
ARC
  8
0
 62
4
 10
-6.92679622E+01
 20
2.05389231E+01
 40
5.42024357E+00
 50
3.59934721E+02
 51
2.48034017E+01
  0
ARC
  8
0
 62
4
 10
-6.63636175E+01
 20
2.39218447E+01
 40
1.48410487E+00
 50
1.31536451E+02
 51
1.79965140E+02
  0
ARC
  8
0
 62
4
 10
-6.63667757E+01
 20
2.39222280E+01
 40
1.48094647E+00
 50
1.79979895E+02
 51
2.28518513E+02
  0
ARC
  8
0
 62
4
 10
-6.63636426E+01
 20
1.71436760E+01
 40
1.48410722E+00
 50
1.79649775E+02
 51
2.28464923E+02
  0
ARC
  8
0
 62
4
 10
-6.63630282E+01
 20
1.71515793E+01
 40
1.48469438E+00
 50
1.31546682E+02
 51
1.79954909E+02
  0
ARC
  8
0
 62
4
 10
-6.24465293E+01
 20
2.05323717E+01
 40
5.40119281E+00
 50
1.79996011E+02
 51
2.04847715E+02
  0
ARC
  8
0
 62
4
 10
-6.24444338E+01
 20
2.05426406E+01
 40
5.40329733E+00
 50
1.55156974E+02
 51
1.80104903E+02
  0
LINE
  8
0
 62
4
 10
-4.57877221E+01
 20
2.65227477E+01
 11
-4.57877221E+01
 21
1.45527477E+01
  0
LINE
  8
0
 62
4
 10
-4.93877221E+01
 20
1.25327477E+01
 11
-4.61877221E+01
 21
1.25327477E+01
  0
LINE
  8
0
 62
4
 10
-4.93877221E+01
 20
1.65627477E+01
 11
-4.61877221E+01
 21
1.65627477E+01
  0
LINE
  8
0
 62
4
 10
-4.97877221E+01
 20
2.65227477E+01
 11
-4.97877221E+01
 21
1.45527477E+01
  0
LINE
  8
0
 62
4
 10
-4.93877221E+01
 20
2.45127477E+01
 11
-4.61877221E+01
 21
2.45127477E+01
  0
LINE
  8
0
 62
4
 10
-4.93877221E+01
 20
2.85327477E+01
 11
-4.61877221E+01
 21
2.85327477E+01
  0
LINE
  8
0
 62
4
 10
-6.73477221E+01
 20
1.82627477E+01
 11
-6.43477221E+01
 21
1.82627477E+01
  0
LINE
  8
0
 62
4
 10
-6.73477221E+01
 20
2.28127477E+01
 11
-6.43477221E+01
 21
2.28127477E+01
  0
LINE
  8
0
 62
7
 10
-6.38477221E+01
 20
2.30327477E+01
 11
-5.18177221E+01
 21
2.30327477E+01
  0
LINE
  8
0
 62
7
 10
-6.38477221E+01
 20
1.80327477E+01
 11
-5.18177221E+01
 21
1.80327477E+01
  0
LINE
  8
0
 62
4
 10
-6.73477221E+01
 20
2.50327477E+01
 11
-6.43477221E+01
 21
2.50327477E+01
  0
LINE
  8
0
 62
4
 10
-6.73477221E+01
 20
1.60327477E+01
 11
-6.43477221E+01
 21
1.60327477E+01
  0
LINE
  8
0
 62
4
 10
-6.38477221E+01
 20
2.39227477E+01
 11
-6.38477221E+01
 21
1.71527477E+01
  0
LINE
  8
0
 62
4
 10
-6.78477221E+01
 20
2.39227477E+01
 11
-6.78477221E+01
 21
1.71527477E+01
  0
LINE
  8
0
 62
7
 10
-7.13177221E+01
 20
2.30327477E+01
 11
-7.13177221E+01
 21
1.80327477E+01
  0
LINE
  8
0
 62
7
 10
-7.18177221E+01
 20
1.85327477E+01
 11
-7.13177221E+01
 21
1.80327477E+01
  0
LINE
  8
0
 62
7
 10
-7.18177221E+01
 20
2.25327477E+01
 11
-7.13177221E+01
 21
2.30327477E+01
  0
LINE
  8
0
 62
7
 10
-5.68177221E+01
 20
2.30327477E+01
 11
-5.68177221E+01
 21
1.80327477E+01
  0
LINE
  8
0
 62
7
 10
-7.18177221E+01
 20
2.25327477E+01
 11
-7.18177221E+01
 21
1.85327477E+01
  0
LINE
  8
0
 62
7
 10
-7.13177221E+01
 20
1.80327477E+01
 11
-6.78477221E+01
 21
1.80327477E+01
  0
LINE
  8
0
 62
7
 10
-7.13177221E+01
 20
2.30327477E+01
 11
-6.78477221E+01
 21
2.30327477E+01
  0
LINE
  8
0
 62
7
 10
-5.08177221E+01
 20
2.55327477E+01
 11
-5.08177221E+01
 21
1.55327477E+01
  0
LINE
  8
0
 62
7
 10
-4.53177221E+01
 20
2.55327477E+01
 11
-4.53177221E+01
 21
1.55327477E+01
  0
LINE
  8
0
 62
7
 10
-5.18177221E+01
 20
1.65327477E+01
 11
-5.08177221E+01
 21
1.55327477E+01
  0
LINE
  8
0
 62
7
 10
-5.18177221E+01
 20
2.45327477E+01
 11
-5.08177221E+01
 21
2.55327477E+01
  0
LINE
  8
0
 62
7
 10
-5.08177221E+01
 20
2.55327477E+01
 11
-4.97877221E+01
 21
2.55327477E+01
  0
LINE
  8
0
 62
7
 10
-5.08177221E+01
 20
1.55327477E+01
 11
-4.97877221E+01
 21
1.55327477E+01
  0
LINE
  8
0
 62
7
 10
-5.18177221E+01
 20
2.45327477E+01
 11
-5.18177221E+01
 21
1.65327477E+01
  0
LINE
  8
0
 62
2
 10
-7.17507221E+01
 20
1.84657477E+01
 11
-6.78477221E+01
 21
1.84657477E+01
  0
LINE
  8
0
 62
2
 10
-7.17507221E+01
 20
2.25997477E+01
 11
-6.78477221E+01
 21
2.25997477E+01
  0
LINE
  8
0
 62
2
 10
-6.38477221E+01
 20
2.25997477E+01
 11
-5.68177221E+01
 21
2.25997477E+01
  0
LINE
  8
0
 62
2
 10
-6.38477221E+01
 20
1.84657477E+01
 11
-5.68177221E+01
 21
1.84657477E+01
  0
LINE
  8
0
 62
2
 10
-5.16297221E+01
 20
2.47207477E+01
 11
-4.97877221E+01
 21
2.47207477E+01
  0
LINE
  8
0
 62
2
 10
-5.16297221E+01
 20
1.63447477E+01
 11
-4.97877221E+01
 21
1.63447477E+01
  0
LINE
  8
0
 62
2
 10
-4.57877221E+01
 20
2.47207477E+01
 11
-4.53177221E+01
 21
2.47207477E+01
  0
LINE
  8
0
 62
2
 10
-4.57877221E+01
 20
1.63447477E+01
 11
-4.53177221E+01
 21
1.63447477E+01
  0
LINE
  8
0
  6
CENTER
 62
2
 10
-7.39413424E+01
 20
2.05327477E+01
 11
7.26772646E+01
 21
2.05327477E+01
  0
LINE
  8
0
 62
7
 10
-4.57877221E+01
 20
2.55327477E+01
 11
-4.38177221E+01
 21
2.55327477E+01
  0
LINE
  8
0
 62
7
 10
-4.57877221E+01
 20
1.55327477E+01
 11
-4.38177221E+01
 21
1.55327477E+01
  0
LINE
  8
0
  6
CENTER
 62
2
 10
5.81722829E+01
 20
2.48127477E+01
 11
5.81722829E+01
 21
1.64127477E+01
  0
LINE
  8
0
 62
7
 10
-3.40277221E+01
 20
1.51327477E+01
 11
-3.16077221E+01
 21
1.51327477E+01
  0
LINE
  8
0
 62
7
 10
-3.40277221E+01
 20
1.57327477E+01
 11
-3.16077221E+01
 21
1.57327477E+01
  0
LINE
  8
0
  6
CENTER
 62
2
 10
-3.28177221E+01
 20
1.77627477E+01
 11
-3.28177221E+01
 21
1.29727477E+01
  0
LINE
  8
0
 62
2
 10
-3.52808154E+01
 20
1.54327477E+01
 11
-3.05877221E+01
 21
1.54327477E+01
  0
LINE
  8
0
 62
7
 10
5.29622779E+01
 20
1.51327477E+01
 11
5.53822779E+01
 21
1.51327477E+01
  0
LINE
  8
0
 62
7
 10
5.29622779E+01
 20
1.57327477E+01
 11
5.53822779E+01
 21
1.57327477E+01
  0
LINE
  8
0
  6
CENTER
 62
2
 10
5.41722779E+01
 20
1.77627477E+01
 11
5.41722779E+01
 21
1.29727477E+01
  0
LINE
  8
0
 62
2
 10
5.15908573E+01
 20
1.54327477E+01
 11
5.64022779E+01
 21
1.54327477E+01
  0
CIRCLE
  8
0
 62
7
 10
-3.28235504E+01
 20
1.54327488E+01
 40
1.75000000E+00
  0
CIRCLE
  8
0
 62
7
 10
-3.28235504E+01
 20
1.54327488E+01
 40
1.25000000E+00
  0
CIRCLE
  8
0
 62
7
 10
5.41764496E+01
 20
1.54327488E+01
 40
1.75000000E+00
  0
CIRCLE
  8
0
 62
7
 10
5.41764496E+01
 20
1.54327488E+01
 40
1.25000000E+00
  0
CIRCLE
  8
0
 62
2
 10
5.81764394E+01
 20
2.05327492E+01
 40
2.50000000E+00
  0
ARC
  8
0
 62
4
 10
-1.03193878E+01
 20
4.00310820E+01
 40
1.00166704E+00
 50
9.52762946E-02
 51
8.99047236E+01
  0
ARC
  8
0
 62
4
 10
-1.33169306E+01
 20
4.00319562E+01
 40
1.00079180E+00
 50
9.00000002E+01
 51
1.79954687E+02
  0
LINE
  8
0
 62
4
 10
-1.33177221E+01
 20
4.10327477E+01
 11
-1.03177221E+01
 21
4.10327477E+01
  0
LINE
  8
0
 62
4
 10
-1.43177221E+01
 20
3.95327477E+01
 11
-9.31772212E+00
 21
3.95327477E+01
  0
LINE
  8
0
 62
4
 10
-9.31772212E+00
 20
4.00327477E+01
 11
-9.31772212E+00
 21
3.95327477E+01
  0
LINE
  8
0
 62
4
 10
-1.43177221E+01
 20
4.00327477E+01
 11
-1.43177221E+01
 21
3.95327477E+01
  0
ARC
  8
0
 62
4
 10
3.96706122E+01
 20
4.00310820E+01
 40
1.00166704E+00
 50
9.52762946E-02
 51
8.99047236E+01
  0
ARC
  8
0
 62
4
 10
3.66730693E+01
 20
4.00319562E+01
 40
1.00079180E+00
 50
9.00000002E+01
 51
1.79954687E+02
  0
LINE
  8
0
 62
4
 10
3.66722778E+01
 20
4.10327477E+01
 11
3.96722778E+01
 21
4.10327477E+01
  0
LINE
  8
0
 62
4
 10
3.56722778E+01
 20
3.95327477E+01
 11
4.06722778E+01
 21
3.95327477E+01
  0
LINE
  8
0
 62
4
 10
4.06722778E+01
 20
4.00327477E+01
 11
4.06722778E+01
 21
3.95327477E+01
  0
LINE
  8
0
 62
4
 10
3.56722778E+01
 20
4.00327477E+01
 11
3.56722778E+01
 21
3.95327477E+01
  0
TEXT
  8
0
 62
7
 10
-5.15365962E+00
 20
1.31327630E+01
 40
1.50000000E+00
  1
PBDACS16
 41
1.00000000E+00
  7
MONOTXT
  0
LINE
  8
0
 62
4
 10
6.59322829E+01
 20
1.25404978E+01
 11
6.91322829E+01
 21
1.25404978E+01
  0
LINE
  8
0
 62
4
 10
6.59322829E+01
 20
2.85404978E+01
 11
6.91322829E+01
 21
2.85404978E+01
  0
LINE
  8
0
 62
7
 10
6.95322829E+01
 20
1.55404978E+01
 11
7.01722829E+01
 21
1.55404978E+01
  0
LINE
  8
0
 62
7
 10
6.31722829E+01
 20
1.55404978E+01
 11
6.55322829E+01
 21
1.55404978E+01
  0
ARC
  8
0
 62
4
 10
7.07998455E+01
 20
1.45539679E+01
 40
5.26756375E+00
 50
1.80037745E+02
 51
2.02472463E+02
  0
ARC
  8
0
 62
4
 10
7.07998468E+01
 20
2.65270197E+01
 40
5.26756798E+00
 50
1.57527464E+02
 51
1.80070940E+02
  0
ARC
  8
0
 62
4
 10
6.42756789E+01
 20
2.65291900E+01
 40
5.25661112E+00
 50
3.59905256E+02
 51
2.24963394E+01
  0
ARC
  8
0
 62
4
 10
6.42756762E+01
 20
1.45517876E+01
 40
5.25660688E+00
 50
3.37503852E+02
 51
3.59985940E+02
  0
ARC
  8
0
 62
4
 10
4.95843815E+01
 20
2.05352115E+01
 40
1.99479021E+01
 50
3.48506619E+02
 51
1.51836672E-02
  0
ARC
  8
0
 62
4
 10
4.95853783E+01
 20
2.05358852E+01
 40
1.99469051E+01
 50
1.32491591E-02
 51
1.14936665E+01
  0
ARC
  8
0
 62
4
 10
8.54914372E+01
 20
2.05363424E+01
 40
1.99591548E+01
 50
1.79988071E+02
 51
1.91490126E+02
  0
ARC
  8
0
 62
4
 10
8.54904404E+01
 20
2.05347514E+01
 40
1.99581583E+01
 50
1.68509581E+02
 51
1.79983503E+02
  0
LINE
  8
0
 62
7
 10
6.95322829E+01
 20
2.55404978E+01
 11
7.01722829E+01
 21
2.55404978E+01
  0
LINE
  8
0
 62
7
 10
7.01722829E+01
 20
2.55404978E+01
 11
7.11722829E+01
 21
2.45404978E+01
  0
LINE
  8
0
 62
7
 10
7.11722829E+01
 20
2.45404978E+01
 11
7.11722829E+01
 21
1.65404978E+01
  0
LINE
  8
0
 62
7
 10
6.31722829E+01
 20
2.55404978E+01
 11
6.55322829E+01
 21
2.55404978E+01
  0
LINE
  8
0
 62
4
 10
6.59322829E+01
 20
2.45104978E+01
 11
6.91322829E+01
 21
2.45104978E+01
  0
LINE
  8
0
 62
4
 10
6.59322829E+01
 20
1.65604978E+01
 11
6.91322829E+01
 21
1.65604978E+01
  0
LINE
  8
0
 62
2
 10
6.46722829E+01
 20
1.63524978E+01
 11
6.55322829E+01
 21
1.63524978E+01
  0
LINE
  8
0
 62
2
 10
6.46722829E+01
 20
2.47284978E+01
 11
6.55322829E+01
 21
2.47284978E+01
  0
LINE
  8
0
 62
2
 10
6.95322829E+01
 20
2.47284978E+01
 11
7.09842829E+01
 21
2.47284978E+01
  0
LINE
  8
0
 62
2
 10
6.95322829E+01
 20
1.63524978E+01
 11
7.09842829E+01
 21
1.63524978E+01
  0
LINE
  8
0
 62
4
 10
6.55322829E+01
 20
2.65204978E+01
 11
6.55322829E+01
 21
1.45504978E+01
  0
LINE
  8
0
 62
4
 10
6.95322829E+01
 20
2.65204978E+01
 11
6.95322829E+01
 21
1.45504978E+01
  0
LINE
  8
0
 62
7
 10
7.01722829E+01
 20
1.55404978E+01
 11
7.11722829E+01
 21
1.65404978E+01
  0
LINE
  8
0
 62
7
 10
7.01722829E+01
 20
2.55404978E+01
 11
7.01722829E+01
 21
1.55404978E+01
  0
LINE
  8
0
 62
7
 10
6.46722829E+01
 20
2.55404978E+01
 11
6.46722829E+01
 21
1.55404978E+01
  0
ARC
  8
0
 62
4
 10
7.07989380E+01
 20
1.45472082E+01
 40
5.26665618E+00
 50
1.57525579E+02
 51
1.79964213E+02
  0
ARC
  8
0
 62
4
 10
7.08008489E+01
 20
2.65241676E+01
 40
5.26856735E+00
 50
1.80039910E+02
 51
2.02470298E+02
  0
ARC
  8
0
 62
4
 10
6.42746706E+01
 20
2.65219878E+01
 40
5.25761248E+00
 50
3.37506029E+02
 51
3.59983763E+02
  0
ARC
  8
0
 62
4
 10
6.42765855E+01
 20
1.45493888E+01
 40
5.25569749E+00
 50
1.20891728E-02
 51
2.24981188E+01
  0
LINE
  8
0
  6
CENTER
 62
2
 10
-9.76777221E+01
 20
4.26936069E+01
 11
-9.76777221E+01
 21
9.15760864E+00
  0
ARC
  8
0
 62
4
 10
-9.76777221E+01
 20
2.05327477E+01
 40
8.65000000E+00
 50
1.69314255E+02
 51
1.90685745E+02
  0
ARC
  8
0
 62
4
 10
-9.76777221E+01
 20
2.05327477E+01
 40
8.65000000E+00
 50
2.59314255E+02
 51
2.80685745E+02
  0
LINE
  8
0
 62
4
 10
-9.61777221E+01
 20
3.58327477E+01
 11
-9.64777221E+01
 21
3.55327477E+01
  0
LINE
  8
0
 62
4
 10
-9.91777221E+01
 20
3.58327477E+01
 11
-9.88777221E+01
 21
3.55327477E+01
  0
LINE
  8
0
 62
4
 10
-9.66777221E+01
 20
2.95327477E+01
 11
-9.86777221E+01
 21
2.95327477E+01
  0
LINE
  8
0
 62
4
 10
-9.63777221E+01
 20
3.05327477E+01
 11
-9.89777221E+01
 21
3.05327477E+01
  0
LINE
  8
0
 62
4
 10
-9.63777221E+01
 20
3.05327477E+01
 11
-9.56277221E+01
 21
2.98327477E+01
  0
LINE
  8
0
 62
4
 10
-1.04584114E+02
 20
2.72523091E+01
 11
-1.05059454E+02
 21
2.74073961E+01
  0
LINE
  8
0
 62
4
 10
-1.03343418E+02
 20
3.10550284E+01
 11
-1.03200816E+02
 21
3.10085023E+01
  0
LINE
  8
0
 62
4
 10
-1.02602722E+02
 20
3.49372518E+01
 11
-1.05059454E+02
 21
2.74073961E+01
  0
LINE
  8
0
 62
4
 10
-1.03200831E+02
 20
3.10084575E+01
 11
-1.04441776E+02
 21
2.72049738E+01
  0
LINE
  8
0
 62
4
 10
-1.02102722E+02
 20
3.48577477E+01
 11
-1.04681782E+02
 21
2.69529558E+01
  0
LINE
  8
0
 62
4
 10
-9.41777221E+01
 20
3.20327477E+01
 11
-9.20327084E+01
 21
2.81777670E+01
  0
LINE
  8
0
 62
4
 10
-9.43277221E+01
 20
3.20327477E+01
 11
-9.22989851E+01
 21
2.83673944E+01
  0
ARC
  8
0
 62
4
 10
-9.76777221E+01
 20
2.05327477E+01
 40
8.65000000E+00
 50
3.49314255E+02
 51
1.06857449E+01
  0
CIRCLE
  8
0
 62
4
 10
-9.76777221E+01
 20
3.18327477E+01
 40
1.30000000E+00
  0
LINE
  8
0
 62
4
 10
-9.41777221E+01
 20
3.85327477E+01
 11
-1.01177722E+02
 21
3.85327477E+01
  0
LINE
  8
0
 62
4
 10
-1.01177722E+02
 20
3.72327477E+01
 11
-1.01177722E+02
 21
3.13327477E+01
  0
LINE
  8
0
 62
4
 10
-9.41777221E+01
 20
3.72327477E+01
 11
-9.41777221E+01
 21
3.20327477E+01
  0
LINE
  8
0
 62
4
 10
-1.01977722E+02
 20
3.35305255E+01
 11
-1.02447240E+02
 21
3.38018027E+01
  0
LINE
  8
0
 62
4
 10
-1.02677722E+02
 20
3.68327477E+01
 11
-1.02677722E+02
 21
3.51477477E+01
  0
LINE
  8
0
 62
4
 10
-1.02677722E+02
 20
3.68327477E+01
 11
-1.03477722E+02
 21
3.68327477E+01
  0
LINE
  8
0
 62
4
 10
-9.99627221E+01
 20
3.77327477E+01
 11
-9.98227221E+01
 21
3.69327477E+01
  0
LINE
  8
0
 62
4
 10
-9.53927221E+01
 20
3.77327477E+01
 11
-9.55327221E+01
 21
3.69327477E+01
  0
LINE
  8
0
 62
4
 10
-9.55327221E+01
 20
3.69327477E+01
 11
-9.98227221E+01
 21
3.69327477E+01
  0
LINE
  8
0
 62
6
 10
-9.89077221E+01
 20
3.90327477E+01
 11
-9.89077221E+01
 21
3.85327477E+01
  0
LINE
  8
0
 62
6
 10
-9.64477221E+01
 20
3.90327477E+01
 11
-9.64477221E+01
 21
3.85327477E+01
  0
LINE
  8
0
 62
4
 10
-9.33777221E+01
 20
3.77327477E+01
 11
-9.33777221E+01
 21
3.20327477E+01
  0
LINE
  8
0
 62
4
 10
-1.01977722E+02
 20
3.13327477E+01
 11
-1.01977722E+02
 21
3.77327477E+01
  0
LINE
  8
0
 62
4
 10
-9.46777221E+01
 20
3.77327477E+01
 11
-1.00677722E+02
 21
3.77327477E+01
  0
LINE
  8
0
 62
4
 10
-1.03477722E+02
 20
3.68327477E+01
 11
-1.03477722E+02
 21
3.46877477E+01
  0
LINE
  8
0
 62
4
 10
-1.01977722E+02
 20
3.44567477E+01
 11
-1.02191827E+02
 21
3.45809285E+01
  0
LINE
  8
0
 62
4
 10
-9.43277221E+01
 20
3.72327477E+01
 11
-9.43277221E+01
 21
3.20327477E+01
  0
LINE
  8
0
 62
4
 10
-9.41777221E+01
 20
3.72327477E+01
 11
-9.43277221E+01
 21
3.72327477E+01
  0
LINE
  8
0
 62
4
 10
-9.44277221E+01
 20
3.55327477E+01
 11
-1.00927722E+02
 21
3.55327477E+01
  0
LINE
  8
0
 62
4
 10
-9.44277221E+01
 20
3.48327477E+01
 11
-1.00927722E+02
 21
3.48327477E+01
  0
LINE
  8
0
 62
4
 10
-1.02102722E+02
 20
3.73577477E+01
 11
-1.02102722E+02
 21
3.48577477E+01
  0
LINE
  8
0
 62
4
 10
-1.02602722E+02
 20
3.73577477E+01
 11
-1.02602722E+02
 21
3.49372518E+01
  0
LINE
  8
0
 62
4
 10
-1.02102722E+02
 20
3.73577477E+01
 11
-1.02602722E+02
 21
3.73577477E+01
  0
LINE
  8
0
 62
4
 10
-9.91777221E+01
 20
3.95327477E+01
 11
-9.91777221E+01
 21
3.85327477E+01
  0
LINE
  8
0
 62
4
 10
-9.61777221E+01
 20
3.95327477E+01
 11
-9.61777221E+01
 21
3.85327477E+01
  0
LINE
  8
0
 62
4
 10
-9.33777221E+01
 20
3.20327477E+01
 11
-9.41777221E+01
 21
3.20327477E+01
  0
LINE
  8
0
 62
4
 10
-1.01177722E+02
 20
3.13327477E+01
 11
-1.01977722E+02
 21
3.13327477E+01
  0
LINE
  8
0
 62
4
 10
-9.51777221E+01
 20
3.95327477E+01
 11
-1.00177722E+02
 21
3.95327477E+01
  0
LINE
  8
0
 62
4
 10
-9.61777221E+01
 20
4.10327477E+01
 11
-9.91777221E+01
 21
4.10327477E+01
  0
LINE
  8
0
 62
4
 10
-9.51777221E+01
 20
4.00327477E+01
 11
-9.51777221E+01
 21
3.95327477E+01
  0
LINE
  8
0
 62
4
 10
-1.00177722E+02
 20
4.00327477E+01
 11
-1.00177722E+02
 21
3.95327477E+01
  0
LINE
  8
0
 62
4
 10
-9.61777221E+01
 20
3.90327477E+01
 11
-9.91777221E+01
 21
3.90327477E+01
  0
ARC
  8
0
 62
4
 10
-9.41777254E+01
 20
3.77327444E+01
 40
8.00003254E-01
 50
2.33015759E-04
 51
9.00000002E+01
  0
ARC
  8
0
 62
4
 10
-1.01179385E+02
 20
3.77344103E+01
 40
7.98339134E-01
 50
8.98806771E+01
 51
1.80119323E+02
  0
ARC
  8
0
 62
4
 10
-9.46777264E+01
 20
3.72327434E+01
 40
5.00004290E-01
 50
4.91607912E-04
 51
9.00000002E+01
  0
ARC
  8
0
 62
4
 10
-1.00679385E+02
 20
3.72344103E+01
 40
4.98340176E-01
 50
8.98088454E+01
 51
1.80191155E+02
  0
ARC
  8
0
 62
4
 10
-1.02977518E+02
 20
3.46858820E+01
 40
5.00207143E-01
 50
1.79786293E+02
 51
2.39986760E+02
  0
ARC
  8
0
 62
4
 10
-1.02178870E+02
 20
3.51501034E+01
 40
4.98857363E-01
 50
1.80270562E+02
 51
2.09445368E+02
  0
ARC
  8
0
 62
4
 10
-9.91791344E+01
 20
4.00341600E+01
 40
9.98588677E-01
 50
8.99189656E+01
 51
1.80081034E+02
  0
ARC
  8
0
 62
4
 10
-9.61779749E+01
 20
4.00324949E+01
 40
1.00025280E+00
 50
1.44788446E-02
 51
9.00000002E+01
  0
LINE
  8
0
 62
4
 10
-1.00927722E+02
 20
3.55327477E+01
 11
-1.00927722E+02
 21
2.90327477E+01
  0
LINE
  8
0
 62
4
 10
-9.44277221E+01
 20
3.16327477E+01
 11
-9.44277221E+01
 21
2.90327477E+01
  0
LINE
  8
0
 62
4
 10
-9.44277221E+01
 20
3.16327477E+01
 11
-9.56277221E+01
 21
3.16327477E+01
  0
LINE
  8
0
 62
4
 10
-9.44277221E+01
 20
3.20327477E+01
 11
-9.56277221E+01
 21
3.20327477E+01
  0
LINE
  8
0
 62
4
 10
-9.44277221E+01
 20
3.55327477E+01
 11
-9.44277221E+01
 21
3.20327477E+01
  0
LINE
  8
0
 62
4
 10
-9.56277221E+01
 20
2.98327477E+01
 11
-9.97277221E+01
 21
2.98327477E+01
  0
LINE
  8
0
 62
4
 10
-9.56277221E+01
 20
3.38327477E+01
 11
-9.97277221E+01
 21
3.38327477E+01
  0
LINE
  8
0
 62
4
 10
-9.66777221E+01
 20
3.41327477E+01
 11
-9.86777221E+01
 21
3.41327477E+01
  0
LINE
  8
0
 62
4
 10
-9.63777221E+01
 20
3.31327477E+01
 11
-9.89777221E+01
 21
3.31327477E+01
  0
LINE
  8
0
 62
4
 10
-9.66777221E+01
 20
3.41327477E+01
 11
-9.66777221E+01
 21
3.38327477E+01
  0
LINE
  8
0
 62
4
 10
-9.66777221E+01
 20
2.98327477E+01
 11
-9.66777221E+01
 21
2.95327477E+01
  0
LINE
  8
0
 62
4
 10
-9.56277221E+01
 20
3.38327477E+01
 11
-9.56277221E+01
 21
2.98327477E+01
  0
LINE
  8
0
 62
4
 10
-9.63777221E+01
 20
3.31327477E+01
 11
-9.63777221E+01
 21
3.05327477E+01
  0
LINE
  8
0
 62
4
 10
-9.56277221E+01
 20
3.38327477E+01
 11
-9.63777221E+01
 21
3.31327477E+01
  0
LINE
  8
0
 62
4
 10
-9.97277221E+01
 20
3.38327477E+01
 11
-9.97277221E+01
 21
2.98327477E+01
  0
LINE
  8
0
 62
4
 10
-9.86777221E+01
 20
3.41327477E+01
 11
-9.86777221E+01
 21
3.38327477E+01
  0
LINE
  8
0
 62
4
 10
-9.86777221E+01
 20
2.98327477E+01
 11
-9.86777221E+01
 21
2.95327477E+01
  0
LINE
  8
0
 62
4
 10
-9.89777221E+01
 20
3.31327477E+01
 11
-9.89777221E+01
 21
3.05327477E+01
  0
LINE
  8
0
 62
4
 10
-9.89777221E+01
 20
3.31327477E+01
 11
-9.97277221E+01
 21
3.38327477E+01
  0
LINE
  8
0
 62
4
 10
-9.89777221E+01
 20
3.05327477E+01
 11
-9.97277221E+01
 21
2.98327477E+01
  0
LINE
  8
0
 62
4
 10
-9.61777221E+01
 20
3.69327477E+01
 11
-9.61777221E+01
 21
3.58327477E+01
  0
LINE
  8
0
 62
4
 10
-9.91777221E+01
 20
3.69327477E+01
 11
-9.91777221E+01
 21
3.58327477E+01
  0
LINE
  8
0
 62
6
 10
-9.64477221E+01
 20
3.69327477E+01
 11
-9.64477221E+01
 21
3.55627477E+01
  0
LINE
  8
0
 62
6
 10
-9.89077221E+01
 20
3.69327477E+01
 11
-9.89077221E+01
 21
3.55627477E+01
  0
LINE
  8
0
 62
4
 10
-1.02889761E+02
 20
3.40574812E+01
 11
-1.03227722E+02
 21
3.42527477E+01
  0
CIRCLE
  8
0
 62
4
 10
-9.76777221E+01
 20
2.05327492E+01
 40
4.00000000E+00
  0
CIRCLE
  8
0
 62
4
 10
-9.76777221E+01
 20
2.05327492E+01
 40
7.00000000E+00
  0
ARC
  8
0
 62
7
 10
-9.76827070E+01
 20
2.05277561E+01
 40
9.50105596E+00
 50
2.96605401E+02
 51
3.33529254E+02
  0
ARC
  8
0
 62
7
 10
-9.76777214E+01
 20
2.05327485E+01
 40
9.49882200E+00
 50
2.06511102E+02
 51
2.43488897E+02
  0
ARC
  8
0
 62
7
 10
-9.76827152E+01
 20
2.05277643E+01
 40
9.50105392E+00
 50
1.16470741E+02
 51
1.53394604E+02
  0
ARC
  8
0
 62
7
 10
-9.76777214E+01
 20
2.05327485E+01
 40
9.50328788E+00
 50
2.65650491E+01
 51
6.34349507E+01
  0
CIRCLE
  8
0
 62
7
 10
-9.76777221E+01
 20
2.05327492E+01
 40
2.50000000E+00
  0
LINE
  8
0
  6
CENTER
 62
2
 10
-1.08540517E+02
 20
2.05327477E+01
 11
-8.66411491E+01
 21
2.05327477E+01
  0
LINE
  8
0
 62
7
 10
-1.01917722E+02
 20
2.90327477E+01
 11
-9.34277221E+01
 21
2.90327477E+01
  0
LINE
  8
0
 62
7
 10
-1.01917722E+02
 20
1.20327477E+01
 11
-9.34277221E+01
 21
1.20327477E+01
  0
LINE
  8
0
 62
7
 10
-1.06177722E+02
 20
2.47827477E+01
 11
-1.06177722E+02
 21
1.62927477E+01
  0
LINE
  8
0
 62
7
 10
-8.91777221E+01
 20
2.47827477E+01
 11
-8.91777221E+01
 21
1.62927477E+01
  0
CIRCLE
  8
0
 62
2
 10
-9.76777221E+01
 20
2.05327477E+01
 40
2.06700000E+00
  0
LINE
  8
0
 62
4
 10
-1.01677723E+02
 20
2.28421495E+01
 11
-9.76777221E+01
 21
2.51515514E+01
  0
LINE
  8
0
 62
4
 10
-9.76777221E+01
 20
2.51515513E+01
 11
-9.36777208E+01
 21
2.28421495E+01
  0
LINE
  8
0
 62
4
 10
-9.36777208E+01
 20
2.28421495E+01
 11
-9.36777208E+01
 21
1.82233458E+01
  0
LINE
  8
0
 62
4
 10
-9.36777208E+01
 20
1.82233458E+01
 11
-9.76777221E+01
 21
1.59139440E+01
  0
LINE
  8
0
 62
4
 10
-9.76777221E+01
 20
1.59139440E+01
 11
-1.01677723E+02
 21
1.82233458E+01
  0
LINE
  8
0
 62
4
 10
-1.01677723E+02
 20
1.82233458E+01
 11
-1.01677723E+02
 21
2.28421495E+01
  0
LINE
  8
0
 62
4
 10
-1.04677723E+02
 20
2.45742003E+01
 11
-9.76777221E+01
 21
2.86156530E+01
  0
LINE
  8
0
 62
4
 10
-1.04677723E+02
 20
1.64912950E+01
 11
-1.04677723E+02
 21
2.45742003E+01
  0
LINE
  8
0
 62
4
 10
-9.76777221E+01
 20
1.24498424E+01
 11
-1.04677723E+02
 21
1.64912950E+01
  0
LINE
  8
0
 62
4
 10
-9.06777208E+01
 20
1.64912951E+01
 11
-9.76777221E+01
 21
1.24498424E+01
  0
LINE
  8
0
 62
4
 10
-9.06777208E+01
 20
2.45742004E+01
 11
-9.06777208E+01
 21
1.64912951E+01
  0
LINE
  8
0
 62
4
 10
-9.76777221E+01
 20
2.86156530E+01
 11
-9.06777208E+01
 21
2.45742004E+01
  0
CIRCLE
  8
0
 62
7
 10
-9.76777221E+01
 20
2.05327477E+01
 40
5.00000000E+00
  0
ARC
  8
0
 62
2
 10
-9.76777221E+01
 20
2.05327477E+01
 40
4.18800000E+00
 50
1.02767437E+02
 51
1.37232563E+02
  0
ARC
  8
0
 62
2
 10
-9.76777221E+01
 20
2.05327477E+01
 40
4.18800000E+00
 50
1.62767437E+02
 51
1.97232563E+02
  0
ARC
  8
0
 62
2
 10
-9.76777221E+01
 20
2.05327477E+01
 40
4.18800000E+00
 50
2.22767437E+02
 51
2.57232563E+02
  0
ARC
  8
0
 62
2
 10
-9.76777221E+01
 20
2.05327477E+01
 40
4.18800000E+00
 50
2.82767437E+02
 51
3.17232564E+02
  0
ARC
  8
0
 62
2
 10
-9.76777221E+01
 20
2.05327477E+01
 40
4.18800000E+00
 50
3.42767437E+02
 51
1.72325634E+01
  0
ARC
  8
0
 62
2
 10
-9.76777221E+01
 20
2.05327477E+01
 40
4.18800000E+00
 50
4.27674369E+01
 51
7.72325633E+01
  0
CIRCLE
  8
0
 62
7
 10
-9.76777221E+01
 20
2.05327477E+01
 40
8.50000000E+00
  0
LINE
  8
0
  6
CENTER
 62
2
 10
1.04482684E+02
 20
4.41389576E+01
 11
1.04482684E+02
 21
9.72601806E+00
  0
ARC
  8
0
 62
4
 10
1.04482684E+02
 20
2.05327477E+01
 40
8.65000000E+00
 50
2.59314255E+02
 51
2.80685745E+02
  0
ARC
  8
0
 62
4
 10
1.04482684E+02
 20
2.05327477E+01
 40
8.65000000E+00
 50
3.49314255E+02
 51
1.06857449E+01
  0
LINE
  8
0
 62
4
 10
1.02982684E+02
 20
3.58327477E+01
 11
1.03282684E+02
 21
3.55327477E+01
  0
LINE
  8
0
 62
4
 10
1.05982684E+02
 20
3.58327477E+01
 11
1.05682684E+02
 21
3.55327477E+01
  0
LINE
  8
0
 62
4
 10
1.03482684E+02
 20
2.95327477E+01
 11
1.05482684E+02
 21
2.95327477E+01
  0
LINE
  8
0
 62
4
 10
1.03182684E+02
 20
3.05327477E+01
 11
1.05782684E+02
 21
3.05327477E+01
  0
LINE
  8
0
 62
4
 10
1.03182684E+02
 20
3.05327477E+01
 11
1.02432684E+02
 21
2.98327477E+01
  0
LINE
  8
0
 62
4
 10
1.11389076E+02
 20
2.72523091E+01
 11
1.11864416E+02
 21
2.74073961E+01
  0
LINE
  8
0
 62
4
 10
1.10148380E+02
 20
3.10550284E+01
 11
1.10005778E+02
 21
3.10085023E+01
  0
LINE
  8
0
 62
4
 10
1.09407684E+02
 20
3.49372518E+01
 11
1.11864416E+02
 21
2.74073961E+01
  0
LINE
  8
0
 62
4
 10
1.10005793E+02
 20
3.10084575E+01
 11
1.11245224E+02
 21
2.72096156E+01
  0
LINE
  8
0
 62
4
 10
1.08907684E+02
 20
3.48577477E+01
 11
1.11485303E+02
 21
2.69573751E+01
  0
LINE
  8
0
 62
4
 10
1.00982684E+02
 20
3.20327477E+01
 11
9.88338221E+01
 21
2.81708505E+01
  0
LINE
  8
0
 62
4
 10
1.01132684E+02
 20
3.20327477E+01
 11
9.91001386E+01
 21
2.83605131E+01
  0
ARC
  8
0
 62
4
 10
1.04482684E+02
 20
2.05327477E+01
 40
8.65000000E+00
 50
1.69314255E+02
 51
1.90685745E+02
  0
CIRCLE
  8
0
 62
4
 10
1.04482684E+02
 20
3.18327477E+01
 40
1.30000000E+00
  0
LINE
  8
0
 62
4
 10
1.00982684E+02
 20
3.85327477E+01
 11
1.07982684E+02
 21
3.85327477E+01
  0
LINE
  8
0
 62
4
 10
1.07982684E+02
 20
3.72327477E+01
 11
1.07982684E+02
 21
3.13327477E+01
  0
LINE
  8
0
 62
4
 10
1.00982684E+02
 20
3.72327477E+01
 11
1.00982684E+02
 21
3.20327477E+01
  0
LINE
  8
0
 62
4
 10
1.08782684E+02
 20
3.35305255E+01
 11
1.09252203E+02
 21
3.38018027E+01
  0
LINE
  8
0
 62
4
 10
1.09482684E+02
 20
3.68327477E+01
 11
1.09482684E+02
 21
3.51477477E+01
  0
LINE
  8
0
 62
4
 10
1.09482684E+02
 20
3.68327477E+01
 11
1.10282684E+02
 21
3.68327477E+01
  0
LINE
  8
0
 62
4
 10
1.06767684E+02
 20
3.77327477E+01
 11
1.06627684E+02
 21
3.69327477E+01
  0
LINE
  8
0
 62
4
 10
1.02197684E+02
 20
3.77327477E+01
 11
1.02337684E+02
 21
3.69327477E+01
  0
LINE
  8
0
 62
4
 10
1.02337684E+02
 20
3.69327477E+01
 11
1.06627684E+02
 21
3.69327477E+01
  0
LINE
  8
0
 62
6
 10
1.05712684E+02
 20
3.90327477E+01
 11
1.05712684E+02
 21
3.85327477E+01
  0
LINE
  8
0
 62
6
 10
1.03252684E+02
 20
3.90327477E+01
 11
1.03252684E+02
 21
3.85327477E+01
  0
LINE
  8
0
 62
4
 10
1.00182684E+02
 20
3.77327477E+01
 11
1.00182684E+02
 21
3.20327477E+01
  0
LINE
  8
0
 62
4
 10
1.08782684E+02
 20
3.13327477E+01
 11
1.08782684E+02
 21
3.77327477E+01
  0
LINE
  8
0
 62
4
 10
1.01482684E+02
 20
3.77327477E+01
 11
1.07482684E+02
 21
3.77327477E+01
  0
LINE
  8
0
 62
4
 10
1.10282684E+02
 20
3.68327477E+01
 11
1.10282684E+02
 21
3.46877477E+01
  0
LINE
  8
0
 62
4
 10
1.08782684E+02
 20
3.44567477E+01
 11
1.08996789E+02
 21
3.45809285E+01
  0
LINE
  8
0
 62
4
 10
1.01132684E+02
 20
3.72327477E+01
 11
1.01132684E+02
 21
3.20327477E+01
  0
LINE
  8
0
 62
4
 10
1.00982684E+02
 20
3.72327477E+01
 11
1.01132684E+02
 21
3.72327477E+01
  0
LINE
  8
0
 62
4
 10
1.01232684E+02
 20
3.55327477E+01
 11
1.07732684E+02
 21
3.55327477E+01
  0
LINE
  8
0
 62
4
 10
1.01232684E+02
 20
3.48327477E+01
 11
1.07732684E+02
 21
3.48327477E+01
  0
LINE
  8
0
 62
4
 10
1.08907684E+02
 20
3.73577477E+01
 11
1.08907684E+02
 21
3.48577477E+01
  0
LINE
  8
0
 62
4
 10
1.09407684E+02
 20
3.73577477E+01
 11
1.09407684E+02
 21
3.49372518E+01
  0
LINE
  8
0
 62
4
 10
1.08907684E+02
 20
3.73577477E+01
 11
1.09407684E+02
 21
3.73577477E+01
  0
LINE
  8
0
 62
4
 10
1.05982684E+02
 20
3.95327477E+01
 11
1.05982684E+02
 21
3.85327477E+01
  0
LINE
  8
0
 62
4
 10
1.02982684E+02
 20
3.95327477E+01
 11
1.02982684E+02
 21
3.85327477E+01
  0
LINE
  8
0
 62
4
 10
1.00182684E+02
 20
3.20327477E+01
 11
1.00982684E+02
 21
3.20327477E+01
  0
LINE
  8
0
 62
4
 10
1.07982684E+02
 20
3.13327477E+01
 11
1.08782684E+02
 21
3.13327477E+01
  0
LINE
  8
0
 62
4
 10
1.01982684E+02
 20
3.95327477E+01
 11
1.06982684E+02
 21
3.95327477E+01
  0
LINE
  8
0
 62
4
 10
1.02982684E+02
 20
4.10327477E+01
 11
1.05982684E+02
 21
4.10327477E+01
  0
LINE
  8
0
 62
4
 10
1.01982684E+02
 20
4.00327477E+01
 11
1.01982684E+02
 21
3.95327477E+01
  0
LINE
  8
0
 62
4
 10
1.06982684E+02
 20
4.00327477E+01
 11
1.06982684E+02
 21
3.95327477E+01
  0
LINE
  8
0
 62
4
 10
1.02982684E+02
 20
3.90327477E+01
 11
1.05982684E+02
 21
3.90327477E+01
  0
ARC
  8
0
 62
4
 10
1.00982688E+02
 20
3.77327444E+01
 40
8.00003254E-01
 50
9.00000002E+01
 51
1.79999767E+02
  0
ARC
  8
0
 62
4
 10
1.07984347E+02
 20
3.77344103E+01
 40
7.98339134E-01
 50
3.59880678E+02
 51
9.01193227E+01
  0
ARC
  8
0
 62
4
 10
1.01482689E+02
 20
3.72327434E+01
 40
5.00004290E-01
 50
9.00000002E+01
 51
1.79999508E+02
  0
ARC
  8
0
 62
4
 10
1.07484347E+02
 20
3.72344103E+01
 40
4.98340176E-01
 50
3.59808845E+02
 51
9.01911544E+01
  0
ARC
  8
0
 62
4
 10
1.09782481E+02
 20
3.46858820E+01
 40
5.00207143E-01
 50
3.00013240E+02
 51
2.13706628E-01
  0
ARC
  8
0
 62
4
 10
1.08983833E+02
 20
3.51501034E+01
 40
4.98857363E-01
 50
3.30554632E+02
 51
3.59729437E+02
  0
ARC
  8
0
 62
4
 10
1.05984097E+02
 20
4.00341600E+01
 40
9.98588677E-01
 50
3.59918966E+02
 51
9.00810348E+01
  0
ARC
  8
0
 62
4
 10
1.02982937E+02
 20
4.00324949E+01
 40
1.00025280E+00
 50
9.00000002E+01
 51
1.79985521E+02
  0
LINE
  8
0
 62
4
 10
1.07732684E+02
 20
3.55327477E+01
 11
1.07732684E+02
 21
2.90327477E+01
  0
LINE
  8
0
 62
4
 10
1.01232684E+02
 20
3.16327477E+01
 11
1.01232684E+02
 21
2.90327477E+01
  0
LINE
  8
0
 62
4
 10
1.01232684E+02
 20
3.16327477E+01
 11
1.02432684E+02
 21
3.16327477E+01
  0
LINE
  8
0
 62
4
 10
1.01232684E+02
 20
3.20327477E+01
 11
1.02432684E+02
 21
3.20327477E+01
  0
LINE
  8
0
 62
4
 10
1.01232684E+02
 20
3.55327477E+01
 11
1.01232684E+02
 21
3.20327477E+01
  0
LINE
  8
0
 62
4
 10
1.02432684E+02
 20
2.98327477E+01
 11
1.06532684E+02
 21
2.98327477E+01
  0
LINE
  8
0
 62
4
 10
1.02432684E+02
 20
3.38327477E+01
 11
1.06532684E+02
 21
3.38327477E+01
  0
LINE
  8
0
 62
4
 10
1.03482684E+02
 20
3.41327477E+01
 11
1.05482684E+02
 21
3.41327477E+01
  0
LINE
  8
0
 62
4
 10
1.03182684E+02
 20
3.31327477E+01
 11
1.05782684E+02
 21
3.31327477E+01
  0
LINE
  8
0
 62
4
 10
1.03482684E+02
 20
3.41327477E+01
 11
1.03482684E+02
 21
3.38327477E+01
  0
LINE
  8
0
 62
4
 10
1.03482684E+02
 20
2.98327477E+01
 11
1.03482684E+02
 21
2.95327477E+01
  0
LINE
  8
0
 62
4
 10
1.02432684E+02
 20
3.38327477E+01
 11
1.02432684E+02
 21
2.98327477E+01
  0
LINE
  8
0
 62
4
 10
1.03182684E+02
 20
3.31327477E+01
 11
1.03182684E+02
 21
3.05327477E+01
  0
LINE
  8
0
 62
4
 10
1.02432684E+02
 20
3.38327477E+01
 11
1.03182684E+02
 21
3.31327477E+01
  0
LINE
  8
0
 62
4
 10
1.06532684E+02
 20
3.38327477E+01
 11
1.06532684E+02
 21
2.98327477E+01
  0
LINE
  8
0
 62
4
 10
1.05482684E+02
 20
3.41327477E+01
 11
1.05482684E+02
 21
3.38327477E+01
  0
LINE
  8
0
 62
4
 10
1.05482684E+02
 20
2.98327477E+01
 11
1.05482684E+02
 21
2.95327477E+01
  0
LINE
  8
0
 62
4
 10
1.05782684E+02
 20
3.31327477E+01
 11
1.05782684E+02
 21
3.05327477E+01
  0
LINE
  8
0
 62
4
 10
1.05782684E+02
 20
3.31327477E+01
 11
1.06532684E+02
 21
3.38327477E+01
  0
LINE
  8
0
 62
4
 10
1.05782684E+02
 20
3.05327477E+01
 11
1.06532684E+02
 21
2.98327477E+01
  0
LINE
  8
0
 62
4
 10
1.02982684E+02
 20
3.69327477E+01
 11
1.02982684E+02
 21
3.58327477E+01
  0
LINE
  8
0
 62
4
 10
1.05982684E+02
 20
3.69327477E+01
 11
1.05982684E+02
 21
3.58327477E+01
  0
LINE
  8
0
 62
6
 10
1.03252684E+02
 20
3.69327477E+01
 11
1.03252684E+02
 21
3.55627477E+01
  0
LINE
  8
0
 62
6
 10
1.05712684E+02
 20
3.69327477E+01
 11
1.05712684E+02
 21
3.55627477E+01
  0
LINE
  8
0
 62
4
 10
1.09694723E+02
 20
3.40574812E+01
 11
1.10032684E+02
 21
3.42527477E+01
  0
LINE
  8
0
 62
7
 10
9.59826843E+01
 20
2.47827477E+01
 11
9.59826843E+01
 21
1.62927477E+01
  0
ARC
  8
0
 62
7
 10
1.04482685E+02
 20
2.05327485E+01
 40
9.49882200E+00
 50
2.06511102E+02
 51
2.43488897E+02
  0
LINE
  8
0
 62
7
 10
1.00242684E+02
 20
1.20327477E+01
 11
1.08732684E+02
 21
1.20327477E+01
  0
ARC
  8
0
 62
7
 10
1.04477699E+02
 20
2.05277561E+01
 40
9.50105596E+00
 50
2.96605401E+02
 51
3.33529254E+02
  0
LINE
  8
0
 62
7
 10
1.12982684E+02
 20
2.47827477E+01
 11
1.12982684E+02
 21
1.62927477E+01
  0
ARC
  8
0
 62
7
 10
1.04482685E+02
 20
2.05327485E+01
 40
9.50328788E+00
 50
2.65650491E+01
 51
6.34349507E+01
  0
LINE
  8
0
 62
7
 10
1.00242684E+02
 20
2.90327477E+01
 11
1.08732684E+02
 21
2.90327477E+01
  0
CIRCLE
  8
0
 62
7
 10
1.04482684E+02
 20
2.05327492E+01
 40
8.50000000E+00
  0
ARC
  8
0
 62
7
 10
1.04477691E+02
 20
2.05277643E+01
 40
9.50105392E+00
 50
1.16470741E+02
 51
1.53394604E+02
  0
LINE
  8
0
  6
CENTER
 62
2
 10
9.38499624E+01
 20
2.05327477E+01
 11
1.15059252E+02
 21
2.05327477E+01
  0
CIRCLE
  8
0
 62
2
 10
1.04482684E+02
 20
2.05327477E+01
 40
4.18800000E+00
  0
CIRCLE
  8
0
 62
7
 10
1.04482684E+02
 20
2.05327477E+01
 40
5.00000000E+00
  0
LINE
  8
0
 62
4
 10
1.04482684E+02
 20
2.86156530E+01
 11
1.11482686E+02
 21
2.45742004E+01
  0
LINE
  8
0
 62
4
 10
1.11482686E+02
 20
2.45742004E+01
 11
1.11482686E+02
 21
1.64912951E+01
  0
LINE
  8
0
 62
4
 10
1.11482686E+02
 20
1.64912951E+01
 11
1.04482684E+02
 21
1.24498424E+01
  0
LINE
  8
0
 62
4
 10
1.04482684E+02
 20
1.24498424E+01
 11
9.74826830E+01
 21
1.64912950E+01
  0
LINE
  8
0
 62
4
 10
9.74826830E+01
 20
1.64912950E+01
 11
9.74826830E+01
 21
2.45742003E+01
  0
LINE
  8
0
 62
4
 10
9.74826830E+01
 20
2.45742003E+01
 11
1.04482684E+02
 21
2.86156530E+01
  0
CIRCLE
  8
0
 62
4
 10
1.04482684E+02
 20
2.05327492E+01
 40
7.00000000E+00
  0
LINE
  8
0
  6
CENTER
 62
6
 10
-1.18177221E+01
 20
7.58427464E+01
 11
-1.18177221E+01
 21
5.58427477E+01
  0
LINE
  8
0
 62
4
 10
-2.43177221E+01
 20
6.68427477E+01
 11
-2.33177221E+01
 21
6.78427477E+01
  0
LINE
  8
0
 62
4
 10
-1.88177221E+01
 20
6.25927477E+01
 11
-1.88177221E+01
 21
6.90927477E+01
  0
LINE
  8
0
 62
4
 10
-2.33177221E+01
 20
6.78427477E+01
 11
-2.33177221E+01
 21
6.38427477E+01
  0
LINE
  8
0
 62
4
 10
-2.33177221E+01
 20
6.78427477E+01
 11
-1.88177221E+01
 21
6.78427477E+01
  0
LINE
  8
0
 62
4
 10
-1.88177221E+01
 20
6.90927477E+01
 11
-1.63177221E+01
 21
6.90927477E+01
  0
LINE
  8
0
 62
4
 10
-2.43177221E+01
 20
6.68427477E+01
 11
-2.43177221E+01
 21
6.48427477E+01
  0
LINE
  8
0
 62
4
 10
-2.43177221E+01
 20
6.48427477E+01
 11
-2.33177221E+01
 21
6.38427477E+01
  0
LINE
  8
0
 62
4
 10
-2.33177221E+01
 20
6.38427477E+01
 11
-1.88177221E+01
 21
6.38427477E+01
  0
LINE
  8
0
 62
4
 10
-1.88177221E+01
 20
6.25927477E+01
 11
-1.63177221E+01
 21
6.25927477E+01
  0
CIRCLE
  8
0
 62
4
 10
-1.18185974E+01
 20
6.58402892E+01
 40
2.50000000E+00
  0
LINE
  8
0
 62
4
 10
-1.28802887E+01
 20
6.47801811E+01
 11
-1.07602887E+01
 21
6.69001811E+01
  0
LINE
  8
0
 62
4
 10
-1.08102887E+01
 20
6.48401811E+01
 11
-1.28802887E+01
 21
6.69001811E+01
  0
LINE
  8
0
 62
4
 10
-1.38177221E+01
 20
7.07677477E+01
 11
-1.38177221E+01
 21
7.16427477E+01
  0
LINE
  8
0
 62
4
 10
-1.63177221E+01
 20
5.71927477E+01
 11
-1.63177221E+01
 21
7.44927477E+01
  0
LINE
  8
0
 62
4
 10
-7.31772212E+00
 20
6.25927477E+01
 11
-4.81772212E+00
 21
6.25927477E+01
  0
LINE
  8
0
 62
4
 10
-4.81772212E+00
 20
6.38427477E+01
 11
6.82277877E-01
 21
6.38427477E+01
  0
LINE
  8
0
 62
4
 10
-4.81772212E+00
 20
6.78427477E+01
 11
6.82277877E-01
 21
6.78427477E+01
  0
LINE
  8
0
 62
4
 10
-4.81772212E+00
 20
6.25927477E+01
 11
-4.81772212E+00
 21
6.90927477E+01
  0
LINE
  8
0
 62
4
 10
-7.31772212E+00
 20
6.90927477E+01
 11
-4.81772212E+00
 21
6.90927477E+01
  0
LINE
  8
0
 62
4
 10
6.82277877E-01
 20
6.78427477E+01
 11
6.82277877E-01
 21
6.38427477E+01
  0
LINE
  8
0
 62
4
 10
6.82277877E-01
 20
6.78427477E+01
 11
3.68227788E+00
 21
6.71427477E+01
  0
LINE
  8
0
 62
4
 10
3.68227787E+00
 20
6.71427477E+01
 11
8.61927695E+00
 21
6.71427477E+01
  0
LINE
  8
0
 62
4
 10
3.68227788E+00
 20
6.71427477E+01
 11
3.68227788E+00
 21
6.45427477E+01
  0
LINE
  8
0
 62
4
 10
6.82277877E-01
 20
6.38427477E+01
 11
3.68227787E+00
 21
6.45427477E+01
  0
LINE
  8
0
 62
4
 10
3.68227787E+00
 20
6.45427477E+01
 11
6.01927695E+00
 21
6.45427477E+01
  0
LINE
  8
0
 62
6
 10
8.61927695E+00
 20
6.71427477E+01
 11
6.01927695E+00
 21
6.45427477E+01
  0
LINE
  8
0
 62
4
 10
-1.63177221E+01
 20
5.71927477E+01
 11
-7.31772212E+00
 21
5.71927477E+01
  0
LINE
  8
0
 62
4
 10
-1.63177221E+01
 20
6.15427477E+01
 11
-7.31772212E+00
 21
6.15427477E+01
  0
LINE
  8
0
 62
4
 10
-9.81772212E+00
 20
7.16427477E+01
 11
-9.81772212E+00
 21
7.07677477E+01
  0
LINE
  8
0
 62
4
 10
-1.63177221E+01
 20
7.44927477E+01
 11
-7.31772212E+00
 21
7.44927477E+01
  0
LINE
  8
0
 62
4
 10
-1.38177221E+01
 20
7.08427477E+01
 11
-9.81772212E+00
 21
7.08427477E+01
  0
LINE
  8
0
 62
4
 10
-1.38177221E+01
 20
7.16427477E+01
 11
-9.81772209E+00
 21
7.16427477E+01
  0
LINE
  8
0
 62
4
 10
-1.63177221E+01
 20
7.32177477E+01
 11
-7.31772212E+00
 21
7.32177477E+01
  0
LINE
  8
0
 62
4
 10
-1.63177221E+01
 20
7.02677477E+01
 11
-7.31772209E+00
 21
7.02677477E+01
  0
LINE
  8
0
 62
4
 10
-1.63177221E+01
 20
7.07677477E+01
 11
-7.31772209E+00
 21
7.07677477E+01
  0
LINE
  8
0
 62
4
 10
-1.63177221E+01
 20
7.01427477E+01
 11
-7.31772209E+00
 21
7.01427477E+01
  0
LINE
  8
0
 62
4
 10
-7.31772212E+00
 20
5.71927477E+01
 11
-7.31772212E+00
 21
7.44927477E+01
  0
LINE
  8
0
  6
CENTER
 62
6
 10
-2.60439269E+01
 20
6.58427477E+01
 11
1.04253282E+01
 21
6.58427477E+01
  0
LINE
  8
0
  6
CENTER
 62
6
 10
-1.09726312E+02
 20
-5.51294654E+01
 11
-1.09726312E+02
 21
-4.01294654E+01
  0
LINE
  8
0
  6
CENTER
 62
6
 10
-1.17226312E+02
 20
-4.76294654E+01
 11
-1.02226312E+02
 21
-4.76294654E+01
  0
CIRCLE
  8
0
 62
4
 10
-1.09726312E+02
 20
-4.76294654E+01
 40
5.00000000E+00
  0
LINE
  8
0
 62
4
 10
-1.30726312E+02
 20
-6.16294654E+01
 11
-8.87263117E+01
 21
-6.16294654E+01
  0
ARC
  8
0
 62
4
 10
-1.09726312E+02
 20
-4.76294654E+01
 40
1.00000000E+01
 50
3.62946002E+01
 51
1.43705400E+02
  0
LINE
  8
0
 62
4
 10
-1.30726312E+02
 20
-6.16294654E+01
 11
-1.30726312E+02
 21
-5.93294654E+01
  0
LINE
  8
0
 62
4
 10
-8.87263117E+01
 20
-6.16294654E+01
 11
-8.87263117E+01
 21
-5.93294654E+01
  0
LINE
  8
0
 62
4
 10
-1.30726312E+02
 20
-5.93294654E+01
 11
-8.87263117E+01
 21
-5.93294654E+01
  0
LINE
  8
0
 62
4
 10
-8.87263117E+01
 20
-5.93294654E+01
 11
-1.01666471E+02
 21
-4.17100932E+01
  0
LINE
  8
0
 62
4
 10
-1.30726312E+02
 20
-5.93294654E+01
 11
-1.17786152E+02
 21
-4.17100932E+01
  0
LINE
  8
0
  6
CENTER
 62
6
 10
-1.24326312E+02
 20
-6.31294654E+01
 11
-1.24326312E+02
 21
-5.74900450E+01
  0
LINE
  8
0
  6
CENTER
 62
6
 10
-9.51263117E+01
 20
-6.31294654E+01
 11
-9.51263117E+01
 21
-5.74900450E+01
  0
LINE
  8
0
 62
4
 10
-6.38263117E+01
 20
-5.81794654E+01
 11
-6.38263117E+01
 21
-3.46294654E+01
  0
LINE
  8
0
 62
4
 10
-6.38263117E+01
 20
-3.46294654E+01
 11
-6.61263117E+01
 21
-3.46294654E+01
  0
LINE
  8
0
  6
CENTER
 62
6
 10
-6.14160094E+01
 20
-4.76294654E+01
 11
-7.00263117E+01
 21
-4.76294654E+01
  0
LINE
  8
0
 62
4
 10
-6.61263117E+01
 20
-5.81794654E+01
 11
-6.61263117E+01
 21
-3.46294654E+01
  0
LINE
  8
0
 62
4
 10
-7.88263117E+01
 20
-6.16294654E+01
 11
-6.72763117E+01
 21
-6.16294654E+01
  0
LINE
  8
0
 62
4
 10
-7.88263117E+01
 20
-5.93294654E+01
 11
-6.72763117E+01
 21
-5.93294654E+01
  0
LINE
  8
0
  6
CENTER
 62
6
 10
-7.28263117E+01
 20
-6.31294654E+01
 11
-7.28263117E+01
 21
-5.74900450E+01
  0
LINE
  8
0
 62
4
 10
-7.88263117E+01
 20
-6.16294654E+01
 11
-7.88263117E+01
 21
-5.93294654E+01
  0
ARC
  8
0
 62
4
 10
-6.72763117E+01
 20
-5.81794654E+01
 40
1.15000000E+00
 50
2.70000000E+02
 51
0.00000000E+00
  0
ARC
  8
0
 62
4
 10
-6.72763117E+01
 20
-5.81794654E+01
 40
3.45000000E+00
 50
2.70000000E+02
 51
0.00000000E+00
  0
LINE
  8
0
 62
4
 10
-7.54263117E+01
 20
-6.16294654E+01
 11
-7.54263117E+01
 21
-5.93294654E+01
  0
LINE
  8
0
 62
4
 10
-7.02263117E+01
 20
-6.16294654E+01
 11
-7.02263117E+01
 21
-5.93294654E+01
  0
LINE
  8
0
  6
CENTER
 62
6
 10
-1.09726312E+02
 20
-1.80904157E+01
 11
-1.09726312E+02
 21
1.80076688E+00
  0
LINE
  8
0
 62
4
 10
-1.30726312E+02
 20
-7.29465439E-01
 11
-8.87263117E+01
 21
-7.29465439E-01
  0
LINE
  8
0
 62
4
 10
-8.87263117E+01
 20
-1.57294654E+01
 11
-8.87263117E+01
 21
-1.23294654E+01
  0
LINE
  8
0
  6
CENTER
 62
6
 10
-1.28441317E+02
 20
-9.72946544E+00
 11
-9.10734562E+01
 21
-9.72946544E+00
  0
LINE
  8
0
  6
CENTER
 62
6
 10
-9.51263117E+01
 20
-1.37346273E+01
 11
-9.51263117E+01
 21
-5.63178336E+00
  0
LINE
  8
0
 62
4
 10
-8.87263117E+01
 20
-7.12946544E+00
 11
-8.87263117E+01
 21
-7.29465439E-01
  0
LINE
  8
0
 62
4
 10
-1.30726312E+02
 20
-3.02946544E+00
 11
-8.87263117E+01
 21
-3.02946544E+00
  0
LINE
  8
0
 62
4
 10
-1.30726312E+02
 20
-1.57294654E+01
 11
-8.87263117E+01
 21
-1.57294654E+01
  0
LINE
  8
0
 62
4
 10
-9.51263117E+01
 20
-7.12946544E+00
 11
-8.87263117E+01
 21
-7.12946544E+00
  0
LINE
  8
0
 62
4
 10
-9.51263117E+01
 20
-1.23294654E+01
 11
-8.87263117E+01
 21
-1.23294654E+01
  0
ARC
  8
0
 62
4
 10
-9.51263117E+01
 20
-9.72946544E+00
 40
2.60000000E+00
 50
9.00000002E+01
 51
2.70000000E+02
  0
LINE
  8
0
  6
CENTER
 62
6
 10
-1.24326312E+02
 20
-1.37346273E+01
 11
-1.24326312E+02
 21
-5.63178336E+00
  0
LINE
  8
0
 62
4
 10
-1.24326312E+02
 20
-7.12946544E+00
 11
-1.30726312E+02
 21
-7.12946544E+00
  0
ARC
  8
0
 62
4
 10
-1.24326312E+02
 20
-9.72946544E+00
 40
2.60000000E+00
 50
2.70000000E+02
 51
9.00000002E+01
  0
LINE
  8
0
 62
4
 10
-1.24326312E+02
 20
-1.23294654E+01
 11
-1.30726312E+02
 21
-1.23294654E+01
  0
LINE
  8
0
 62
4
 10
-1.30726312E+02
 20
-7.12946544E+00
 11
-1.30726312E+02
 21
-7.29465439E-01
  0
LINE
  8
0
 62
4
 10
-1.30726312E+02
 20
-1.23294654E+01
 11
-1.30726312E+02
 21
-1.57294654E+01
  0
LINE
  8
0
  6
CENTER
 62
6
 10
-6.72631170E+00
 20
-4.21140347E+01
 11
-6.72631170E+00
 21
-6.45811508E+01
  0
LINE
  8
0
  6
CENTER
 62
6
 10
-2.97387462E+01
 20
-5.31294654E+01
 11
1.63588319E+01
 21
-5.31294654E+01
  0
CIRCLE
  8
0
 62
4
 10
-6.72631170E+00
 20
-5.31294654E+01
 40
5.00000000E+00
  0
LINE
  8
0
 62
4
 10
-2.77263117E+01
 20
-4.31294654E+01
 11
1.42736883E+01
 21
-4.31294654E+01
  0
LINE
  8
0
 62
4
 10
-2.77263117E+01
 20
-6.31294654E+01
 11
1.42736883E+01
 21
-6.31294654E+01
  0
LINE
  8
0
 62
4
 10
1.42736883E+01
 20
-4.31294654E+01
 11
1.42736883E+01
 21
-5.05294654E+01
  0
LINE
  8
0
 62
4
 10
-2.77263117E+01
 20
-4.31294654E+01
 11
-2.77263117E+01
 21
-5.05294654E+01
  0
LINE
  8
0
  6
CENTER
 62
6
 10
7.87368830E+00
 20
-4.85851458E+01
 11
7.87368830E+00
 21
-5.78192033E+01
  0
LINE
  8
0
  6
CENTER
 62
6
 10
-2.13263117E+01
 20
-4.85851458E+01
 11
-2.13263117E+01
 21
-5.78192033E+01
  0
LINE
  8
0
 62
4
 10
-2.77263117E+01
 20
-5.05294654E+01
 11
-2.13263117E+01
 21
-5.05294654E+01
  0
LINE
  8
0
 62
4
 10
-2.77263117E+01
 20
-5.57294654E+01
 11
-2.13263117E+01
 21
-5.57294654E+01
  0
ARC
  8
0
 62
4
 10
7.87368830E+00
 20
-5.31294654E+01
 40
2.60000000E+00
 50
9.00000002E+01
 51
2.70000000E+02
  0
ARC
  8
0
 62
4
 10
-2.13263117E+01
 20
-5.31294654E+01
 40
2.60000000E+00
 50
2.70000000E+02
 51
9.00000002E+01
  0
LINE
  8
0
 62
4
 10
7.87368830E+00
 20
-5.05294654E+01
 11
1.42736883E+01
 21
-5.05294654E+01
  0
LINE
  8
0
 62
4
 10
7.87368830E+00
 20
-5.57294654E+01
 11
1.42736883E+01
 21
-5.57294654E+01
  0
LINE
  8
0
 62
4
 10
1.42736883E+01
 20
-5.57294654E+01
 11
1.42736883E+01
 21
-6.31294654E+01
  0
LINE
  8
0
 62
4
 10
-2.77263117E+01
 20
-5.57294654E+01
 11
-2.77263117E+01
 21
-6.31294654E+01
  0
LINE
  8
0
 62
4
 10
3.75736883E+01
 20
-4.31294654E+01
 11
3.75736883E+01
 21
-6.31294654E+01
  0
LINE
  8
0
 62
4
 10
3.43736883E+01
 20
-4.31294654E+01
 11
3.43736883E+01
 21
-6.31294654E+01
  0
LINE
  8
0
  6
CENTER
 62
6
 10
3.24607994E+01
 20
-5.31294654E+01
 11
3.94865772E+01
 21
-5.31294654E+01
  0
LINE
  8
0
 62
4
 10
3.43736883E+01
 20
-4.31294654E+01
 11
3.75736883E+01
 21
-4.31294654E+01
  0
LINE
  8
0
 62
4
 10
3.43736883E+01
 20
-5.05294654E+01
 11
3.75736883E+01
 21
-5.05294654E+01
  0
LINE
  8
0
 62
4
 10
3.43736883E+01
 20
-6.31294654E+01
 11
3.75736883E+01
 21
-6.31294654E+01
  0
LINE
  8
0
 62
4
 10
3.43736883E+01
 20
-5.57294654E+01
 11
3.75736883E+01
 21
-5.57294654E+01
  0
LINE
  8
0
  6
CENTER
 62
6
 10
-6.72631167E+00
 20
-2.40591240E+01
 11
-6.72631167E+00
 21
-1.44708313E+01
  0
LINE
  8
0
 62
4
 10
-2.77263117E+01
 20
-2.08294654E+01
 11
1.42736883E+01
 21
-2.08294654E+01
  0
LINE
  8
0
 62
4
 10
-2.77263117E+01
 20
-1.76294654E+01
 11
1.42736883E+01
 21
-1.76294654E+01
  0
LINE
  8
0
 62
4
 10
1.42736883E+01
 20
-2.08294654E+01
 11
1.42736883E+01
 21
-1.76294654E+01
  0
LINE
  8
0
  6
CENTER
 62
6
 10
7.87368833E+00
 20
-2.40591240E+01
 11
7.87368833E+00
 21
-1.44708313E+01
  0
LINE
  8
0
 62
4
 10
-2.77263117E+01
 20
-2.08294654E+01
 11
-2.77263117E+01
 21
-1.76294654E+01
  0
LINE
  8
0
  6
CENTER
 62
6
 10
-2.13263117E+01
 20
-2.40591240E+01
 11
-2.13263117E+01
 21
-1.44708313E+01
  0
TEXT
  8
0
 62
7
 10
-1.07049994E+02
 20
-8.84000031E+01
 40
3.20000005E+00
  1
-25
 41
1.00000000E+00
  7
MONOTXT
  0
TEXT
  8
0
 62
7
 10
-9.42499939E+01
 20
-8.84000031E+01
 40
3.20000005E+00
  1
0
 41
1.00000000E+00
  7
MONOTXT
  0
TEXT
  8
0
 62
7
 10
-8.62499939E+01
 20
-8.24000031E+01
 40
3.20000005E+00
  1
75
 41
1.00000000E+00
  7
MONOTXT
  0
TEXT
  8
0
 62
7
 10
-8.62499939E+01
 20
-8.84000031E+01
 40
3.20000005E+00
  1
25
 41
1.00000000E+00
  7
MONOTXT
  0
TEXT
  8
0
 62
7
 10
-7.82499940E+01
 20
-8.24000031E+01
 40
3.20000005E+00
  1
100
 41
1.00000000E+00
  7
MONOTXT
  0
TEXT
  8
0
 62
7
 10
-7.66499939E+01
 20
-8.84000031E+01
 40
3.20000005E+00
  1
50
 41
1.00000000E+00
  7
MONOTXT
  0
TEXT
  8
0
 62
7
 10
-1.29649994E+02
 20
-8.24000031E+01
 40
3.20000005E+00
  1
STROKE
 41
1.00000000E+00
  7
MONOTXT
  0
TEXT
  8
0
 62
7
 10
-1.31249994E+02
 20
-8.84000031E+01
 40
3.20000005E+00
  1
STRETCH
 41
1.00000000E+00
  7
MONOTXT
  0
TEXT
  8
0
 62
7
 10
-9.58499939E+01
 20
-8.24000031E+01
 40
3.20000005E+00
  1
50
 41
1.00000000E+00
  7
MONOTXT
  0
TEXT
  8
0
 62
7
 10
-1.05449994E+02
 20
-8.24000031E+01
 40
3.20000005E+00
  1
25
 41
1.00000000E+00
  7
MONOTXT
  0
LINE
  8
0
 62
7
 10
-6.89999939E+01
 20
-8.98000031E+01
 11
-6.89999939E+01
 21
-7.78000031E+01
  0
LINE
  8
0
 62
7
 10
-7.85999939E+01
 20
-8.98000031E+01
 11
-7.85999939E+01
 21
-7.78000031E+01
  0
LINE
  8
0
 62
7
 10
-8.81999939E+01
 20
-8.98000031E+01
 11
-8.81999939E+01
 21
-7.78000031E+01
  0
LINE
  8
0
 62
7
 10
-1.33399994E+02
 20
-7.78000031E+01
 11
-6.89999939E+01
 21
-7.78000031E+01
  0
LINE
  8
0
 62
7
 10
-9.77999939E+01
 20
-8.98000031E+01
 11
-9.77999939E+01
 21
-7.78000031E+01
  0
LINE
  8
0
 62
7
 10
-1.07399994E+02
 20
-8.98000031E+01
 11
-1.07399994E+02
 21
-7.78000031E+01
  0
LINE
  8
0
 62
7
 10
-1.33399994E+02
 20
-8.38000031E+01
 11
-6.89999939E+01
 21
-8.38000031E+01
  0
LINE
  8
0
 62
7
 10
-1.33399994E+02
 20
-8.98000031E+01
 11
-1.33399994E+02
 21
-7.78000031E+01
  0
LINE
  8
0
 62
7
 10
-1.33399994E+02
 20
-8.98000031E+01
 11
-6.89999939E+01
 21
-8.98000031E+01
  0
TEXT
  8
0
 62
7
 10
-7.91067721E+01
 20
-7.59181426E+01
 40
3.20000005E+00
  1
(mm)
 41
1.00000000E+00
  7
MONOTXT
  0
TEXT
  8
0
 62
7
 10
-1.20049994E+02
 20
-7.59181426E+01
 40
3.20000005E+00
  1
STRETCH LIST
 41
1.05263158E+00
  7
MONOTXT
  0
TEXT
  8
0
 10
-8.42578115E+00
 20
4.54763364E+01
 40
3.20000005E+00
  1
STRETCH LINE
 41
1.05263158E+00
  7
MONOTXT
  0
LINE
  8
0
 62
7
 10
-1.38399994E+02
 20
9.45000000E+01
 11
1.38350006E+02
 21
9.45000000E+01
  0
LINE
  8
0
 62
7
 10
1.38350006E+02
 20
9.45000000E+01
 11
1.38350006E+02
 21
-9.48000031E+01
  0
LINE
  8
0
 62
7
 10
-1.38399994E+02
 20
-9.48000031E+01
 11
1.38350006E+02
 21
-9.48000031E+01
  0
LINE
  8
0
 62
7
 10
-1.38399994E+02
 20
9.45000000E+01
 11
-1.38399994E+02
 21
-9.48000031E+01
  0
LINE
  8
0
 62
7
 10
7.33500061E+01
 20
-8.48000031E+01
 11
1.38350006E+02
 21
-8.48000031E+01
  0
LINE
  8
0
 62
7
 10
-1.38399994E+02
 20
8.45000000E+01
 11
-7.33999939E+01
 21
8.45000000E+01
  0
LINE
  8
0
 62
7
 10
7.33500061E+01
 20
8.45000000E+01
 11
1.38350006E+02
 21
8.45000000E+01
  0
LINE
  8
0
 62
7
 10
7.33500061E+01
 20
-8.48000031E+01
 11
7.33500061E+01
 21
-9.48000031E+01
  0
LINE
  8
0
 62
7
 10
7.33500061E+01
 20
9.45000000E+01
 11
7.33500061E+01
 21
8.45000000E+01
  0
LINE
  8
0
 62
7
 10
-7.33999939E+01
 20
9.45000000E+01
 11
-7.33999939E+01
 21
8.45000000E+01
  0
TEXT
  8
0
 62
7
 10
7.72426624E+01
 20
-9.20500031E+01
 40
4.50000000E+00
  1
KOGANEI CORP.
 41
1.04838710E+00
  7
MONOTXT
  0
TEXT
  8
0
 62
7
 10
9.35071483E+01
 20
8.79000000E+01
 40
3.20000005E+00
  1
Ver. 1.1
 41
1.08108108E+00
  7
MONOTXT
  0
TEXT
  8
0
 62
7
 10
-1.31042852E+02
 20
8.79000000E+01
 40
3.20000005E+00
  1
NEW PEN CYLINDER
 41
1.08108108E+00
  7
MONOTXT
  0
TEXT
  8
0
 62
7
 10
-1.29085994E+02
 20
7.29000000E+01
 40
3.20000005E+00
  1
MODEL:PBDACS16*ST(50)-M-ZC230
 41
1.00000000E+00
  7
MONOTXT
  0
ENDSEC
  0
EOF
