  0
SECTION
  2
HEADER
  9
$ACADVER
  1
AC1003
  9
$EXTMIN
 10
-1.38399994E+02
 20
-9.48000031E+01
  9
$EXTMAX
 10
1.38350006E+02
 20
9.45000000E+01
  9
$LIMMIN
 10
-1.38400994E+02
 20
-9.48010031E+01
  9
$LIMMAX
 10
1.38351006E+02
 20
9.45010000E+01
  9
$SNAPUNIT
 10
1
 20
1
  9
$SNAPBASE
 10
0
 20
0
  9
$GRIDMODE
 70
0
  9
$GRIDUNIT
 10
0
 20
0
  9
$LTSCALE
 40
4.61250000E+00
  9
$TEXTSIZE
 40
3.2
  9
$DIMTAD
 70
0
  9
$LUNITS
 70
2
  9
$LUPREC
 70
4
  9
$FILLETRAD
 40
0
  9
$AUNITS
 70
0
  9
$AUPREC
 70
0
  0
ENDSEC
  0
SECTION
  2
TABLES
  0
TABLE
  2
LTYPE
 70
2
  0
LTYPE
  2
CONTINUOUS
 70
64
  3
Solid-Line
 72
65
 73
0
 40
0
  0
LTYPE
  2
DASHED
 70
64
  3
DASHED
 72
65
 73
2
 40
.75
 49
.5
 49
-.25
  0
LTYPE
  2
HIDDEN
 70
64
  3
HIDDEN
 72
65
 73
2
 40
.375
 49
.25
 49
-.125
  0
LTYPE
  2
CENTER
 70
64
  3
CENTER
 72
65
 73
4
 40
2
 49
1.25
 49
-.25
 49
.25
 49
-.25
  0
LTYPE
  2
PHANTOM
 70
64
  3
PHANTOM
 72
65
 73
6
 40
2.5
 49
1.25
 49
-.25
 49
.25
 49
-.25
 49
.25
 49
-.25
  0
ENDTAB
  0
TABLE
  2
LAYER
 70
1
  0
LAYER
  2
1
 70
0
 62
7
  6
CONTINUOUS
 0
ENDTAB
  0
TABLE
  2
STYLE
 70
2
  0
STYLE
  2
MONOTXT
 70
0
 40
0
 41
1
 50
0
 71
0
 42
.2
  3
monotxt
  0
STYLE
  2
BIGFONT
 70
0
 40
0
 41
1
 50
0
 71
0
 42
.2
  3
txt
  4
bigfont
  0
ENDTAB
  0
ENDSEC
  0
SECTION
  2
ENTITIES
  0
LINE
  8
0
 62
7
 10
-4.12269561E+01
 20
1.75254864E+01
 11
-4.12269561E+01
 21
1.32654864E+01
  0
LINE
  8
0
 62
7
 10
-5.42269561E+01
 20
1.75254864E+01
 11
-5.42269561E+01
 21
1.32654864E+01
  0
LINE
  8
0
 62
7
 10
6.72630439E+01
 20
1.75254864E+01
 11
6.72630439E+01
 21
1.32654864E+01
  0
LINE
  8
0
 62
7
 10
3.70130439E+01
 20
3.02654864E+01
 11
3.70130439E+01
 21
1.32654864E+01
  0
LINE
  8
0
 62
7
 10
6.90130439E+01
 20
3.02654864E+01
 11
6.90130439E+01
 21
1.32654864E+01
  0
LINE
  8
0
 62
7
 10
-5.59769561E+01
 20
3.02654864E+01
 11
-5.59769561E+01
 21
1.32654864E+01
  0
LINE
  8
0
 62
7
 10
-3.94769561E+01
 20
3.02654864E+01
 11
-3.94769561E+01
 21
1.32654864E+01
  0
LINE
  8
0
 62
7
 10
3.87630439E+01
 20
1.75251239E+01
 11
3.87630439E+01
 21
1.32751239E+01
  0
LINE
  8
0
 62
4
 10
-2.84769561E+01
 20
3.29654864E+01
 11
-2.84769561E+01
 21
1.31155018E+01
  0
LINE
  8
0
 62
4
 10
-1.94769561E+01
 20
3.29654864E+01
 11
-1.94769561E+01
 21
1.31155018E+01
  0
LINE
  8
0
  6
CENTER
 62
6
 10
-2.39769561E+01
 20
4.50754864E+01
 11
-2.39769561E+01
 21
1.20308273E+01
  0
LINE
  8
0
 62
4
 10
1.90130439E+01
 20
3.29654864E+01
 11
1.90130439E+01
 21
1.31155018E+01
  0
LINE
  8
0
 62
4
 10
2.80130439E+01
 20
3.29654864E+01
 11
2.80130439E+01
 21
1.31155018E+01
  0
LINE
  8
0
  6
CENTER
 62
6
 10
2.35130439E+01
 20
4.50754864E+01
 11
2.35130439E+01
 21
1.20308273E+01
  0
LINE
  8
0
  6
PHANTOM
 10
3.51304386E+00
 20
7.42870291E+00
 11
3.51304386E+00
 21
4.50754864E+01
  0
TEXT
  8
0
 62
7
 10
-1.88128936E+01
 20
1.43655018E+01
 40
1.50000000E+00
  1
PBDACS16-7
 41
1.00000000E+00
  7
MONOTXT
  0
ARC
  8
0
 62
7
 10
-4.99649301E+01
 20
2.17704864E+01
 40
6.01538783E+00
 50
1.81915637E+02
 51
2.24885328E+02
  0
ARC
  8
0
 62
7
 10
6.29993461E+01
 20
2.17704864E+01
 40
6.01657241E+00
 50
1.77122186E+00
 51
4.48740934E+01
  0
LINE
  8
0
 62
7
 10
-1.69769561E+01
 20
3.02654864E+01
 11
1.65130439E+01
 21
3.02654864E+01
  0
LINE
  8
0
 62
7
 10
3.05130439E+01
 20
3.02654864E+01
 11
6.90130439E+01
 21
3.02654864E+01
  0
LINE
  8
0
 62
4
 10
3.05130439E+01
 20
3.50654864E+01
 11
3.60130439E+01
 21
3.50654864E+01
  0
LINE
  8
0
 62
4
 10
3.05130439E+01
 20
3.10654864E+01
 11
3.60130439E+01
 21
3.10654864E+01
  0
LINE
  8
0
 62
4
 10
1.65130439E+01
 20
3.28654864E+01
 11
1.65130439E+01
 21
2.97973686E+01
  0
LINE
  8
0
 62
4
 10
3.05130439E+01
 20
3.28654864E+01
 11
3.05130439E+01
 21
2.97973686E+01
  0
LINE
  8
0
 62
4
 10
1.90130439E+01
 20
3.32654864E+01
 11
2.80130439E+01
 21
3.32654864E+01
  0
LINE
  8
0
 62
4
 10
1.65130439E+01
 20
2.97973686E+01
 11
1.90130439E+01
 21
2.97973686E+01
  0
LINE
  8
0
 62
4
 10
3.05130438E+01
 20
2.97973686E+01
 11
2.80130438E+01
 21
2.97973686E+01
  0
LINE
  8
0
 62
4
 10
2.80130439E+01
 20
3.29654864E+01
 11
2.80130439E+01
 21
3.97654864E+01
  0
LINE
  8
0
 62
4
 10
1.90130439E+01
 20
3.29654864E+01
 11
1.90130439E+01
 21
3.97654864E+01
  0
LINE
  8
0
 62
4
 10
2.80130439E+01
 20
3.28654864E+01
 11
3.05130439E+01
 21
3.28654864E+01
  0
LINE
  8
0
 62
4
 10
2.80130439E+01
 20
3.32654864E+01
 11
3.05130439E+01
 21
3.32654864E+01
  0
LINE
  8
0
 62
4
 10
2.80130439E+01
 20
3.60654864E+01
 11
3.05130439E+01
 21
3.60654864E+01
  0
LINE
  8
0
 62
4
 10
1.65130438E+01
 20
3.28654864E+01
 11
1.90130439E+01
 21
3.28654864E+01
  0
LINE
  8
0
 62
4
 10
1.65130438E+01
 20
3.32654864E+01
 11
1.90130439E+01
 21
3.32654864E+01
  0
LINE
  8
0
 62
4
 10
1.65130438E+01
 20
3.60654864E+01
 11
1.90130439E+01
 21
3.60654864E+01
  0
LINE
  8
0
 62
4
 10
3.05130439E+01
 20
3.60654864E+01
 11
3.05130439E+01
 21
3.32654864E+01
  0
ARC
  8
0
 62
4
 10
2.50113782E+01
 20
4.12638208E+01
 40
1.00166704E+00
 50
9.52762946E-02
 51
8.99047236E+01
  0
ARC
  8
0
 62
4
 10
2.20138353E+01
 20
4.12646949E+01
 40
1.00079180E+00
 50
9.00000002E+01
 51
1.79954687E+02
  0
LINE
  8
0
 62
4
 10
1.65130439E+01
 20
3.60654864E+01
 11
1.65130439E+01
 21
3.32654864E+01
  0
LINE
  8
0
 62
4
 10
1.10130439E+01
 20
3.40654864E+01
 11
1.20130439E+01
 21
3.50654864E+01
  0
LINE
  8
0
 62
6
 10
2.22830439E+01
 20
4.07654864E+01
 11
2.22830439E+01
 21
3.97654864E+01
  0
LINE
  8
0
 62
6
 10
2.47430439E+01
 20
4.07654864E+01
 11
2.47430439E+01
 21
3.97654864E+01
  0
LINE
  8
0
 62
4
 10
2.20130439E+01
 20
4.07654864E+01
 11
2.20130439E+01
 21
3.97654864E+01
  0
LINE
  8
0
 62
4
 10
2.50130439E+01
 20
4.07654864E+01
 11
2.50130439E+01
 21
3.97654864E+01
  0
LINE
  8
0
 62
4
 10
2.20130439E+01
 20
4.22654864E+01
 11
2.50130439E+01
 21
4.22654864E+01
  0
LINE
  8
0
 62
4
 10
2.10130439E+01
 20
4.07654864E+01
 11
2.60130439E+01
 21
4.07654864E+01
  0
LINE
  8
0
 62
4
 10
1.10130439E+01
 20
3.40654864E+01
 11
1.10130439E+01
 21
3.20654864E+01
  0
LINE
  8
0
 62
4
 10
1.90130439E+01
 20
3.97654864E+01
 11
2.80130439E+01
 21
3.97654864E+01
  0
LINE
  8
0
 62
4
 10
1.20130439E+01
 20
3.10654864E+01
 11
1.65130439E+01
 21
3.10654864E+01
  0
LINE
  8
0
 62
4
 10
1.20130439E+01
 20
3.50654864E+01
 11
1.65130439E+01
 21
3.50654864E+01
  0
LINE
  8
0
 62
4
 10
2.60130439E+01
 20
4.12654864E+01
 11
2.60130439E+01
 21
4.07654864E+01
  0
LINE
  8
0
 62
4
 10
2.10130439E+01
 20
4.12654864E+01
 11
2.10130439E+01
 21
4.07654864E+01
  0
LINE
  8
0
 62
4
 10
1.10130439E+01
 20
3.20654864E+01
 11
1.20130439E+01
 21
3.10654864E+01
  0
LINE
  8
0
 62
4
 10
1.20130439E+01
 20
3.50654864E+01
 11
1.20130439E+01
 21
3.10654864E+01
  0
LINE
  8
0
 62
4
 10
3.60130439E+01
 20
3.50654864E+01
 11
3.90130439E+01
 21
3.43654864E+01
  0
LINE
  8
0
 62
4
 10
3.60130439E+01
 20
3.10654864E+01
 11
3.90130438E+01
 21
3.17654864E+01
  0
LINE
  8
0
 62
4
 10
3.60130439E+01
 20
3.50654864E+01
 11
3.60130439E+01
 21
3.10654864E+01
  0
LINE
  8
0
 62
6
 10
4.39500429E+01
 20
3.43654864E+01
 11
4.13500429E+01
 21
3.17654864E+01
  0
LINE
  8
0
 62
4
 10
3.90130438E+01
 20
3.17654864E+01
 11
4.13500429E+01
 21
3.17654864E+01
  0
LINE
  8
0
 62
4
 10
3.90130439E+01
 20
3.43654864E+01
 11
3.90130439E+01
 21
3.17654864E+01
  0
LINE
  8
0
 62
4
 10
3.90130438E+01
 20
3.43654864E+01
 11
4.39500429E+01
 21
3.43654864E+01
  0
LINE
  8
0
 62
4
 10
-1.69769561E+01
 20
3.50654864E+01
 11
-1.14769561E+01
 21
3.50654864E+01
  0
LINE
  8
0
 62
4
 10
-1.69769561E+01
 20
3.10654864E+01
 11
-1.14769561E+01
 21
3.10654864E+01
  0
LINE
  8
0
 62
4
 10
-3.09769561E+01
 20
3.28654864E+01
 11
-3.09769561E+01
 21
2.97973686E+01
  0
LINE
  8
0
 62
4
 10
-1.69769561E+01
 20
3.28654864E+01
 11
-1.69769561E+01
 21
2.97973686E+01
  0
LINE
  8
0
 62
4
 10
-2.84769561E+01
 20
3.32654864E+01
 11
-1.94769561E+01
 21
3.32654864E+01
  0
LINE
  8
0
 62
4
 10
-3.09769561E+01
 20
2.97973686E+01
 11
-2.84769561E+01
 21
2.97973686E+01
  0
LINE
  8
0
 62
4
 10
-1.69769561E+01
 20
2.97973686E+01
 11
-1.94769561E+01
 21
2.97973686E+01
  0
LINE
  8
0
 62
4
 10
-1.94769561E+01
 20
3.29654864E+01
 11
-1.94769561E+01
 21
3.97654864E+01
  0
LINE
  8
0
 62
4
 10
-2.84769561E+01
 20
3.29654864E+01
 11
-2.84769561E+01
 21
3.97654864E+01
  0
LINE
  8
0
 62
4
 10
-1.94769561E+01
 20
3.28654864E+01
 11
-1.69769561E+01
 21
3.28654864E+01
  0
LINE
  8
0
 62
4
 10
-1.94769561E+01
 20
3.32654864E+01
 11
-1.69769561E+01
 21
3.32654864E+01
  0
LINE
  8
0
 62
4
 10
-1.94769561E+01
 20
3.60654864E+01
 11
-1.69769561E+01
 21
3.60654864E+01
  0
LINE
  8
0
 62
4
 10
-3.09769561E+01
 20
3.28654864E+01
 11
-2.84769561E+01
 21
3.28654864E+01
  0
LINE
  8
0
 62
4
 10
-3.09769561E+01
 20
3.32654864E+01
 11
-2.84769561E+01
 21
3.32654864E+01
  0
LINE
  8
0
 62
4
 10
-3.09769561E+01
 20
3.60654864E+01
 11
-2.84769561E+01
 21
3.60654864E+01
  0
LINE
  8
0
 62
4
 10
-1.69769561E+01
 20
3.60654864E+01
 11
-1.69769561E+01
 21
3.32654864E+01
  0
ARC
  8
0
 62
4
 10
-2.24786218E+01
 20
4.12638208E+01
 40
1.00166704E+00
 50
9.52762946E-02
 51
8.99047236E+01
  0
ARC
  8
0
 62
4
 10
-2.54761646E+01
 20
4.12646949E+01
 40
1.00079180E+00
 50
9.00000002E+01
 51
1.79954687E+02
  0
LINE
  8
0
 62
4
 10
-3.09769561E+01
 20
3.60654864E+01
 11
-3.09769561E+01
 21
3.32654864E+01
  0
LINE
  8
0
 62
4
 10
-3.64769561E+01
 20
3.40654864E+01
 11
-3.54769561E+01
 21
3.50654864E+01
  0
LINE
  8
0
 62
6
 10
-2.52069561E+01
 20
4.07654864E+01
 11
-2.52069561E+01
 21
3.97654864E+01
  0
LINE
  8
0
 62
6
 10
-2.27469561E+01
 20
4.07654864E+01
 11
-2.27469561E+01
 21
3.97654864E+01
  0
LINE
  8
0
 62
4
 10
-2.54769561E+01
 20
4.07654864E+01
 11
-2.54769561E+01
 21
3.97654864E+01
  0
LINE
  8
0
 62
4
 10
-2.24769561E+01
 20
4.07654864E+01
 11
-2.24769561E+01
 21
3.97654864E+01
  0
LINE
  8
0
 62
4
 10
-2.54769561E+01
 20
4.22654864E+01
 11
-2.24769561E+01
 21
4.22654864E+01
  0
LINE
  8
0
 62
4
 10
-2.64769561E+01
 20
4.07654864E+01
 11
-2.14769561E+01
 21
4.07654864E+01
  0
LINE
  8
0
 62
4
 10
-3.64769561E+01
 20
3.40654864E+01
 11
-3.64769561E+01
 21
3.20654864E+01
  0
LINE
  8
0
 62
4
 10
-2.84769561E+01
 20
3.97654864E+01
 11
-1.94769561E+01
 21
3.97654864E+01
  0
LINE
  8
0
 62
4
 10
-3.54769561E+01
 20
3.10654864E+01
 11
-3.09769561E+01
 21
3.10654864E+01
  0
LINE
  8
0
 62
4
 10
-3.54769561E+01
 20
3.50654864E+01
 11
-3.09769561E+01
 21
3.50654864E+01
  0
LINE
  8
0
 62
4
 10
-2.14769561E+01
 20
4.12654864E+01
 11
-2.14769561E+01
 21
4.07654864E+01
  0
LINE
  8
0
 62
4
 10
-2.64769561E+01
 20
4.12654864E+01
 11
-2.64769561E+01
 21
4.07654864E+01
  0
LINE
  8
0
 62
4
 10
-3.64769561E+01
 20
3.20654864E+01
 11
-3.54769561E+01
 21
3.10654864E+01
  0
LINE
  8
0
 62
4
 10
-3.54769561E+01
 20
3.50654864E+01
 11
-3.54769561E+01
 21
3.10654864E+01
  0
LINE
  8
0
 62
4
 10
-1.14769561E+01
 20
3.50654864E+01
 11
-8.47695612E+00
 21
3.43654864E+01
  0
LINE
  8
0
 62
4
 10
-1.14769561E+01
 20
3.10654864E+01
 11
-8.47695613E+00
 21
3.17654864E+01
  0
LINE
  8
0
 62
4
 10
-1.14769561E+01
 20
3.50654864E+01
 11
-1.14769561E+01
 21
3.10654864E+01
  0
LINE
  8
0
 62
6
 10
-3.53995704E+00
 20
3.43654864E+01
 11
-6.13995704E+00
 21
3.17654864E+01
  0
LINE
  8
0
 62
4
 10
-8.47695613E+00
 20
3.17654864E+01
 11
-6.13995704E+00
 21
3.17654864E+01
  0
LINE
  8
0
 62
4
 10
-8.47695612E+00
 20
3.43654864E+01
 11
-8.47695612E+00
 21
3.17654864E+01
  0
LINE
  8
0
 62
4
 10
-8.47695613E+00
 20
3.43654864E+01
 11
-3.53995704E+00
 21
3.43654864E+01
  0
LINE
  8
0
  6
CENTER
 62
2
 10
4.65130439E+01
 20
3.24153498E+01
 11
4.65130439E+01
 21
2.60154864E+01
  0
LINE
  8
0
  6
CENTER
 62
2
 10
4.25172004E+01
 20
3.24153498E+01
 11
4.25172004E+01
 21
2.60154864E+01
  0
LINE
  8
0
  6
CENTER
 62
2
 10
-4.49827844E+01
 20
3.24153498E+01
 11
-4.49827844E+01
 21
2.60154864E+01
  0
ARC
  8
0
 62
7
 10
4.30335309E+01
 20
2.17713970E+01
 40
6.02048817E+00
 50
1.35180079E+02
 51
2.24819921E+02
  0
LINE
  8
0
 62
7
 10
3.87630439E+01
 20
2.60151239E+01
 11
3.87630439E+01
 21
3.02751239E+01
  0
LINE
  8
0
 62
2
 10
-6.37889561E+01
 20
2.59534864E+01
 11
-5.74769561E+01
 21
2.59534864E+01
  0
LINE
  8
0
 62
2
 10
-6.37889561E+01
 20
1.75774864E+01
 11
-5.74769561E+01
 21
1.75774864E+01
  0
LINE
  8
0
 62
2
 10
-7.60069561E+01
 20
2.38324864E+01
 11
-6.89769561E+01
 21
2.38324864E+01
  0
LINE
  8
0
 62
2
 10
-7.60069561E+01
 20
1.96984864E+01
 11
-6.89769561E+01
 21
1.96984864E+01
  0
LINE
  8
0
 62
2
 10
-8.39099561E+01
 20
2.38324864E+01
 11
-8.00069561E+01
 21
2.38324864E+01
  0
LINE
  8
0
 62
2
 10
-8.39769561E+01
 20
1.96984864E+01
 11
-8.00069561E+01
 21
1.96984864E+01
  0
LINE
  8
0
 62
7
 10
-6.39769561E+01
 20
2.57654864E+01
 11
-6.39769561E+01
 21
1.77654864E+01
  0
LINE
  8
0
 62
7
 10
-6.29769561E+01
 20
1.67654864E+01
 11
-5.59769561E+01
 21
1.67654864E+01
  0
LINE
  8
0
 62
7
 10
-6.29769561E+01
 20
2.67654864E+01
 11
-5.59769561E+01
 21
2.67654864E+01
  0
LINE
  8
0
 62
7
 10
-6.39769561E+01
 20
2.57654864E+01
 11
-6.29769561E+01
 21
2.67654864E+01
  0
LINE
  8
0
 62
7
 10
-6.39769561E+01
 20
1.77654864E+01
 11
-6.29769561E+01
 21
1.67654864E+01
  0
LINE
  8
0
  6
CENTER
 62
2
 10
-4.89769561E+01
 20
3.24153498E+01
 11
-4.89769561E+01
 21
2.60154864E+01
  0
LINE
  8
0
  6
CENTER
 62
2
 10
-8.58100609E+01
 20
2.17654864E+01
 11
7.05330439E+01
 21
2.17654864E+01
  0
LINE
  8
0
 62
7
 10
-5.74769561E+01
 20
2.67654864E+01
 11
-5.74769561E+01
 21
1.67654864E+01
  0
LINE
  8
0
 62
7
 10
-5.59769561E+01
 20
3.02654864E+01
 11
-3.09769561E+01
 21
3.02654864E+01
  0
LINE
  8
0
 62
7
 10
-6.29769561E+01
 20
2.67654864E+01
 11
-6.29769561E+01
 21
1.67654864E+01
  0
LINE
  8
0
 62
7
 10
-5.42269561E+01
 20
2.60154864E+01
 11
-4.12269561E+01
 21
2.60154864E+01
  0
LINE
  8
0
 62
7
 10
-5.42269561E+01
 20
1.75254864E+01
 11
-4.12269561E+01
 21
1.75254864E+01
  0
LINE
  8
0
 62
7
 10
-8.34769561E+01
 20
2.42654864E+01
 11
-8.00069561E+01
 21
2.42654864E+01
  0
LINE
  8
0
 62
7
 10
-8.34769561E+01
 20
1.92654864E+01
 11
-8.00069561E+01
 21
1.92654864E+01
  0
LINE
  8
0
 62
7
 10
-8.39769561E+01
 20
2.37654864E+01
 11
-8.39769561E+01
 21
1.97654864E+01
  0
LINE
  8
0
 62
7
 10
-6.89769561E+01
 20
2.42654864E+01
 11
-6.89769561E+01
 21
1.92654864E+01
  0
LINE
  8
0
 62
7
 10
-8.39769561E+01
 20
2.37654864E+01
 11
-8.34769561E+01
 21
2.42654864E+01
  0
LINE
  8
0
 62
7
 10
-8.39769561E+01
 20
1.97654864E+01
 11
-8.34769561E+01
 21
1.92654864E+01
  0
LINE
  8
0
 62
7
 10
-8.34769561E+01
 20
2.42654864E+01
 11
-8.34769561E+01
 21
1.92654864E+01
  0
LINE
  8
0
 62
4
 10
-8.00069561E+01
 20
2.51554864E+01
 11
-8.00069561E+01
 21
1.83854864E+01
  0
LINE
  8
0
 62
4
 10
-7.60069561E+01
 20
2.51554864E+01
 11
-7.60069561E+01
 21
1.83854864E+01
  0
LINE
  8
0
 62
4
 10
-7.95069561E+01
 20
1.72654864E+01
 11
-7.65069561E+01
 21
1.72654864E+01
  0
LINE
  8
0
 62
4
 10
-7.95069561E+01
 20
2.62654864E+01
 11
-7.65069561E+01
 21
2.62654864E+01
  0
LINE
  8
0
 62
7
 10
-7.60069561E+01
 20
1.92654864E+01
 11
-6.39769561E+01
 21
1.92654864E+01
  0
LINE
  8
0
 62
7
 10
-7.60069561E+01
 20
2.42654864E+01
 11
-6.39769561E+01
 21
2.42654864E+01
  0
LINE
  8
0
 62
4
 10
-7.95069561E+01
 20
2.40454864E+01
 11
-7.65069561E+01
 21
2.40454864E+01
  0
LINE
  8
0
 62
4
 10
-7.95069561E+01
 20
1.94954864E+01
 11
-7.65069561E+01
 21
1.94954864E+01
  0
LINE
  8
0
  6
CENTER
 62
2
 10
6.10130439E+01
 20
2.60154864E+01
 11
6.10130439E+01
 21
1.75254864E+01
  0
LINE
  8
0
 62
7
 10
3.87630439E+01
 20
1.75254864E+01
 11
6.72630439E+01
 21
1.75254864E+01
  0
LINE
  8
0
 62
7
 10
3.87630439E+01
 20
2.60154864E+01
 11
6.72630439E+01
 21
2.60154864E+01
  0
LINE
  8
0
 62
7
 10
6.72630439E+01
 20
3.02654864E+01
 11
6.72630439E+01
 21
2.60154864E+01
  0
LINE
  8
0
 62
7
 10
-5.42269561E+01
 20
3.02654864E+01
 11
-5.42269561E+01
 21
2.60154864E+01
  0
LINE
  8
0
 62
7
 10
-4.12269561E+01
 20
3.02654864E+01
 11
-4.12269561E+01
 21
2.60154864E+01
  0
ARC
  8
0
 62
4
 10
-7.46036674E+01
 20
2.17753792E+01
 40
5.40329773E+00
 50
1.55156975E+02
 51
1.80104902E+02
  0
ARC
  8
0
 62
4
 10
-7.46057637E+01
 20
2.17651103E+01
 40
5.40119241E+00
 50
1.79996010E+02
 51
2.04847715E+02
  0
ARC
  8
0
 62
4
 10
-7.85222626E+01
 20
1.83843181E+01
 40
1.48469402E+00
 50
1.31546676E+02
 51
1.79954915E+02
  0
ARC
  8
0
 62
4
 10
-7.85228763E+01
 20
1.83764149E+01
 40
1.48410757E+00
 50
1.79649782E+02
 51
2.28464917E+02
  0
ARC
  8
0
 62
4
 10
-7.85260097E+01
 20
2.51549668E+01
 40
1.48094647E+00
 50
1.79979895E+02
 51
2.28518513E+02
  0
ARC
  8
0
 62
4
 10
-7.85228515E+01
 20
2.51545834E+01
 40
1.48410487E+00
 50
1.31536451E+02
 51
1.79965140E+02
  0
ARC
  8
0
 62
4
 10
-8.14271966E+01
 20
2.17716617E+01
 40
5.42024398E+00
 50
3.59934723E+02
 51
2.48034007E+01
  0
ARC
  8
0
 62
4
 10
-7.75026960E+01
 20
2.51616305E+01
 40
1.49575246E+00
 50
3.11736944E+02
 51
3.59764647E+02
  0
ARC
  8
0
 62
4
 10
-8.14251000E+01
 20
2.17688441E+01
 40
5.41814492E+00
 50
3.35191781E+02
 51
3.59964493E+02
  0
ARC
  8
0
 62
4
 10
-7.75064061E+01
 20
1.83776711E+01
 40
1.49947035E+00
 50
2.98629638E-01
 51
4.81997792E+01
  0
ARC
  8
0
 62
4
 10
-7.75058426E+01
 20
1.83830250E+01
 40
1.49888853E+00
 50
3.11791214E+02
 51
9.40875246E-02
  0
ARC
  8
0
 62
4
 10
-7.75058229E+01
 20
2.51479338E+01
 40
1.49888586E+00
 50
2.88704672E-01
 51
4.82097042E+01
  0
CIRCLE
  8
0
 62
7
 10
6.10172004E+01
 20
2.17654860E+01
 40
2.50000000E+00
  0
ARC
  8
0
 62
7
 10
6.29993461E+01
 20
2.17704864E+01
 40
6.01657241E+00
 50
3.15125907E+02
 51
3.58228778E+02
  0
ARC
  8
0
 62
7
 10
-4.99649301E+01
 20
2.17704864E+01
 40
6.01538783E+00
 50
1.35114672E+02
 51
1.78084364E+02
  0
ARC
  8
0
 62
7
 10
-4.55006386E+01
 20
2.17704864E+01
 40
6.02365231E+00
 50
3.15192915E+02
 51
4.48070852E+01
  0
LINE
  8
0
 62
4
 10
-2.84769561E+01
 20
1.31155018E+01
 11
-1.94769561E+01
 21
1.31155018E+01
  0
LINE
  8
0
 62
7
 10
-5.59769561E+01
 20
1.32654864E+01
 11
-2.84769561E+01
 21
1.32654864E+01
  0
LINE
  8
0
 62
7
 10
-1.94769561E+01
 20
1.32654864E+01
 11
1.90130439E+01
 21
1.32654864E+01
  0
LINE
  8
0
 62
7
 10
2.80130439E+01
 20
1.32654864E+01
 11
6.90130439E+01
 21
1.32654864E+01
  0
LINE
  8
0
 62
4
 10
1.90130438E+01
 20
1.31155018E+01
 11
2.80130439E+01
 21
1.31155018E+01
  0
LINE
  8
0
  6
CENTER
 62
2
 10
-1.05836956E+02
 20
4.39334037E+01
 11
-1.05836956E+02
 21
1.07506669E+01
  0
ARC
  8
0
 62
4
 10
-1.05836956E+02
 20
2.17654864E+01
 40
8.65000000E+00
 50
1.69314255E+02
 51
1.92344503E+02
  0
ARC
  8
0
 62
4
 10
-1.05836956E+02
 20
2.17654864E+01
 40
8.65000000E+00
 50
2.59314255E+02
 51
2.80685745E+02
  0
LINE
  8
0
 62
4
 10
-1.04336956E+02
 20
3.70654864E+01
 11
-1.04636956E+02
 21
3.67654864E+01
  0
LINE
  8
0
 62
4
 10
-1.07336956E+02
 20
3.70654864E+01
 11
-1.07036956E+02
 21
3.67654864E+01
  0
LINE
  8
0
 62
4
 10
-1.04836956E+02
 20
3.07654864E+01
 11
-1.06836956E+02
 21
3.07654864E+01
  0
LINE
  8
0
 62
4
 10
-1.04536956E+02
 20
3.17654864E+01
 11
-1.07136956E+02
 21
3.17654864E+01
  0
LINE
  8
0
 62
4
 10
-1.04536956E+02
 20
3.17654864E+01
 11
-1.03786956E+02
 21
3.10654864E+01
  0
LINE
  8
0
 62
4
 10
-1.12743348E+02
 20
2.84850478E+01
 11
-1.13218688E+02
 21
2.86401348E+01
  0
LINE
  8
0
 62
4
 10
-1.11502652E+02
 20
3.22877671E+01
 11
-1.11360050E+02
 21
3.22412410E+01
  0
LINE
  8
0
 62
4
 10
-1.10761956E+02
 20
3.61699905E+01
 11
-1.13218688E+02
 21
2.86401348E+01
  0
LINE
  8
0
 62
4
 10
-1.11360065E+02
 20
3.22411962E+01
 11
-1.12601010E+02
 21
2.84377124E+01
  0
LINE
  8
0
 62
4
 10
-1.10261956E+02
 20
3.60904864E+01
 11
-1.12841016E+02
 21
2.81856943E+01
  0
LINE
  8
0
 62
4
 10
-1.02336956E+02
 20
3.32654864E+01
 11
-1.00191942E+02
 21
2.94105056E+01
  0
LINE
  8
0
 62
4
 10
-1.02486956E+02
 20
3.32654864E+01
 11
-1.00458219E+02
 21
2.96001330E+01
  0
ARC
  8
0
 62
4
 10
-1.05836956E+02
 20
2.17654864E+01
 40
8.65000000E+00
 50
3.49314255E+02
 51
1.06857449E+01
  0
CIRCLE
  8
0
 62
4
 10
-1.05836956E+02
 20
3.30654864E+01
 40
1.30000000E+00
  0
LINE
  8
0
 62
4
 10
-1.02336956E+02
 20
3.97654864E+01
 11
-1.09336956E+02
 21
3.97654864E+01
  0
LINE
  8
0
 62
4
 10
-1.09336956E+02
 20
3.84654864E+01
 11
-1.09336956E+02
 21
3.25654864E+01
  0
LINE
  8
0
 62
4
 10
-1.02336956E+02
 20
3.84654864E+01
 11
-1.02336956E+02
 21
3.32654864E+01
  0
LINE
  8
0
 62
4
 10
-1.10136956E+02
 20
3.47632642E+01
 11
-1.10606474E+02
 21
3.50345414E+01
  0
LINE
  8
0
 62
4
 10
-1.10836956E+02
 20
3.80654864E+01
 11
-1.10836956E+02
 21
3.63804864E+01
  0
LINE
  8
0
 62
4
 10
-1.10836956E+02
 20
3.80654864E+01
 11
-1.11636956E+02
 21
3.80654864E+01
  0
LINE
  8
0
 62
4
 10
-1.08121956E+02
 20
3.89654864E+01
 11
-1.07981956E+02
 21
3.81654864E+01
  0
LINE
  8
0
 62
4
 10
-1.03551956E+02
 20
3.89654864E+01
 11
-1.03691956E+02
 21
3.81654864E+01
  0
LINE
  8
0
 62
4
 10
-1.03691956E+02
 20
3.81654864E+01
 11
-1.07981956E+02
 21
3.81654864E+01
  0
LINE
  8
0
 62
6
 10
-1.07066956E+02
 20
4.02654864E+01
 11
-1.07066956E+02
 21
3.97654864E+01
  0
LINE
  8
0
 62
6
 10
-1.04606956E+02
 20
4.02654864E+01
 11
-1.04606956E+02
 21
3.97654864E+01
  0
LINE
  8
0
 62
4
 10
-1.01536956E+02
 20
3.89654864E+01
 11
-1.01536956E+02
 21
3.32654864E+01
  0
LINE
  8
0
 62
4
 10
-1.10136956E+02
 20
3.25654864E+01
 11
-1.10136956E+02
 21
3.89654864E+01
  0
LINE
  8
0
 62
4
 10
-1.02836956E+02
 20
3.89654864E+01
 11
-1.08836956E+02
 21
3.89654864E+01
  0
LINE
  8
0
 62
4
 10
-1.11636956E+02
 20
3.80654864E+01
 11
-1.11636956E+02
 21
3.59204864E+01
  0
LINE
  8
0
 62
4
 10
-1.10136956E+02
 20
3.56894864E+01
 11
-1.10351061E+02
 21
3.58136672E+01
  0
LINE
  8
0
 62
4
 10
-1.02486956E+02
 20
3.84654864E+01
 11
-1.02486956E+02
 21
3.32654864E+01
  0
LINE
  8
0
 62
4
 10
-1.02336956E+02
 20
3.84654864E+01
 11
-1.02486956E+02
 21
3.84654864E+01
  0
LINE
  8
0
 62
4
 10
-1.02586956E+02
 20
3.67654864E+01
 11
-1.09086956E+02
 21
3.67654864E+01
  0
LINE
  8
0
 62
4
 10
-1.02586956E+02
 20
3.60654864E+01
 11
-1.09086956E+02
 21
3.60654864E+01
  0
LINE
  8
0
 62
4
 10
-1.10261956E+02
 20
3.85904864E+01
 11
-1.10261956E+02
 21
3.60904864E+01
  0
LINE
  8
0
 62
4
 10
-1.10761956E+02
 20
3.85904864E+01
 11
-1.10761956E+02
 21
3.61699905E+01
  0
LINE
  8
0
 62
4
 10
-1.10261956E+02
 20
3.85904864E+01
 11
-1.10761956E+02
 21
3.85904864E+01
  0
LINE
  8
0
 62
4
 10
-1.07336956E+02
 20
4.07654864E+01
 11
-1.07336956E+02
 21
3.97654864E+01
  0
LINE
  8
0
 62
4
 10
-1.04336956E+02
 20
4.07654864E+01
 11
-1.04336956E+02
 21
3.97654864E+01
  0
LINE
  8
0
 62
4
 10
-1.01536956E+02
 20
3.32654864E+01
 11
-1.02336956E+02
 21
3.32654864E+01
  0
LINE
  8
0
 62
4
 10
-1.09336956E+02
 20
3.25654864E+01
 11
-1.10136956E+02
 21
3.25654864E+01
  0
LINE
  8
0
 62
4
 10
-1.03336956E+02
 20
4.07654864E+01
 11
-1.08336956E+02
 21
4.07654864E+01
  0
LINE
  8
0
 62
4
 10
-1.04336956E+02
 20
4.22654864E+01
 11
-1.07336956E+02
 21
4.22654864E+01
  0
LINE
  8
0
 62
4
 10
-1.03336956E+02
 20
4.12654864E+01
 11
-1.03336956E+02
 21
4.07654864E+01
  0
LINE
  8
0
 62
4
 10
-1.08336956E+02
 20
4.12654864E+01
 11
-1.08336956E+02
 21
4.07654864E+01
  0
LINE
  8
0
 62
4
 10
-1.04336956E+02
 20
4.02654864E+01
 11
-1.07336956E+02
 21
4.02654864E+01
  0
ARC
  8
0
 62
4
 10
-1.02336959E+02
 20
3.89654832E+01
 40
8.00003254E-01
 50
2.33015759E-04
 51
9.00000002E+01
  0
ARC
  8
0
 62
4
 10
-1.09338619E+02
 20
3.89671490E+01
 40
7.98339134E-01
 50
8.98806771E+01
 51
1.80119323E+02
  0
ARC
  8
0
 62
4
 10
-1.02836960E+02
 20
3.84654821E+01
 40
5.00004290E-01
 50
4.91607912E-04
 51
9.00000002E+01
  0
ARC
  8
0
 62
4
 10
-1.08838619E+02
 20
3.84671490E+01
 40
4.98340176E-01
 50
8.98088454E+01
 51
1.80191155E+02
  0
ARC
  8
0
 62
4
 10
-1.11136752E+02
 20
3.59186207E+01
 40
5.00207143E-01
 50
1.79786293E+02
 51
2.39986760E+02
  0
ARC
  8
0
 62
4
 10
-1.10338104E+02
 20
3.63828421E+01
 40
4.98857363E-01
 50
1.80270562E+02
 51
2.09445368E+02
  0
ARC
  8
0
 62
4
 10
-1.07338368E+02
 20
4.12668987E+01
 40
9.98588677E-01
 50
8.99189656E+01
 51
1.80081034E+02
  0
ARC
  8
0
 62
4
 10
-1.04337209E+02
 20
4.12652336E+01
 40
1.00025280E+00
 50
1.44788446E-02
 51
9.00000002E+01
  0
LINE
  8
0
 62
4
 10
-1.09086956E+02
 20
3.67654864E+01
 11
-1.09086956E+02
 21
3.02654864E+01
  0
LINE
  8
0
 62
4
 10
-1.02586956E+02
 20
3.28654864E+01
 11
-1.02586956E+02
 21
3.02654864E+01
  0
LINE
  8
0
 62
4
 10
-1.02586956E+02
 20
3.28654864E+01
 11
-1.03786956E+02
 21
3.28654864E+01
  0
LINE
  8
0
 62
4
 10
-1.02586956E+02
 20
3.32654864E+01
 11
-1.03786956E+02
 21
3.32654864E+01
  0
LINE
  8
0
 62
4
 10
-1.02586956E+02
 20
3.67654864E+01
 11
-1.02586956E+02
 21
3.32654864E+01
  0
LINE
  8
0
 62
4
 10
-1.03786956E+02
 20
3.10654864E+01
 11
-1.07886956E+02
 21
3.10654864E+01
  0
LINE
  8
0
 62
4
 10
-1.03786956E+02
 20
3.50654864E+01
 11
-1.07886956E+02
 21
3.50654864E+01
  0
LINE
  8
0
 62
4
 10
-1.04836956E+02
 20
3.53654864E+01
 11
-1.06836956E+02
 21
3.53654864E+01
  0
LINE
  8
0
 62
4
 10
-1.04536956E+02
 20
3.43654864E+01
 11
-1.07136956E+02
 21
3.43654864E+01
  0
LINE
  8
0
 62
4
 10
-1.04836956E+02
 20
3.53654864E+01
 11
-1.04836956E+02
 21
3.50654864E+01
  0
LINE
  8
0
 62
4
 10
-1.04836956E+02
 20
3.10654864E+01
 11
-1.04836956E+02
 21
3.07654864E+01
  0
LINE
  8
0
 62
4
 10
-1.03786956E+02
 20
3.50654864E+01
 11
-1.03786956E+02
 21
3.10654864E+01
  0
LINE
  8
0
 62
4
 10
-1.04536956E+02
 20
3.43654864E+01
 11
-1.04536956E+02
 21
3.17654864E+01
  0
LINE
  8
0
 62
4
 10
-1.03786956E+02
 20
3.50654864E+01
 11
-1.04536956E+02
 21
3.43654864E+01
  0
LINE
  8
0
 62
4
 10
-1.07886956E+02
 20
3.50654864E+01
 11
-1.07886956E+02
 21
3.10654864E+01
  0
LINE
  8
0
 62
4
 10
-1.06836956E+02
 20
3.53654864E+01
 11
-1.06836956E+02
 21
3.50654864E+01
  0
LINE
  8
0
 62
4
 10
-1.06836956E+02
 20
3.10654864E+01
 11
-1.06836956E+02
 21
3.07654864E+01
  0
LINE
  8
0
 62
4
 10
-1.07136956E+02
 20
3.43654864E+01
 11
-1.07136956E+02
 21
3.17654864E+01
  0
LINE
  8
0
 62
4
 10
-1.07136956E+02
 20
3.43654864E+01
 11
-1.07886956E+02
 21
3.50654864E+01
  0
LINE
  8
0
 62
4
 10
-1.07136956E+02
 20
3.17654864E+01
 11
-1.07886956E+02
 21
3.10654864E+01
  0
LINE
  8
0
 62
4
 10
-1.04336956E+02
 20
3.81654864E+01
 11
-1.04336956E+02
 21
3.70654864E+01
  0
LINE
  8
0
 62
4
 10
-1.07336956E+02
 20
3.81654864E+01
 11
-1.07336956E+02
 21
3.70654864E+01
  0
LINE
  8
0
 62
6
 10
-1.04606956E+02
 20
3.81654864E+01
 11
-1.04606956E+02
 21
3.67954864E+01
  0
LINE
  8
0
 62
6
 10
-1.07066956E+02
 20
3.81654864E+01
 11
-1.07066956E+02
 21
3.67954864E+01
  0
LINE
  8
0
 62
4
 10
-1.11048995E+02
 20
3.52902199E+01
 11
-1.11386956E+02
 21
3.54854864E+01
  0
ARC
  8
0
 62
2
 10
-1.05836956E+02
 20
2.17654864E+01
 40
4.18800000E+00
 50
1.62767362E+02
 51
1.97232638E+02
  0
ARC
  8
0
 62
2
 10
-1.05836956E+02
 20
2.17654864E+01
 40
4.18800000E+00
 50
1.02767362E+02
 51
1.37232638E+02
  0
ARC
  8
0
 62
2
 10
-1.05836956E+02
 20
2.17654864E+01
 40
4.18800000E+00
 50
4.27673618E+01
 51
7.72326384E+01
  0
ARC
  8
0
 62
2
 10
-1.05836956E+02
 20
2.17654864E+01
 40
4.18800000E+00
 50
3.42767362E+02
 51
1.72326382E+01
  0
ARC
  8
0
 62
2
 10
-1.05836956E+02
 20
2.17654864E+01
 40
4.18800000E+00
 50
2.82767362E+02
 51
3.17232638E+02
  0
ARC
  8
0
 62
2
 10
-1.05836956E+02
 20
2.17654864E+01
 40
4.18800000E+00
 50
2.22767362E+02
 51
2.57232638E+02
  0
CIRCLE
  8
0
 62
2
 10
-1.05836956E+02
 20
2.17654864E+01
 40
2.06700000E+00
  0
LINE
  8
0
 62
4
 10
-1.09836956E+02
 20
1.94560851E+01
 11
-1.09836956E+02
 21
2.40748873E+01
  0
LINE
  8
0
 62
4
 10
-1.09836956E+02
 20
2.40748871E+01
 11
-1.05836956E+02
 21
2.63842882E+01
  0
LINE
  8
0
 62
4
 10
-1.05836956E+02
 20
2.63842884E+01
 11
-1.01836956E+02
 21
2.40748873E+01
  0
LINE
  8
0
 62
4
 10
-1.01836956E+02
 20
2.40748877E+01
 11
-1.01836956E+02
 21
1.94560855E+01
  0
LINE
  8
0
 62
4
 10
-1.01836956E+02
 20
1.94560857E+01
 11
-1.05836956E+02
 21
1.71466846E+01
  0
LINE
  8
0
 62
4
 10
-1.05836956E+02
 20
1.71466844E+01
 11
-1.09836956E+02
 21
1.94560855E+01
  0
LINE
  8
0
 62
7
 10
-9.73369561E+01
 20
2.60154864E+01
 11
-9.73369561E+01
 21
1.75254864E+01
  0
LINE
  8
0
 62
7
 10
-1.14336956E+02
 20
2.60154864E+01
 11
-1.14336956E+02
 21
1.75254864E+01
  0
LINE
  8
0
 62
7
 10
-1.10076956E+02
 20
1.32654864E+01
 11
-1.01586956E+02
 21
1.32654864E+01
  0
LINE
  8
0
 62
7
 10
-1.10076956E+02
 20
3.02654864E+01
 11
-1.01586956E+02
 21
3.02654864E+01
  0
LINE
  8
0
  6
CENTER
 62
2
 10
-1.16528814E+02
 20
2.17654864E+01
 11
-9.51357086E+01
 21
2.17654864E+01
  0
CIRCLE
  8
0
 62
7
 10
-1.05836956E+02
 20
2.17654860E+01
 40
2.50000000E+00
  0
CIRCLE
  8
0
 62
7
 10
-1.05836956E+02
 20
2.17654860E+01
 40
8.50000000E+00
  0
ARC
  8
0
 62
7
 10
-1.05836956E+02
 20
2.17654862E+01
 40
9.50328916E+00
 50
2.65650517E+01
 51
6.34349484E+01
  0
ARC
  8
0
 62
7
 10
-1.05841948E+02
 20
2.17605021E+01
 40
9.50105520E+00
 50
1.16470744E+02
 51
1.53394601E+02
  0
ARC
  8
0
 62
7
 10
-1.05836956E+02
 20
2.17654862E+01
 40
9.49882072E+00
 50
2.06511100E+02
 51
2.43488900E+02
  0
ARC
  8
0
 62
7
 10
-1.05841940E+02
 20
2.17604939E+01
 40
9.50105469E+00
 50
2.96605398E+02
 51
3.33529257E+02
  0
CIRCLE
  8
0
 62
4
 10
-1.05836956E+02
 20
2.17654860E+01
 40
4.00000000E+00
  0
CIRCLE
  8
0
 62
7
 10
-1.05836956E+02
 20
2.17654860E+01
 40
5.00000000E+00
  0
LINE
  8
0
  6
CENTER
 62
2
 10
9.98230439E+01
 20
1.14254864E+01
 11
9.98230439E+01
 21
4.37877302E+01
  0
ARC
  8
0
 62
4
 10
9.98230439E+01
 20
2.17654864E+01
 40
8.65000000E+00
 50
2.59314255E+02
 51
2.80685745E+02
  0
ARC
  8
0
 62
4
 10
9.98230439E+01
 20
2.17654864E+01
 40
8.65000000E+00
 50
3.49314256E+02
 51
1.06857436E+01
  0
LINE
  8
0
 62
4
 10
9.83230439E+01
 20
3.70654864E+01
 11
9.86230439E+01
 21
3.67654864E+01
  0
LINE
  8
0
 62
4
 10
1.01323044E+02
 20
3.70654864E+01
 11
1.01023044E+02
 21
3.67654864E+01
  0
LINE
  8
0
 62
4
 10
9.88230439E+01
 20
3.07654864E+01
 11
1.00823044E+02
 21
3.07654864E+01
  0
LINE
  8
0
 62
4
 10
9.85230439E+01
 20
3.17654864E+01
 11
1.01123044E+02
 21
3.17654864E+01
  0
LINE
  8
0
 62
4
 10
9.85230439E+01
 20
3.17654864E+01
 11
9.77730439E+01
 21
3.10654864E+01
  0
LINE
  8
0
 62
4
 10
1.06729435E+02
 20
2.84850478E+01
 11
1.07204775E+02
 21
2.86401348E+01
  0
LINE
  8
0
 62
4
 10
1.05488740E+02
 20
3.22877671E+01
 11
1.05346138E+02
 21
3.22412410E+01
  0
LINE
  8
0
 62
4
 10
1.04748044E+02
 20
3.61699905E+01
 11
1.07204775E+02
 21
2.86401348E+01
  0
LINE
  8
0
 62
4
 10
1.05346152E+02
 20
3.22411962E+01
 11
1.06590242E+02
 21
2.84280746E+01
  0
LINE
  8
0
 62
4
 10
1.04248044E+02
 20
3.60904864E+01
 11
1.06830171E+02
 21
2.81762935E+01
  0
LINE
  8
0
 62
4
 10
9.63230439E+01
 20
3.32654864E+01
 11
9.41739578E+01
 21
2.94031870E+01
  0
LINE
  8
0
 62
4
 10
9.64730439E+01
 20
3.32654864E+01
 11
9.44403205E+01
 21
2.95929310E+01
  0
ARC
  8
0
 62
4
 10
9.98230439E+01
 20
2.17654864E+01
 40
8.65000000E+00
 50
1.69314255E+02
 51
1.90685745E+02
  0
CIRCLE
  8
0
 62
4
 10
9.98230439E+01
 20
3.30654864E+01
 40
1.30000000E+00
  0
LINE
  8
0
 62
4
 10
9.63230439E+01
 20
3.97654864E+01
 11
1.03323044E+02
 21
3.97654864E+01
  0
LINE
  8
0
 62
4
 10
1.03323044E+02
 20
3.84654864E+01
 11
1.03323044E+02
 21
3.25654864E+01
  0
LINE
  8
0
 62
4
 10
9.63230439E+01
 20
3.84654864E+01
 11
9.63230439E+01
 21
3.32654864E+01
  0
LINE
  8
0
 62
4
 10
1.04123044E+02
 20
3.47632642E+01
 11
1.04592562E+02
 21
3.50345414E+01
  0
LINE
  8
0
 62
4
 10
1.04823044E+02
 20
3.80654864E+01
 11
1.04823044E+02
 21
3.63804864E+01
  0
LINE
  8
0
 62
4
 10
1.04823044E+02
 20
3.80654864E+01
 11
1.05623044E+02
 21
3.80654864E+01
  0
LINE
  8
0
 62
4
 10
1.02108044E+02
 20
3.89654864E+01
 11
1.01968044E+02
 21
3.81654864E+01
  0
LINE
  8
0
 62
4
 10
9.75380439E+01
 20
3.89654864E+01
 11
9.76780439E+01
 21
3.81654864E+01
  0
LINE
  8
0
 62
4
 10
9.76780439E+01
 20
3.81654864E+01
 11
1.01968044E+02
 21
3.81654864E+01
  0
LINE
  8
0
 62
6
 10
1.01053044E+02
 20
4.02654864E+01
 11
1.01053044E+02
 21
3.97654864E+01
  0
LINE
  8
0
 62
6
 10
9.85930439E+01
 20
4.02654864E+01
 11
9.85930439E+01
 21
3.97654864E+01
  0
LINE
  8
0
 62
4
 10
9.55230439E+01
 20
3.89654864E+01
 11
9.55230439E+01
 21
3.32654864E+01
  0
LINE
  8
0
 62
4
 10
1.04123044E+02
 20
3.25654864E+01
 11
1.04123044E+02
 21
3.89654864E+01
  0
LINE
  8
0
 62
4
 10
9.68230439E+01
 20
3.89654864E+01
 11
1.02823044E+02
 21
3.89654864E+01
  0
LINE
  8
0
 62
4
 10
1.05623044E+02
 20
3.80654864E+01
 11
1.05623044E+02
 21
3.59204864E+01
  0
LINE
  8
0
 62
4
 10
1.04123044E+02
 20
3.56894864E+01
 11
1.04337149E+02
 21
3.58136672E+01
  0
LINE
  8
0
 62
4
 10
9.64730439E+01
 20
3.84654864E+01
 11
9.64730439E+01
 21
3.32654864E+01
  0
LINE
  8
0
 62
4
 10
9.63230439E+01
 20
3.84654864E+01
 11
9.64730439E+01
 21
3.84654864E+01
  0
LINE
  8
0
 62
4
 10
9.65730439E+01
 20
3.67654864E+01
 11
1.03073044E+02
 21
3.67654864E+01
  0
LINE
  8
0
 62
4
 10
9.65730439E+01
 20
3.60654864E+01
 11
1.03073044E+02
 21
3.60654864E+01
  0
LINE
  8
0
 62
4
 10
1.04248044E+02
 20
3.85904864E+01
 11
1.04248044E+02
 21
3.60904864E+01
  0
LINE
  8
0
 62
4
 10
1.04748044E+02
 20
3.85904864E+01
 11
1.04748044E+02
 21
3.61699905E+01
  0
LINE
  8
0
 62
4
 10
1.04248044E+02
 20
3.85904864E+01
 11
1.04748044E+02
 21
3.85904864E+01
  0
LINE
  8
0
 62
4
 10
1.01323044E+02
 20
4.07654864E+01
 11
1.01323044E+02
 21
3.97654864E+01
  0
LINE
  8
0
 62
4
 10
9.83230439E+01
 20
4.07654864E+01
 11
9.83230439E+01
 21
3.97654864E+01
  0
LINE
  8
0
 62
4
 10
9.55230439E+01
 20
3.32654864E+01
 11
9.63230439E+01
 21
3.32654864E+01
  0
LINE
  8
0
 62
4
 10
1.03323044E+02
 20
3.25654864E+01
 11
1.04123044E+02
 21
3.25654864E+01
  0
LINE
  8
0
 62
4
 10
9.73230439E+01
 20
4.07654864E+01
 11
1.02323044E+02
 21
4.07654864E+01
  0
LINE
  8
0
 62
4
 10
9.83230439E+01
 20
4.22654864E+01
 11
1.01323044E+02
 21
4.22654864E+01
  0
LINE
  8
0
 62
4
 10
9.73230439E+01
 20
4.12654864E+01
 11
9.73230439E+01
 21
4.07654864E+01
  0
LINE
  8
0
 62
4
 10
1.02323044E+02
 20
4.12654864E+01
 11
1.02323044E+02
 21
4.07654864E+01
  0
LINE
  8
0
 62
4
 10
9.83230439E+01
 20
4.02654864E+01
 11
1.01323044E+02
 21
4.02654864E+01
  0
ARC
  8
0
 62
4
 10
9.63230471E+01
 20
3.89654832E+01
 40
8.00003254E-01
 50
9.00000002E+01
 51
1.79999767E+02
  0
ARC
  8
0
 62
4
 10
1.03324706E+02
 20
3.89671490E+01
 40
7.98339134E-01
 50
3.59880678E+02
 51
9.01193227E+01
  0
ARC
  8
0
 62
4
 10
9.68230482E+01
 20
3.84654821E+01
 40
5.00004290E-01
 50
9.00000002E+01
 51
1.79999508E+02
  0
ARC
  8
0
 62
4
 10
1.02824706E+02
 20
3.84671490E+01
 40
4.98340176E-01
 50
3.59808845E+02
 51
9.01911544E+01
  0
ARC
  8
0
 62
4
 10
1.05122840E+02
 20
3.59186207E+01
 40
5.00207143E-01
 50
3.00013240E+02
 51
2.13706628E-01
  0
ARC
  8
0
 62
4
 10
1.04324192E+02
 20
3.63828421E+01
 40
4.98857363E-01
 50
3.30554632E+02
 51
3.59729437E+02
  0
ARC
  8
0
 62
4
 10
1.01324456E+02
 20
4.12668987E+01
 40
9.98588677E-01
 50
3.59918966E+02
 51
9.00810348E+01
  0
ARC
  8
0
 62
4
 10
9.83232966E+01
 20
4.12652336E+01
 40
1.00025280E+00
 50
9.00000002E+01
 51
1.79985521E+02
  0
LINE
  8
0
 62
4
 10
1.03073044E+02
 20
3.67654864E+01
 11
1.03073044E+02
 21
3.02654864E+01
  0
LINE
  8
0
 62
4
 10
9.65730439E+01
 20
3.28654864E+01
 11
9.65730439E+01
 21
3.02654864E+01
  0
LINE
  8
0
 62
4
 10
9.65730439E+01
 20
3.28654864E+01
 11
9.77730439E+01
 21
3.28654864E+01
  0
LINE
  8
0
 62
4
 10
9.65730439E+01
 20
3.32654864E+01
 11
9.77730439E+01
 21
3.32654864E+01
  0
LINE
  8
0
 62
4
 10
9.65730439E+01
 20
3.67654864E+01
 11
9.65730439E+01
 21
3.32654864E+01
  0
LINE
  8
0
 62
4
 10
9.77730439E+01
 20
3.10654864E+01
 11
1.01873044E+02
 21
3.10654864E+01
  0
LINE
  8
0
 62
4
 10
9.77730439E+01
 20
3.50654864E+01
 11
1.01873044E+02
 21
3.50654864E+01
  0
LINE
  8
0
 62
4
 10
9.88230439E+01
 20
3.53654864E+01
 11
1.00823044E+02
 21
3.53654864E+01
  0
LINE
  8
0
 62
4
 10
9.85230439E+01
 20
3.43654864E+01
 11
1.01123044E+02
 21
3.43654864E+01
  0
LINE
  8
0
 62
4
 10
9.88230439E+01
 20
3.53654864E+01
 11
9.88230439E+01
 21
3.50654864E+01
  0
LINE
  8
0
 62
4
 10
9.88230439E+01
 20
3.10654864E+01
 11
9.88230439E+01
 21
3.07654864E+01
  0
LINE
  8
0
 62
4
 10
9.77730439E+01
 20
3.50654864E+01
 11
9.77730439E+01
 21
3.10654864E+01
  0
LINE
  8
0
 62
4
 10
9.85230439E+01
 20
3.43654864E+01
 11
9.85230439E+01
 21
3.17654864E+01
  0
LINE
  8
0
 62
4
 10
9.77730439E+01
 20
3.50654864E+01
 11
9.85230439E+01
 21
3.43654864E+01
  0
LINE
  8
0
 62
4
 10
1.01873044E+02
 20
3.50654864E+01
 11
1.01873044E+02
 21
3.10654864E+01
  0
LINE
  8
0
 62
4
 10
1.00823044E+02
 20
3.53654864E+01
 11
1.00823044E+02
 21
3.50654864E+01
  0
LINE
  8
0
 62
4
 10
1.00823044E+02
 20
3.10654864E+01
 11
1.00823044E+02
 21
3.07654864E+01
  0
LINE
  8
0
 62
4
 10
1.01123044E+02
 20
3.43654864E+01
 11
1.01123044E+02
 21
3.17654864E+01
  0
LINE
  8
0
 62
4
 10
1.01123044E+02
 20
3.43654864E+01
 11
1.01873044E+02
 21
3.50654864E+01
  0
LINE
  8
0
 62
4
 10
1.01123044E+02
 20
3.17654864E+01
 11
1.01873044E+02
 21
3.10654864E+01
  0
LINE
  8
0
 62
4
 10
9.83230439E+01
 20
3.81654864E+01
 11
9.83230439E+01
 21
3.70654864E+01
  0
LINE
  8
0
 62
4
 10
1.01323044E+02
 20
3.81654864E+01
 11
1.01323044E+02
 21
3.70654864E+01
  0
LINE
  8
0
 62
6
 10
9.85930439E+01
 20
3.81654864E+01
 11
9.85930439E+01
 21
3.67954864E+01
  0
LINE
  8
0
 62
6
 10
1.01053044E+02
 20
3.81654864E+01
 11
1.01053044E+02
 21
3.67954864E+01
  0
LINE
  8
0
 62
4
 10
1.05035083E+02
 20
3.52902199E+01
 11
1.05373044E+02
 21
3.54854864E+01
  0
LINE
  8
0
 62
7
 10
1.08323044E+02
 20
1.75254865E+01
 11
1.08323044E+02
 21
2.60134112E+01
  0
LINE
  8
0
 62
7
 10
9.13230439E+01
 20
1.75254864E+01
 11
9.13230439E+01
 21
2.60154864E+01
  0
LINE
  8
0
 62
7
 10
9.55830439E+01
 20
3.02654864E+01
 11
1.04063044E+02
 21
3.02654864E+01
  0
LINE
  8
0
 62
7
 10
9.55830439E+01
 20
1.32654864E+01
 11
1.04063044E+02
 21
1.32654864E+01
  0
LINE
  8
0
 62
7
 10
1.03073044E+02
 20
1.32654864E+01
 11
1.03073044E+02
 21
3.02654864E+01
  0
LINE
  8
0
 62
7
 10
9.65730439E+01
 20
1.32654864E+01
 11
9.65730439E+01
 21
3.02654864E+01
  0
LINE
  8
0
  6
CENTER
 62
2
 10
8.90340410E+01
 20
2.17654864E+01
 11
1.10393044E+02
 21
2.17654864E+01
  0
ARC
  8
0
 62
7
 10
9.98213753E+01
 20
2.17571707E+01
 40
9.50551887E+00
 50
1.16479727E+02
 51
1.53385619E+02
  0
ARC
  8
0
 62
7
 10
9.98263727E+01
 20
2.17688152E+01
 40
9.50328580E+00
 50
2.06520101E+02
 51
2.43479899E+02
  0
ARC
  8
0
 62
7
 10
9.98263715E+01
 20
2.17621588E+01
 40
9.49435798E+00
 50
2.96502094E+02
 51
3.33497906E+02
  0
ARC
  8
0
 62
7
 10
9.98380693E+01
 20
2.17535301E+01
 40
9.49428151E+00
 50
2.66589370E+01
 51
6.36021455E+01
  0
ARC
  8
0
 62
7
 10
9.98291667E+01
 20
2.17662895E+01
 40
8.49387723E+00
 50
2.92451901E+02
 51
6.75480995E+01
  0
ARC
  8
0
 62
7
 10
9.98297004E+01
 20
2.17654864E+01
 40
8.49958100E+00
 50
1.12529244E+02
 51
2.47470755E+02
  0
LINE
  8
0
  6
CENTER
 62
2
 10
6.10130439E+01
 20
7.22954864E+01
 11
6.10130439E+01
 21
5.11860175E+01
  0
LINE
  8
0
  6
PHANTOM
 10
3.51304386E+00
 20
7.60631544E+01
 11
3.51304386E+00
 21
4.14686629E+01
  0
LINE
  8
0
  6
CENTER
 62
6
 10
-2.39769561E+01
 20
7.17654851E+01
 11
-2.39769561E+01
 21
5.17654864E+01
  0
TEXT
  8
0
 62
7
 10
-1.88128936E+01
 20
5.43654864E+01
 40
1.50000000E+00
  1
PBDACS16-7
 41
1.00000000E+00
  7
MONOTXT
  0
LINE
  8
0
 62
7
 10
3.70130439E+01
 20
6.35321531E+01
 11
3.70130439E+01
 21
7.02654864E+01
  0
LINE
  8
0
 62
7
 10
-1.94769561E+01
 20
5.32654864E+01
 11
1.90130439E+01
 21
5.32654864E+01
  0
LINE
  8
0
 62
7
 10
2.80130439E+01
 20
5.32654864E+01
 11
6.90130439E+01
 21
5.32654864E+01
  0
LINE
  8
0
 62
7
 10
2.80130439E+01
 20
7.02654864E+01
 11
6.90130439E+01
 21
7.02654864E+01
  0
LINE
  8
0
 62
4
 10
-1.94769561E+01
 20
5.31154864E+01
 11
-1.94769561E+01
 21
7.04154864E+01
  0
LINE
  8
0
 62
4
 10
-2.84769561E+01
 20
6.60654864E+01
 11
-1.94769561E+01
 21
6.60654864E+01
  0
LINE
  8
0
 62
4
 10
-2.84769561E+01
 20
6.66904864E+01
 11
-1.94769561E+01
 21
6.66904864E+01
  0
LINE
  8
0
 62
4
 10
-2.84769561E+01
 20
6.61904864E+01
 11
-1.94769561E+01
 21
6.61904864E+01
  0
LINE
  8
0
 62
4
 10
-2.84769561E+01
 20
6.91404864E+01
 11
-1.94769561E+01
 21
6.91404864E+01
  0
LINE
  8
0
 62
4
 10
-2.59769561E+01
 20
6.75654864E+01
 11
-2.19769561E+01
 21
6.75654864E+01
  0
LINE
  8
0
 62
4
 10
-2.59769561E+01
 20
6.67654864E+01
 11
-2.19769561E+01
 21
6.67654864E+01
  0
LINE
  8
0
 62
4
 10
-2.84769561E+01
 20
7.04154864E+01
 11
-1.94769561E+01
 21
7.04154864E+01
  0
LINE
  8
0
 62
4
 10
-2.19769561E+01
 20
6.75654864E+01
 11
-2.19769561E+01
 21
6.66904864E+01
  0
LINE
  8
0
 62
4
 10
-2.84769561E+01
 20
5.74654864E+01
 11
-1.94769561E+01
 21
5.74654864E+01
  0
LINE
  8
0
 62
4
 10
-2.84769561E+01
 20
5.31154864E+01
 11
-1.94769561E+01
 21
5.31154864E+01
  0
LINE
  8
0
 62
6
 10
-3.53995704E+00
 20
6.30654864E+01
 11
-6.13995704E+00
 21
6.04654864E+01
  0
LINE
  8
0
 62
4
 10
-8.47695613E+00
 20
6.04654864E+01
 11
-6.13995704E+00
 21
6.04654864E+01
  0
LINE
  8
0
 62
4
 10
-1.14769561E+01
 20
5.97654864E+01
 11
-8.47695613E+00
 21
6.04654864E+01
  0
LINE
  8
0
 62
4
 10
-8.47695612E+00
 20
6.30654864E+01
 11
-8.47695612E+00
 21
6.04654864E+01
  0
LINE
  8
0
 62
4
 10
-8.47695613E+00
 20
6.30654864E+01
 11
-3.53995704E+00
 21
6.30654864E+01
  0
LINE
  8
0
 62
4
 10
-1.14769561E+01
 20
6.37654864E+01
 11
-8.47695612E+00
 21
6.30654864E+01
  0
LINE
  8
0
 62
4
 10
-1.14769561E+01
 20
6.37654864E+01
 11
-1.14769561E+01
 21
5.97654864E+01
  0
LINE
  8
0
 62
4
 10
-1.94769561E+01
 20
6.50154864E+01
 11
-1.69769561E+01
 21
6.50154864E+01
  0
LINE
  8
0
 62
4
 10
-1.69769561E+01
 20
5.85154864E+01
 11
-1.69769561E+01
 21
6.50154864E+01
  0
LINE
  8
0
 62
4
 10
-1.69769561E+01
 20
6.37654864E+01
 11
-1.14769561E+01
 21
6.37654864E+01
  0
LINE
  8
0
 62
4
 10
-1.69769561E+01
 20
5.97654864E+01
 11
-1.14769561E+01
 21
5.97654864E+01
  0
LINE
  8
0
 62
4
 10
-1.94769561E+01
 20
5.85154864E+01
 11
-1.69769561E+01
 21
5.85154864E+01
  0
LINE
  8
0
 62
4
 10
-2.84769561E+01
 20
5.31154864E+01
 11
-2.84769561E+01
 21
7.04154864E+01
  0
LINE
  8
0
 62
4
 10
-2.59769561E+01
 20
6.66904864E+01
 11
-2.59769561E+01
 21
6.75654864E+01
  0
LINE
  8
0
 62
4
 10
-2.29669561E+01
 20
6.07654864E+01
 11
-2.50369561E+01
 21
6.28254864E+01
  0
LINE
  8
0
 62
4
 10
-2.50369561E+01
 20
6.07054864E+01
 11
-2.29169561E+01
 21
6.28254864E+01
  0
CIRCLE
  8
0
 62
4
 10
-2.39778314E+01
 20
6.17630279E+01
 40
2.50000000E+00
  0
LINE
  8
0
 62
4
 10
-3.09769561E+01
 20
5.85154864E+01
 11
-2.84769561E+01
 21
5.85154864E+01
  0
LINE
  8
0
 62
4
 10
-3.54769561E+01
 20
5.97654864E+01
 11
-3.09769561E+01
 21
5.97654864E+01
  0
LINE
  8
0
 62
4
 10
-3.64769561E+01
 20
6.07654864E+01
 11
-3.54769561E+01
 21
5.97654864E+01
  0
LINE
  8
0
 62
4
 10
-3.64769561E+01
 20
6.27654864E+01
 11
-3.64769561E+01
 21
6.07654864E+01
  0
LINE
  8
0
 62
4
 10
-3.09769561E+01
 20
6.50154864E+01
 11
-2.84769561E+01
 21
6.50154864E+01
  0
LINE
  8
0
 62
4
 10
-3.54769561E+01
 20
6.37654864E+01
 11
-3.09769561E+01
 21
6.37654864E+01
  0
LINE
  8
0
 62
4
 10
-3.54769561E+01
 20
6.37654864E+01
 11
-3.54769561E+01
 21
5.97654864E+01
  0
LINE
  8
0
 62
4
 10
-3.09769561E+01
 20
5.85154864E+01
 11
-3.09769561E+01
 21
6.50154864E+01
  0
LINE
  8
0
 62
4
 10
-3.64769561E+01
 20
6.27654864E+01
 11
-3.54769561E+01
 21
6.37654864E+01
  0
LINE
  8
0
 62
4
 10
2.80130439E+01
 20
5.31154864E+01
 11
2.80130439E+01
 21
7.04154864E+01
  0
LINE
  8
0
 62
4
 10
1.90130439E+01
 20
6.60654864E+01
 11
2.80130439E+01
 21
6.60654864E+01
  0
LINE
  8
0
 62
4
 10
1.90130439E+01
 20
6.66904864E+01
 11
2.80130439E+01
 21
6.66904864E+01
  0
LINE
  8
0
 62
4
 10
1.90130439E+01
 20
6.61904864E+01
 11
2.80130439E+01
 21
6.61904864E+01
  0
LINE
  8
0
 62
4
 10
1.90130439E+01
 20
6.91404864E+01
 11
2.80130439E+01
 21
6.91404864E+01
  0
LINE
  8
0
 62
4
 10
2.15130439E+01
 20
6.75654864E+01
 11
2.55130439E+01
 21
6.75654864E+01
  0
LINE
  8
0
 62
4
 10
2.15130439E+01
 20
6.67654864E+01
 11
2.55130439E+01
 21
6.67654864E+01
  0
LINE
  8
0
 62
4
 10
1.90130439E+01
 20
7.04154864E+01
 11
2.80130439E+01
 21
7.04154864E+01
  0
LINE
  8
0
 62
4
 10
2.55130439E+01
 20
6.75654864E+01
 11
2.55130439E+01
 21
6.66904864E+01
  0
LINE
  8
0
 62
4
 10
1.90130439E+01
 20
5.74654864E+01
 11
2.80130439E+01
 21
5.74654864E+01
  0
LINE
  8
0
 62
4
 10
1.90130439E+01
 20
5.31154864E+01
 11
2.80130439E+01
 21
5.31154864E+01
  0
LINE
  8
0
 62
6
 10
4.39500429E+01
 20
6.30654864E+01
 11
4.13500429E+01
 21
6.04654864E+01
  0
LINE
  8
0
 62
4
 10
3.90130438E+01
 20
6.04654864E+01
 11
4.13500429E+01
 21
6.04654864E+01
  0
LINE
  8
0
 62
4
 10
3.60130439E+01
 20
5.97654864E+01
 11
3.90130438E+01
 21
6.04654864E+01
  0
LINE
  8
0
 62
4
 10
3.90130439E+01
 20
6.30654864E+01
 11
3.90130439E+01
 21
6.04654864E+01
  0
LINE
  8
0
 62
4
 10
3.90130438E+01
 20
6.30654864E+01
 11
4.39500429E+01
 21
6.30654864E+01
  0
LINE
  8
0
 62
4
 10
3.60130439E+01
 20
6.37654864E+01
 11
3.90130439E+01
 21
6.30654864E+01
  0
LINE
  8
0
 62
4
 10
3.60130439E+01
 20
6.37654864E+01
 11
3.60130439E+01
 21
5.97654864E+01
  0
LINE
  8
0
 62
4
 10
2.80130439E+01
 20
6.50154864E+01
 11
3.05130439E+01
 21
6.50154864E+01
  0
LINE
  8
0
 62
4
 10
3.05130439E+01
 20
5.85154864E+01
 11
3.05130439E+01
 21
6.50154864E+01
  0
LINE
  8
0
 62
4
 10
3.05130439E+01
 20
6.37654864E+01
 11
3.60130439E+01
 21
6.37654864E+01
  0
LINE
  8
0
 62
4
 10
3.05130439E+01
 20
5.97654864E+01
 11
3.60130439E+01
 21
5.97654864E+01
  0
LINE
  8
0
 62
4
 10
2.80130439E+01
 20
5.85154864E+01
 11
3.05130439E+01
 21
5.85154864E+01
  0
LINE
  8
0
 62
4
 10
1.90130439E+01
 20
5.31154864E+01
 11
1.90130439E+01
 21
7.04154864E+01
  0
LINE
  8
0
 62
4
 10
2.15130439E+01
 20
6.66904864E+01
 11
2.15130439E+01
 21
6.75654864E+01
  0
LINE
  8
0
 62
4
 10
2.45230439E+01
 20
6.07654864E+01
 11
2.24530439E+01
 21
6.28254864E+01
  0
LINE
  8
0
 62
4
 10
2.24530439E+01
 20
6.07054864E+01
 11
2.45730439E+01
 21
6.28254864E+01
  0
CIRCLE
  8
0
 62
4
 10
2.35121686E+01
 20
6.17630279E+01
 40
2.50000000E+00
  0
LINE
  8
0
 62
4
 10
1.65130439E+01
 20
5.85154864E+01
 11
1.90130439E+01
 21
5.85154864E+01
  0
LINE
  8
0
 62
4
 10
1.20130439E+01
 20
5.97654864E+01
 11
1.65130439E+01
 21
5.97654864E+01
  0
LINE
  8
0
 62
4
 10
1.10130439E+01
 20
6.07654864E+01
 11
1.20130439E+01
 21
5.97654864E+01
  0
LINE
  8
0
 62
4
 10
1.10130439E+01
 20
6.27654864E+01
 11
1.10130439E+01
 21
6.07654864E+01
  0
LINE
  8
0
 62
4
 10
1.65130439E+01
 20
6.50154864E+01
 11
1.90130439E+01
 21
6.50154864E+01
  0
LINE
  8
0
 62
4
 10
1.20130439E+01
 20
6.37654864E+01
 11
1.65130439E+01
 21
6.37654864E+01
  0
LINE
  8
0
 62
4
 10
1.20130439E+01
 20
6.37654864E+01
 11
1.20130439E+01
 21
5.97654864E+01
  0
LINE
  8
0
 62
4
 10
1.65130439E+01
 20
5.85154864E+01
 11
1.65130439E+01
 21
6.50154864E+01
  0
LINE
  8
0
 62
4
 10
1.10130439E+01
 20
6.27654864E+01
 11
1.20130439E+01
 21
6.37654864E+01
  0
LINE
  8
0
 62
7
 10
-1.94769561E+01
 20
7.02654864E+01
 11
1.90130439E+01
 21
7.02654864E+01
  0
LINE
  8
0
 62
7
 10
-7.96496926E+01
 20
6.17654920E+01
 11
-7.63642217E+01
 21
6.17654864E+01
  0
LINE
  8
0
 62
7
 10
4.22172004E+01
 20
5.78789586E+01
 11
4.22172004E+01
 21
5.54520264E+01
  0
LINE
  8
0
 62
7
 10
4.28172004E+01
 20
5.78789586E+01
 11
4.28172004E+01
 21
5.54520264E+01
  0
LINE
  8
0
 62
2
 10
4.25172004E+01
 20
5.91919638E+01
 11
4.25172004E+01
 21
5.42098092E+01
  0
LINE
  8
0
  6
CENTER
 62
2
 10
4.58730286E+01
 20
5.66654895E+01
 11
3.96130286E+01
 21
5.66654895E+01
  0
CIRCLE
  8
0
 62
7
 10
4.25172004E+01
 20
5.66654925E+01
 40
1.25000000E+00
  0
CIRCLE
  8
0
 62
7
 10
4.25172004E+01
 20
5.66654925E+01
 40
1.75000000E+00
  0
CIRCLE
  8
0
 62
7
 10
4.65130439E+01
 20
6.17654864E+01
 40
2.06700000E+00
  0
CIRCLE
  8
0
 62
7
 10
-4.89769561E+01
 20
6.17654864E+01
 40
2.06700000E+00
  0
LINE
  8
0
 62
7
 10
-4.52827844E+01
 20
5.78789556E+01
 11
-4.52827844E+01
 21
5.54520233E+01
  0
LINE
  8
0
 62
7
 10
-4.46827844E+01
 20
5.78789556E+01
 11
-4.46827844E+01
 21
5.54520233E+01
  0
LINE
  8
0
 62
2
 10
-4.49827844E+01
 20
5.91919607E+01
 11
-4.49827844E+01
 21
5.42098062E+01
  0
LINE
  8
0
 62
7
 10
-3.94769561E+01
 20
7.02654864E+01
 11
-3.94769561E+01
 21
5.32654864E+01
  0
LINE
  8
0
 62
7
 10
-5.59769561E+01
 20
7.02654864E+01
 11
-5.59769561E+01
 21
5.32654864E+01
  0
LINE
  8
0
  6
CENTER
 62
2
 10
-8.58100609E+01
 20
6.17654864E+01
 11
7.24459791E+01
 21
6.17654864E+01
  0
LINE
  8
0
 62
7
 10
-5.59769561E+01
 20
5.32654864E+01
 11
-2.84769561E+01
 21
5.32654864E+01
  0
LINE
  8
0
 62
7
 10
-5.42269561E+01
 20
5.75154864E+01
 11
-4.65069561E+01
 21
5.75154864E+01
  0
LINE
  8
0
  6
CENTER
 62
2
 10
4.65130439E+01
 20
6.60054864E+01
 11
4.65130439E+01
 21
5.75154864E+01
  0
LINE
  8
0
 62
7
 10
-5.42269561E+01
 20
5.75154864E+01
 11
-5.42269561E+01
 21
5.32654864E+01
  0
LINE
  8
0
 62
7
 10
-4.12269561E+01
 20
5.75154864E+01
 11
-4.12269561E+01
 21
5.32654864E+01
  0
LINE
  8
0
 62
7
 10
6.72630439E+01
 20
5.75154864E+01
 11
6.72630439E+01
 21
5.32654864E+01
  0
LINE
  8
0
 62
7
 10
3.87630439E+01
 20
5.75154864E+01
 11
4.09830439E+01
 21
5.75154864E+01
  0
LINE
  8
0
 62
7
 10
5.10130439E+01
 20
6.50154864E+01
 11
5.10130439E+01
 21
5.85154864E+01
  0
LINE
  8
0
 62
7
 10
5.10130439E+01
 20
5.85154864E+01
 11
6.90130439E+01
 21
5.85154864E+01
  0
LINE
  8
0
 62
7
 10
5.10130439E+01
 20
6.50154864E+01
 11
6.90130439E+01
 21
6.50154864E+01
  0
LINE
  8
0
 62
7
 10
3.87630439E+01
 20
5.75154864E+01
 11
3.87630439E+01
 21
5.32654864E+01
  0
LINE
  8
0
 62
7
 10
3.70130439E+01
 20
5.32654864E+01
 11
3.70130439E+01
 21
5.99988197E+01
  0
LINE
  8
0
 62
7
 10
-5.59769561E+01
 20
7.02654864E+01
 11
-2.84769561E+01
 21
7.02654864E+01
  0
LINE
  8
0
 62
7
 10
-5.42269561E+01
 20
6.60054864E+01
 11
-4.12269561E+01
 21
6.60054864E+01
  0
LINE
  8
0
 62
7
 10
-5.42269561E+01
 20
6.60054864E+01
 11
-5.42269561E+01
 21
7.02654864E+01
  0
LINE
  8
0
 62
7
 10
-4.12269561E+01
 20
6.60054864E+01
 11
-4.12269561E+01
 21
7.02654864E+01
  0
LINE
  8
0
 62
7
 10
6.72630439E+01
 20
6.60054864E+01
 11
6.72630439E+01
 21
7.02654864E+01
  0
LINE
  8
0
 62
7
 10
3.87630439E+01
 20
6.60054864E+01
 11
6.72630439E+01
 21
6.60054864E+01
  0
LINE
  8
0
 62
7
 10
6.90130439E+01
 20
5.32654864E+01
 11
6.90130439E+01
 21
5.85154864E+01
  0
LINE
  8
0
 62
7
 10
3.87630439E+01
 20
6.60054864E+01
 11
3.87630439E+01
 21
7.02654864E+01
  0
LINE
  8
0
  6
CENTER
 62
2
 10
-4.89769561E+01
 20
6.60054864E+01
 11
-4.89769561E+01
 21
5.75154864E+01
  0
LINE
  8
0
 62
7
 10
6.90130439E+01
 20
6.50154864E+01
 11
6.90130439E+01
 21
7.02654864E+01
  0
LINE
  8
0
 62
7
 10
4.40430439E+01
 20
5.75154864E+01
 11
6.72630439E+01
 21
5.75154864E+01
  0
LINE
  8
0
  6
CENTER
 62
2
 10
-4.22888217E+01
 20
5.66654864E+01
 11
-4.78869561E+01
 21
5.66654864E+01
  0
LINE
  8
0
 62
7
 10
-4.34569561E+01
 20
5.75154864E+01
 11
-4.12269561E+01
 21
5.75154864E+01
  0
ARC
  8
0
 62
7
 10
-4.55023967E+01
 20
6.17612561E+01
 40
6.02544205E+00
 50
3.15199504E+02
 51
4.02263448E-02
  0
ARC
  8
0
 62
7
 10
-4.99614910E+01
 20
6.17571485E+01
 40
6.01547095E+00
 50
1.79920584E+02
 51
2.24839686E+02
  0
ARC
  8
0
 62
7
 10
6.29900433E+01
 20
6.17538868E+01
 40
6.01851909E+00
 50
3.15232915E+02
 51
3.27447469E+02
  0
ARC
  8
0
 62
7
 10
4.30370555E+01
 20
6.17606677E+01
 40
6.02401354E+00
 50
1.96435545E+02
 51
2.24806102E+02
  0
ARC
  8
0
 62
7
 10
6.30108849E+01
 20
6.17511660E+01
 40
6.01498943E+00
 50
3.28674663E+01
 51
4.50145583E+01
  0
ARC
  8
0
 62
7
 10
-4.54988719E+01
 20
6.17611697E+01
 40
6.02191737E+00
 50
4.10711680E-02
 51
4.48143182E+01
  0
ARC
  8
0
 62
7
 10
-4.99650147E+01
 20
6.17652865E+01
 40
6.01194142E+00
 50
1.35146516E+02
 51
1.79998095E+02
  0
ARC
  8
0
 62
7
 10
4.30335309E+01
 20
6.17617595E+01
 40
6.02048817E+00
 50
1.35180079E+02
 51
1.63475550E+02
  0
CIRCLE
  8
0
 62
2
 10
-4.89827844E+01
 20
6.17654879E+01
 40
2.50000000E+00
  0
CIRCLE
  8
0
 62
2
 10
4.65172004E+01
 20
6.17654879E+01
 40
2.50000000E+00
  0
CIRCLE
  8
0
 62
7
 10
-4.49827844E+01
 20
5.66654895E+01
 40
1.25000000E+00
  0
CIRCLE
  8
0
 62
7
 10
-4.49827844E+01
 20
5.66654895E+01
 40
1.75000000E+00
  0
ARC
  8
0
 62
4
 10
-7.42302475E+01
 20
5.97654864E+01
 40
5.77670860E+00
 50
1.59743845E+02
 51
2.00256101E+02
  0
ARC
  8
0
 62
4
 10
-7.42302475E+01
 20
6.37654864E+01
 40
5.77670860E+00
 50
1.59743845E+02
 51
2.00256101E+02
  0
ARC
  8
0
 62
4
 10
-8.17836647E+01
 20
6.37654864E+01
 40
5.77670860E+00
 50
3.39743808E+02
 51
2.02560648E+01
  0
ARC
  8
0
 62
4
 10
-8.17836647E+01
 20
5.97654864E+01
 40
5.77670860E+00
 50
3.39743863E+02
 51
2.02561194E+01
  0
LINE
  8
0
 62
4
 10
-8.00069561E+01
 20
5.77654864E+01
 11
-8.00069561E+01
 21
6.57654864E+01
  0
LINE
  8
0
 62
4
 10
-7.60069561E+01
 20
6.57654864E+01
 11
-8.00069561E+01
 21
6.57654864E+01
  0
LINE
  8
0
 62
4
 10
-7.60069561E+01
 20
5.77654864E+01
 11
-7.60069561E+01
 21
6.57654864E+01
  0
LINE
  8
0
 62
4
 10
-7.60069561E+01
 20
5.77654864E+01
 11
-8.00069561E+01
 21
5.77654864E+01
  0
LINE
  8
0
 62
7
 10
-7.60069561E+01
 20
5.92654864E+01
 11
-6.39769561E+01
 21
5.92654864E+01
  0
LINE
  8
0
 62
7
 10
-8.39769561E+01
 20
5.97654864E+01
 11
-8.34769561E+01
 21
5.92654864E+01
  0
LINE
  8
0
 62
7
 10
-8.34769561E+01
 20
5.92654864E+01
 11
-8.00069561E+01
 21
5.92654864E+01
  0
LINE
  8
0
 62
7
 10
-6.39769561E+01
 20
5.77654864E+01
 11
-6.29769561E+01
 21
5.67654864E+01
  0
LINE
  8
0
 62
2
 10
-8.39769561E+01
 20
5.96984864E+01
 11
-8.00069561E+01
 21
5.96984864E+01
  0
LINE
  8
0
 62
2
 10
-7.60069561E+01
 20
5.96984864E+01
 11
-6.89769561E+01
 21
5.96984864E+01
  0
LINE
  8
0
 62
2
 10
-6.37889561E+01
 20
5.75774864E+01
 11
-5.74769561E+01
 21
5.75774864E+01
  0
LINE
  8
0
 62
7
 10
-6.29769561E+01
 20
5.67654864E+01
 11
-5.59769561E+01
 21
5.67654864E+01
  0
LINE
  8
0
 62
7
 10
-7.60069561E+01
 20
6.42654864E+01
 11
-6.39769561E+01
 21
6.42654864E+01
  0
LINE
  8
0
 62
7
 10
-8.39769561E+01
 20
6.37654864E+01
 11
-8.34769561E+01
 21
6.42654864E+01
  0
LINE
  8
0
 62
7
 10
-8.34769561E+01
 20
6.42654864E+01
 11
-8.00069561E+01
 21
6.42654864E+01
  0
LINE
  8
0
 62
7
 10
-6.39769561E+01
 20
6.57654864E+01
 11
-6.29769561E+01
 21
6.67654864E+01
  0
LINE
  8
0
 62
2
 10
-8.39099561E+01
 20
6.38324864E+01
 11
-8.00069561E+01
 21
6.38324864E+01
  0
LINE
  8
0
 62
2
 10
-7.60069561E+01
 20
6.38324864E+01
 11
-6.89769561E+01
 21
6.38324864E+01
  0
LINE
  8
0
 62
2
 10
-6.37889561E+01
 20
6.59534864E+01
 11
-5.74769561E+01
 21
6.59534864E+01
  0
LINE
  8
0
 62
7
 10
-6.39769561E+01
 20
6.57654864E+01
 11
-6.39769561E+01
 21
5.77654864E+01
  0
LINE
  8
0
 62
7
 10
-6.29769561E+01
 20
6.67654864E+01
 11
-5.59769561E+01
 21
6.67654864E+01
  0
LINE
  8
0
 62
7
 10
-5.74769561E+01
 20
6.67654864E+01
 11
-5.74769561E+01
 21
5.67654864E+01
  0
LINE
  8
0
 62
7
 10
-6.29769561E+01
 20
6.67654864E+01
 11
-6.29769561E+01
 21
5.67654864E+01
  0
LINE
  8
0
 62
7
 10
-8.39769561E+01
 20
6.37654864E+01
 11
-8.39769561E+01
 21
5.97654864E+01
  0
LINE
  8
0
 62
7
 10
-6.89769561E+01
 20
6.42654864E+01
 11
-6.89769561E+01
 21
5.92654864E+01
  0
LINE
  8
0
 62
7
 10
-8.34769561E+01
 20
6.42654864E+01
 11
-8.34769561E+01
 21
5.92654864E+01
  0
LINE
  8
0
  6
CENTER
 62
6
 10
2.35130439E+01
 20
7.17654851E+01
 11
2.35130439E+01
 21
5.17654864E+01
  0
LINE
  8
0
  6
CENTER
 62
6
 10
-9.71721313E+01
 20
-4.36640251E+01
 11
-6.97352566E+01
 21
-4.36640251E+01
  0
LINE
  8
0
 62
4
 10
-9.54137148E+01
 20
-3.40440251E+01
 11
-8.94137148E+01
 21
-3.40440251E+01
  0
LINE
  8
0
 62
4
 10
-9.54137148E+01
 20
-5.35618232E+01
 11
-8.94137148E+01
 21
-5.35618232E+01
  0
LINE
  8
0
 62
4
 10
-9.54137148E+01
 20
-5.35618232E+01
 11
-9.54137148E+01
 21
-3.40440250E+01
  0
LINE
  8
0
 62
4
 10
-8.94137148E+01
 20
-5.35618232E+01
 11
-8.94137148E+01
 21
-3.40440250E+01
  0
LINE
  8
0
 62
4
 10
-9.54137148E+01
 20
-3.43340251E+01
 11
-8.94137148E+01
 21
-3.43340251E+01
  0
LINE
  8
0
 62
4
 10
-9.54137148E+01
 20
-3.70097241E+01
 11
-8.94137148E+01
 21
-3.70097241E+01
  0
LINE
  8
0
 62
4
 10
-8.14137148E+01
 20
-3.96640251E+01
 11
-7.54137148E+01
 21
-3.96640251E+01
  0
LINE
  8
0
 62
4
 10
-8.14137148E+01
 20
-4.76640251E+01
 11
-7.54137148E+01
 21
-4.76640251E+01
  0
CIRCLE
  8
0
 62
4
 10
-7.64137148E+01
 20
-4.36640251E+01
 40
2.00000000E+00
  0
CIRCLE
  8
0
 62
4
 10
-7.64137148E+01
 20
-4.36640251E+01
 40
2.50000000E+00
  0
LINE
  8
0
  6
CENTER
 62
6
 10
-7.64137148E+01
 20
-3.96640251E+01
 11
-7.64137148E+01
 21
-4.76640251E+01
  0
LINE
  8
0
 62
4
 10
-8.14137148E+01
 20
-4.76640251E+01
 11
-8.14137148E+01
 21
-4.61640251E+01
  0
LINE
  8
0
 62
4
 10
-8.94137148E+01
 20
-4.11640251E+01
 11
-8.14137148E+01
 21
-4.11640251E+01
  0
LINE
  8
0
 62
4
 10
-8.94137148E+01
 20
-4.61640251E+01
 11
-8.14137148E+01
 21
-4.61640251E+01
  0
LINE
  8
0
 62
4
 10
-8.14137148E+01
 20
-4.11640251E+01
 11
-8.14137148E+01
 21
-3.96640251E+01
  0
ARC
  8
0
 62
4
 10
-7.54137148E+01
 20
-4.36640251E+01
 40
4.00000000E+00
 50
2.70000000E+02
 51
9.00000002E+01
  0
LINE
  8
0
  6
CENTER
 62
6
 10
-3.19137148E+01
 20
-3.39999694E+01
 11
-3.19137148E+01
 21
-5.58819320E+01
  0
ARC
  8
0
 62
4
 10
-3.19119544E+01
 20
-4.36706359E+01
 40
9.89118734E+00
 50
1.94600742E+02
 51
3.48373449E+02
  0
ARC
  8
0
 62
4
 10
-4.05477494E+01
 20
-3.70097241E+01
 40
1.00392057E+00
 50
3.22272848E+02
 51
4.46636107E+01
  0
ARC
  8
0
 62
4
 10
-4.05475702E+01
 20
-3.70127548E+01
 40
1.40190405E+00
 50
3.22610924E+02
 51
4.48518702E+01
  0
ARC
  8
0
 62
4
 10
-2.32798545E+01
 20
-3.70127551E+01
 40
1.40190777E+00
 50
1.35148263E+02
 51
2.17388943E+02
  0
ARC
  8
0
 62
4
 10
-2.32796754E+01
 20
-3.70097244E+01
 40
1.00392430E+00
 50
1.35336575E+02
 51
2.17726966E+02
  0
ARC
  8
0
 62
4
 10
-3.19048123E+01
 20
-4.36525142E+01
 40
9.89686572E+00
 50
1.42473295E+02
 51
1.65437133E+02
  0
ARC
  8
0
 62
4
 10
-3.19186336E+01
 20
-4.36599532E+01
 40
9.89824120E+00
 50
1.16331547E+01
 51
3.75749018E+01
  0
ARC
  8
0
 62
4
 10
-3.19103866E+01
 20
-4.36673533E+01
 40
9.49435721E+00
 50
1.95245994E+02
 51
3.33497907E+02
  0
ARC
  8
0
 62
4
 10
-3.19046135E+01
 20
-4.36467877E+01
 40
9.49929101E+00
 50
1.53606440E+02
 51
1.64849050E+02
  0
ARC
  8
0
 62
4
 10
-3.19053986E+01
 20
-4.36623570E+01
 40
9.50551964E+00
 50
1.41899873E+02
 51
1.53520272E+02
  0
ARC
  8
0
 62
4
 10
-3.19170431E+01
 20
-4.36673533E+01
 40
9.50328503E+00
 50
2.65200996E+01
 51
3.80087786E+01
  0
LINE
  8
0
 62
4
 10
-2.34137148E+01
 20
-4.76640251E+01
 11
-2.30137148E+01
 21
-4.76640251E+01
  0
LINE
  8
0
 62
4
 10
-4.19137148E+01
 20
-4.11640251E+01
 11
-4.19137148E+01
 21
-4.61640251E+01
  0
LINE
  8
0
 62
4
 10
-4.24137148E+01
 20
-4.56640251E+01
 11
-4.19137148E+01
 21
-4.61640251E+01
  0
LINE
  8
0
 62
4
 10
-4.19137148E+01
 20
-4.11640251E+01
 11
-4.24137148E+01
 21
-4.16640251E+01
  0
LINE
  8
0
 62
4
 10
-4.24137148E+01
 20
-4.56640251E+01
 11
-4.24137148E+01
 21
-4.16640251E+01
  0
LINE
  8
0
 62
4
 10
-4.15237148E+01
 20
-3.40440251E+01
 11
-4.18137148E+01
 21
-3.43340251E+01
  0
LINE
  8
0
 62
4
 10
-3.98337148E+01
 20
-3.63040251E+01
 11
-4.18137148E+01
 21
-3.43340251E+01
  0
LINE
  8
0
 62
4
 10
-3.95537148E+01
 20
-3.60240251E+01
 11
-4.15237148E+01
 21
-3.40440251E+01
  0
LINE
  8
0
 62
4
 10
-2.23037148E+01
 20
-3.40440251E+01
 11
-2.20137148E+01
 21
-3.43340251E+01
  0
LINE
  8
0
 62
4
 10
-2.42737148E+01
 20
-3.60240251E+01
 11
-2.23037148E+01
 21
-3.40540251E+01
  0
LINE
  8
0
 62
4
 10
-2.34137148E+01
 20
-3.96640251E+01
 11
-2.30137148E+01
 21
-3.96640251E+01
  0
LINE
  8
0
 62
4
 10
-2.39937148E+01
 20
-3.63040251E+01
 11
-2.20137148E+01
 21
-3.43340251E+01
  0
LINE
  8
0
 62
4
 10
-2.20137148E+01
 20
-4.56640251E+01
 11
-2.20137148E+01
 21
-4.16640251E+01
  0
LINE
  8
0
 62
4
 10
-2.30137148E+01
 20
-4.16640251E+01
 11
-2.20137148E+01
 21
-4.16640251E+01
  0
LINE
  8
0
 62
4
 10
-2.30137148E+01
 20
-4.56640251E+01
 11
-2.20137148E+01
 21
-4.56640251E+01
  0
LINE
  8
0
 62
4
 10
-2.30137148E+01
 20
-4.76640251E+01
 11
-2.30137148E+01
 21
-3.96640251E+01
  0
LINE
  8
0
 62
4
 10
-4.19137148E+01
 20
-4.61640251E+01
 11
-2.34137148E+01
 21
-4.61640251E+01
  0
LINE
  8
0
 62
4
 10
-4.19137148E+01
 20
-4.11640251E+01
 11
-2.34137148E+01
 21
-4.11640251E+01
  0
LINE
  8
0
 62
4
 10
-2.34137148E+01
 20
-3.94240251E+01
 11
-2.34137148E+01
 21
-4.79040251E+01
  0
LINE
  8
0
  6
CENTER
 62
6
 10
-4.46601048E+01
 20
-4.36640251E+01
 11
-2.01437148E+01
 21
-4.36640251E+01
  0
LINE
  8
0
 62
4
 10
8.63142961E+01
 20
-7.13716428E+01
 11
7.63142961E+01
 21
-7.13716428E+01
  0
LINE
  8
0
 62
4
 10
8.63142961E+01
 20
-7.33716428E+01
 11
7.63142961E+01
 21
-7.33716428E+01
  0
LINE
  8
0
  6
CENTER
 62
6
 10
9.63142961E+01
 20
-3.43716428E+01
 11
9.63142961E+01
 21
-7.63716428E+01
  0
ARC
  8
0
 62
4
 10
1.06314296E+02
 20
-7.03716428E+01
 40
3.00000000E+00
 50
1.80000000E+02
 51
2.70000000E+02
  0
ARC
  8
0
 62
4
 10
1.06314296E+02
 20
-7.03716428E+01
 40
1.00000000E+00
 50
1.80000000E+02
 51
2.70000000E+02
  0
ARC
  8
0
 62
4
 10
8.63142961E+01
 20
-7.03716428E+01
 40
1.00000000E+00
 50
2.70000000E+02
 51
0.00000000E+00
  0
ARC
  8
0
 62
4
 10
8.63142961E+01
 20
-7.03716428E+01
 40
3.00000000E+00
 50
2.70000000E+02
 51
0.00000000E+00
  0
LINE
  8
0
  6
CENTER
 62
6
 10
1.11414296E+02
 20
-6.83716428E+01
 11
1.11414296E+02
 21
-7.63716428E+01
  0
LINE
  8
0
  6
CENTER
 62
6
 10
8.12142961E+01
 20
-6.83716428E+01
 11
8.12142961E+01
 21
-7.63716428E+01
  0
LINE
  8
0
 62
4
 10
9.22142961E+01
 20
-6.83716428E+01
 11
1.00414296E+02
 21
-6.83716428E+01
  0
LINE
  8
0
 62
4
 10
9.22142961E+01
 20
-7.33716428E+01
 11
1.00414296E+02
 21
-7.33716428E+01
  0
LINE
  8
0
 62
4
 10
8.93142961E+01
 20
-6.83716428E+01
 11
8.93142961E+01
 21
-7.03716428E+01
  0
LINE
  8
0
 62
4
 10
8.73142961E+01
 20
-6.83716428E+01
 11
8.73142961E+01
 21
-7.03716428E+01
  0
LINE
  8
0
 62
4
 10
1.06314296E+02
 20
-7.33716428E+01
 11
1.16314296E+02
 21
-7.33716428E+01
  0
LINE
  8
0
 62
4
 10
1.03314296E+02
 20
-6.83716428E+01
 11
1.03314296E+02
 21
-7.03716428E+01
  0
LINE
  8
0
 62
4
 10
1.05314296E+02
 20
-6.83716428E+01
 11
1.05314296E+02
 21
-7.03716428E+01
  0
LINE
  8
0
 62
4
 10
1.16314296E+02
 20
-7.13716428E+01
 11
1.16314296E+02
 21
-7.33716428E+01
  0
LINE
  8
0
 62
4
 10
1.06314296E+02
 20
-7.13716428E+01
 11
1.16314296E+02
 21
-7.13716428E+01
  0
LINE
  8
0
 62
4
 10
9.47642961E+01
 20
-3.89816428E+01
 11
9.78642961E+01
 21
-3.89816428E+01
  0
LINE
  8
0
 62
4
 10
9.03142961E+01
 20
-5.63716428E+01
 11
9.03142961E+01
 21
-6.53716428E+01
  0
LINE
  8
0
 62
4
 10
9.47642961E+01
 20
-5.63716428E+01
 11
9.03142961E+01
 21
-5.63716428E+01
  0
LINE
  8
0
 62
4
 10
9.47642961E+01
 20
-3.73716428E+01
 11
9.47642961E+01
 21
-5.63716428E+01
  0
LINE
  8
0
 62
4
 10
9.03142961E+01
 20
-6.73716428E+01
 11
1.02314296E+02
 21
-6.73716428E+01
  0
LINE
  8
0
 62
4
 10
9.03142961E+01
 20
-6.53716428E+01
 11
1.02314296E+02
 21
-6.53716428E+01
  0
LINE
  8
0
 62
4
 10
9.78642961E+01
 20
-3.73716428E+01
 11
9.78642961E+01
 21
-5.63716428E+01
  0
LINE
  8
0
 62
4
 10
1.02314296E+02
 20
-5.63716428E+01
 11
1.02314296E+02
 21
-6.53716428E+01
  0
LINE
  8
0
 62
4
 10
9.47642961E+01
 20
-3.73716428E+01
 11
9.78642961E+01
 21
-3.73716428E+01
  0
LINE
  8
0
  6
CENTER
 62
6
 10
9.17642961E+01
 20
-4.43716428E+01
 11
1.00864296E+02
 21
-4.43716428E+01
  0
LINE
  8
0
 62
4
 10
9.78642961E+01
 20
-5.63716428E+01
 11
1.02314296E+02
 21
-5.63716428E+01
  0
LINE
  8
0
 62
4
 10
9.22142961E+01
 20
-6.73716428E+01
 11
9.22142961E+01
 21
-7.33716428E+01
  0
LINE
  8
0
 62
4
 10
1.00414296E+02
 20
-6.73716428E+01
 11
1.00414296E+02
 21
-7.33716428E+01
  0
ARC
  8
0
 62
4
 10
9.03142961E+01
 20
-6.83716428E+01
 40
1.00000000E+00
 50
9.00000002E+01
 51
1.80000000E+02
  0
ARC
  8
0
 62
4
 10
9.03142961E+01
 20
-6.83716428E+01
 40
3.00000000E+00
 50
9.00000002E+01
 51
1.80000000E+02
  0
ARC
  8
0
 62
4
 10
1.02314296E+02
 20
-6.83716428E+01
 40
1.00000000E+00
 50
0.00000000E+00
 51
9.00000002E+01
  0
ARC
  8
0
 62
4
 10
1.02314296E+02
 20
-6.83716428E+01
 40
3.00000000E+00
 50
0.00000000E+00
 51
9.00000002E+01
  0
LINE
  8
0
 62
4
 10
7.63142961E+01
 20
-7.13716428E+01
 11
7.63142961E+01
 21
-7.33716428E+01
  0
LINE
  8
0
  6
CENTER
 62
6
 10
4.37642961E+01
 20
-3.43666426E+01
 11
4.37642961E+01
 21
-7.63666426E+01
  0
LINE
  8
0
  6
CENTER
 62
6
 10
4.97642961E+01
 20
-6.83666426E+01
 11
4.97642961E+01
 21
-7.63666426E+01
  0
LINE
  8
0
  6
CENTER
 62
6
 10
3.77642961E+01
 20
-6.83666426E+01
 11
3.77642961E+01
 21
-7.63666426E+01
  0
LINE
  8
0
 62
4
 10
3.56642961E+01
 20
-7.13666426E+01
 11
3.56642961E+01
 21
-7.33666426E+01
  0
LINE
  8
0
 62
4
 10
3.98642961E+01
 20
-7.13666426E+01
 11
3.98642961E+01
 21
-7.33666426E+01
  0
LINE
  8
0
 62
4
 10
5.18642961E+01
 20
-7.13666426E+01
 11
5.18642961E+01
 21
-7.33666426E+01
  0
LINE
  8
0
 62
4
 10
4.76642961E+01
 20
-7.13666426E+01
 11
4.76642961E+01
 21
-7.33666426E+01
  0
LINE
  8
0
 62
4
 10
3.27642961E+01
 20
-7.33666426E+01
 11
5.47642961E+01
 21
-7.33666426E+01
  0
LINE
  8
0
 62
4
 10
3.27642961E+01
 20
-7.13666426E+01
 11
5.47642961E+01
 21
-7.13666426E+01
  0
ARC
  8
0
 62
4
 10
4.37642961E+01
 20
-4.93666445E+01
 40
1.19980057E+01
 50
5.99945013E+01
 51
1.20005499E+02
  0
CIRCLE
  8
0
 62
4
 10
4.37642961E+01
 20
-4.43666426E+01
 40
1.64999962E+00
  0
LINE
  8
0
 62
4
 10
3.77642961E+01
 20
-3.89766426E+01
 11
3.77642961E+01
 21
-6.53666426E+01
  0
LINE
  8
0
 62
4
 10
4.97642961E+01
 20
-3.89766426E+01
 11
4.97642961E+01
 21
-6.53666426E+01
  0
LINE
  8
0
 62
4
 10
3.27642961E+01
 20
-6.53666426E+01
 11
5.47642961E+01
 21
-6.53666426E+01
  0
LINE
  8
0
 62
4
 10
3.77642961E+01
 20
-5.63666426E+01
 11
4.97642961E+01
 21
-5.63666426E+01
  0
LINE
  8
0
  6
CENTER
 62
6
 10
3.47642961E+01
 20
-4.43666426E+01
 11
5.27642961E+01
 21
-4.43666426E+01
  0
LINE
  8
0
 62
4
 10
5.47642961E+01
 20
-6.53666426E+01
 11
5.47642961E+01
 21
-7.33666426E+01
  0
LINE
  8
0
 62
4
 10
3.27642961E+01
 20
-6.53666426E+01
 11
3.27642961E+01
 21
-7.33666426E+01
  0
ARC
  8
0
 62
4
 10
1.09864296E+02
 20
-8.37164848E+00
 40
2.10000000E+00
 50
9.00000002E+01
 51
2.70000000E+02
  0
ARC
  8
0
 62
4
 10
7.96642961E+01
 20
-8.37164848E+00
 40
2.10000000E+00
 50
2.70000000E+02
 51
9.00000002E+01
  0
ARC
  8
0
 62
4
 10
7.96642961E+01
 20
-2.03716485E+01
 40
2.10000000E+00
 50
2.70000000E+02
 51
9.00000002E+01
  0
ARC
  8
0
 62
4
 10
1.09864296E+02
 20
-2.03716485E+01
 40
2.10000000E+00
 50
9.00000002E+01
 51
2.70000000E+02
  0
LINE
  8
0
  6
CENTER
 62
6
 10
8.47642961E+01
 20
-2.03716485E+01
 11
7.17642961E+01
 21
-2.03716485E+01
  0
LINE
  8
0
  6
CENTER
 62
6
 10
8.47642961E+01
 20
-8.37164848E+00
 11
7.17642961E+01
 21
-8.37164848E+00
  0
LINE
  8
0
  6
CENTER
 62
6
 10
7.96642961E+01
 20
-2.66410813E+00
 11
7.96642961E+01
 21
-2.62890869E+01
  0
LINE
  8
0
  6
CENTER
 62
6
 10
1.09864296E+02
 20
-2.48096876E+00
 11
1.09864296E+02
 21
-2.62890869E+01
  0
LINE
  8
0
 62
4
 10
7.47642961E+01
 20
-2.24716485E+01
 11
7.47642961E+01
 21
-2.53716485E+01
  0
LINE
  8
0
 62
4
 10
7.47642961E+01
 20
-1.04716485E+01
 11
7.47642961E+01
 21
-1.82716485E+01
  0
LINE
  8
0
 62
4
 10
1.14764296E+02
 20
-2.24716485E+01
 11
1.14764296E+02
 21
-2.53716485E+01
  0
LINE
  8
0
 62
4
 10
1.14764296E+02
 20
-1.06316485E+01
 11
1.14764296E+02
 21
-1.82716485E+01
  0
LINE
  8
0
 62
4
 10
7.96642961E+01
 20
-2.24716485E+01
 11
7.47642961E+01
 21
-2.24716485E+01
  0
LINE
  8
0
 62
4
 10
7.96642961E+01
 20
-1.82716485E+01
 11
7.47642961E+01
 21
-1.82716485E+01
  0
LINE
  8
0
 62
4
 10
7.96642961E+01
 20
-1.04716485E+01
 11
7.47642961E+01
 21
-1.04716485E+01
  0
LINE
  8
0
 62
4
 10
7.96642961E+01
 20
-6.27164848E+00
 11
7.47642961E+01
 21
-6.27164848E+00
  0
LINE
  8
0
  6
CENTER
 62
6
 10
1.17764296E+02
 20
-2.03716485E+01
 11
1.04764296E+02
 21
-2.03716485E+01
  0
LINE
  8
0
  6
CENTER
 62
6
 10
1.17764296E+02
 20
-8.37164848E+00
 11
1.04764296E+02
 21
-8.37164848E+00
  0
LINE
  8
0
 62
4
 10
9.32142961E+01
 20
-8.37164848E+00
 11
9.32142961E+01
 21
-2.03716485E+01
  0
LINE
  8
0
 62
4
 10
9.63142961E+01
 20
-8.37164848E+00
 11
9.63142961E+01
 21
-2.03716485E+01
  0
LINE
  8
0
 62
4
 10
1.14764296E+02
 20
-2.24716485E+01
 11
1.09864296E+02
 21
-2.24716485E+01
  0
LINE
  8
0
 62
4
 10
1.14764296E+02
 20
-1.82716485E+01
 11
1.09864296E+02
 21
-1.82716485E+01
  0
LINE
  8
0
 62
4
 10
1.14764296E+02
 20
-1.04716485E+01
 11
1.09864296E+02
 21
-1.04716485E+01
  0
LINE
  8
0
 62
4
 10
1.14764296E+02
 20
-6.27164848E+00
 11
1.09864296E+02
 21
-6.27164848E+00
  0
LINE
  8
0
 62
4
 10
1.14764296E+02
 20
-3.37164848E+00
 11
7.47642961E+01
 21
-3.37164848E+00
  0
LINE
  8
0
 62
4
 10
1.00764296E+02
 20
-8.37164848E+00
 11
8.87642961E+01
 21
-8.37164848E+00
  0
LINE
  8
0
 62
4
 10
1.14764296E+02
 20
-2.53716485E+01
 11
7.47642961E+01
 21
-2.53716485E+01
  0
LINE
  8
0
 62
4
 10
1.00764296E+02
 20
-2.03716485E+01
 11
8.87642961E+01
 21
-2.03716485E+01
  0
LINE
  8
0
  6
CENTER
 62
6
 10
1.17764296E+02
 20
-1.43716485E+01
 11
7.17642961E+01
 21
-1.43716485E+01
  0
LINE
  8
0
 62
4
 10
1.14764296E+02
 20
-3.37164848E+00
 11
1.14764296E+02
 21
-6.27164848E+00
  0
LINE
  8
0
 62
4
 10
1.03764296E+02
 20
-3.37164848E+00
 11
1.03764296E+02
 21
-2.53716485E+01
  0
LINE
  8
0
 62
4
 10
1.00764296E+02
 20
-8.37164848E+00
 11
1.00764296E+02
 21
-2.03716485E+01
  0
LINE
  8
0
  6
CENTER
 62
6
 10
9.47642961E+01
 20
-2.66410813E+00
 11
9.47642961E+01
 21
-2.62890869E+01
  0
LINE
  8
0
 62
4
 10
8.87642961E+01
 20
-8.37164848E+00
 11
8.87642961E+01
 21
-2.03716485E+01
  0
LINE
  8
0
 62
4
 10
8.57642961E+01
 20
-3.37164848E+00
 11
8.57642961E+01
 21
-2.53716485E+01
  0
LINE
  8
0
 62
4
 10
7.47642961E+01
 20
-3.37164848E+00
 11
7.47642961E+01
 21
-6.27164848E+00
  0
TEXT
  8
0
 62
7
 10
-7.66499939E+01
 20
-8.84000031E+01
 40
3.20000005E+00
  1
50
 41
1.00000000E+00
  7
MONOTXT
  0
TEXT
  8
0
 62
7
 10
-8.62499939E+01
 20
-8.84000031E+01
 40
3.20000005E+00
  1
25
 41
1.00000000E+00
  7
MONOTXT
  0
TEXT
  8
0
 62
7
 10
-9.42499939E+01
 20
-8.84000031E+01
 40
3.20000005E+00
  1
0
 41
1.00000000E+00
  7
MONOTXT
  0
TEXT
  8
0
 62
7
 10
-1.07049994E+02
 20
-8.84000031E+01
 40
3.20000005E+00
  1
-25
 41
1.00000000E+00
  7
MONOTXT
  0
LINE
  8
0
 62
7
 10
-1.33399994E+02
 20
-8.98000031E+01
 11
-6.89999939E+01
 21
-8.98000031E+01
  0
LINE
  8
0
 62
7
 10
-1.33399994E+02
 20
-8.98000031E+01
 11
-1.33399994E+02
 21
-7.78000031E+01
  0
LINE
  8
0
 62
7
 10
-1.33399994E+02
 20
-8.38000031E+01
 11
-6.89999939E+01
 21
-8.38000031E+01
  0
LINE
  8
0
 62
7
 10
-1.07399994E+02
 20
-8.98000031E+01
 11
-1.07399994E+02
 21
-7.78000031E+01
  0
LINE
  8
0
 62
7
 10
-9.77999939E+01
 20
-8.98000031E+01
 11
-9.77999939E+01
 21
-7.78000031E+01
  0
LINE
  8
0
 62
7
 10
-1.33399994E+02
 20
-7.78000031E+01
 11
-6.89999939E+01
 21
-7.78000031E+01
  0
LINE
  8
0
 62
7
 10
-8.81999939E+01
 20
-8.98000031E+01
 11
-8.81999939E+01
 21
-7.78000031E+01
  0
LINE
  8
0
 62
7
 10
-7.85999939E+01
 20
-8.98000031E+01
 11
-7.85999939E+01
 21
-7.78000031E+01
  0
LINE
  8
0
 62
7
 10
-6.89999939E+01
 20
-8.98000031E+01
 11
-6.89999939E+01
 21
-7.78000031E+01
  0
TEXT
  8
0
 62
7
 10
-1.05449994E+02
 20
-8.24000031E+01
 40
3.20000005E+00
  1
25
 41
1.00000000E+00
  7
MONOTXT
  0
TEXT
  8
0
 62
7
 10
-9.58499939E+01
 20
-8.24000031E+01
 40
3.20000005E+00
  1
50
 41
1.00000000E+00
  7
MONOTXT
  0
TEXT
  8
0
 62
7
 10
-8.62499939E+01
 20
-8.24000031E+01
 40
3.20000005E+00
  1
75
 41
1.00000000E+00
  7
MONOTXT
  0
TEXT
  8
0
 62
7
 10
-7.82499940E+01
 20
-8.24000031E+01
 40
3.20000005E+00
  1
100
 41
1.00000000E+00
  7
MONOTXT
  0
TEXT
  8
0
 62
7
 10
-1.31249994E+02
 20
-8.84000031E+01
 40
3.20000005E+00
  1
STRETCH
 41
1.00000000E+00
  7
MONOTXT
  0
TEXT
  8
0
 62
7
 10
-1.29649994E+02
 20
-8.24000031E+01
 40
3.20000005E+00
  1
STROKE
 41
1.00000000E+00
  7
MONOTXT
  0
TEXT
  8
0
 62
7
 10
-7.91067721E+01
 20
-7.59181426E+01
 40
3.20000005E+00
  1
(mm)
 41
1.00000000E+00
  7
MONOTXT
  0
TEXT
  8
0
 62
7
 10
-1.20049994E+02
 20
-7.59181426E+01
 40
3.20000005E+00
  1
STRETCH LIST
 41
1.05263158E+00
  7
MONOTXT
  0
TEXT
  8
0
 10
-1.95470823E+01
 20
7.93990226E+01
 40
3.20000005E+00
  1
STRETCH LINE
 41
1.05263158E+00
  7
MONOTXT
  0
LINE
  8
0
 62
7
 10
-1.38399994E+02
 20
9.45000000E+01
 11
1.38350006E+02
 21
9.45000000E+01
  0
LINE
  8
0
 62
7
 10
1.38350006E+02
 20
9.45000000E+01
 11
1.38350006E+02
 21
-9.48000031E+01
  0
LINE
  8
0
 62
7
 10
-1.38399994E+02
 20
-9.48000031E+01
 11
1.38350006E+02
 21
-9.48000031E+01
  0
LINE
  8
0
 62
7
 10
-1.38399994E+02
 20
9.45000000E+01
 11
-1.38399994E+02
 21
-9.48000031E+01
  0
LINE
  8
0
 62
7
 10
7.33500061E+01
 20
-8.48000031E+01
 11
1.38350006E+02
 21
-8.48000031E+01
  0
LINE
  8
0
 62
7
 10
-1.38399994E+02
 20
8.45000000E+01
 11
-7.33999939E+01
 21
8.45000000E+01
  0
LINE
  8
0
 62
7
 10
7.33500061E+01
 20
8.45000000E+01
 11
1.38350006E+02
 21
8.45000000E+01
  0
LINE
  8
0
 62
7
 10
7.33500061E+01
 20
-8.48000031E+01
 11
7.33500061E+01
 21
-9.48000031E+01
  0
LINE
  8
0
 62
7
 10
7.33500061E+01
 20
9.45000000E+01
 11
7.33500061E+01
 21
8.45000000E+01
  0
LINE
  8
0
 62
7
 10
-7.33999939E+01
 20
9.45000000E+01
 11
-7.33999939E+01
 21
8.45000000E+01
  0
TEXT
  8
0
 62
7
 10
7.72426624E+01
 20
-9.20500031E+01
 40
4.50000000E+00
  1
KOGANEI CORP.
 41
1.04838710E+00
  7
MONOTXT
  0
TEXT
  8
0
 62
7
 10
9.35071483E+01
 20
8.79000000E+01
 40
3.20000005E+00
  1
Ver. 1.1
 41
1.08108108E+00
  7
MONOTXT
  0
TEXT
  8
0
 62
7
 10
-1.31042852E+02
 20
8.79000000E+01
 40
3.20000005E+00
  1
NEW PEN CYLINDER
 41
1.08108108E+00
  7
MONOTXT
  0
TEXT
  8
0
 62
7
 10
-1.29085994E+02
 20
7.29000000E+01
 40
3.20000005E+00
  1
MODEL:PBDACS16*ST(50)-7-ZC230
 41
1.00000000E+00
  7
MONOTXT
  0
ENDSEC
  0
EOF
