  0
SECTION
  2
HEADER
  9
$ACADVER
  1
AC1003
  9
$EXTMIN
 10
-1.38399994E+02
 20
-9.48000031E+01
  9
$EXTMAX
 10
1.38350006E+02
 20
9.45000000E+01
  9
$LIMMIN
 10
-1.38400994E+02
 20
-9.48010031E+01
  9
$LIMMAX
 10
1.38351006E+02
 20
9.45010000E+01
  9
$SNAPUNIT
 10
1
 20
1
  9
$SNAPBASE
 10
0
 20
0
  9
$GRIDMODE
 70
0
  9
$GRIDUNIT
 10
0
 20
0
  9
$LTSCALE
 40
4.61250000E+00
  9
$TEXTSIZE
 40
3.2
  9
$DIMTAD
 70
0
  9
$LUNITS
 70
2
  9
$LUPREC
 70
4
  9
$FILLETRAD
 40
0
  9
$AUNITS
 70
0
  9
$AUPREC
 70
0
  0
ENDSEC
  0
SECTION
  2
TABLES
  0
TABLE
  2
LTYPE
 70
2
  0
LTYPE
  2
CONTINUOUS
 70
64
  3
Solid-Line
 72
65
 73
0
 40
0
  0
LTYPE
  2
DASHED
 70
64
  3
DASHED
 72
65
 73
2
 40
.75
 49
.5
 49
-.25
  0
LTYPE
  2
HIDDEN
 70
64
  3
HIDDEN
 72
65
 73
2
 40
.375
 49
.25
 49
-.125
  0
LTYPE
  2
CENTER
 70
64
  3
CENTER
 72
65
 73
4
 40
2
 49
1.25
 49
-.25
 49
.25
 49
-.25
  0
LTYPE
  2
PHANTOM
 70
64
  3
PHANTOM
 72
65
 73
6
 40
2.5
 49
1.25
 49
-.25
 49
.25
 49
-.25
 49
.25
 49
-.25
  0
ENDTAB
  0
TABLE
  2
LAYER
 70
1
  0
LAYER
  2
1
 70
0
 62
7
  6
CONTINUOUS
 0
ENDTAB
  0
TABLE
  2
STYLE
 70
2
  0
STYLE
  2
MONOTXT
 70
0
 40
0
 41
1
 50
0
 71
0
 42
.2
  3
monotxt
  0
STYLE
  2
BIGFONT
 70
0
 40
0
 41
1
 50
0
 71
0
 42
.2
  3
txt
  4
bigfont
  0
ENDTAB
  0
ENDSEC
  0
SECTION
  2
ENTITIES
  0
LINE
  8
0
  6
CENTER
 62
6
 10
7.48738807E+00
 20
4.99066511E+01
 11
7.48738807E+00
 21
2.24766511E+01
  0
LINE
  8
0
 62
4
 10
8.98738807E+00
 20
4.58966511E+01
 11
8.98738807E+00
 21
4.48966511E+01
  0
LINE
  8
0
 62
4
 10
5.98738807E+00
 20
4.58966511E+01
 11
5.98738807E+00
 21
4.48966511E+01
  0
LINE
  8
0
 62
6
 10
8.71738807E+00
 20
4.58966511E+01
 11
8.71738807E+00
 21
4.48966511E+01
  0
LINE
  8
0
 62
6
 10
6.25738807E+00
 20
4.58966511E+01
 11
6.25738807E+00
 21
4.48966511E+01
  0
LINE
  8
0
  6
CENTER
 62
6
 10
-3.25126119E+01
 20
4.99066511E+01
 11
-3.25126119E+01
 21
2.24766511E+01
  0
LINE
  8
0
 62
4
 10
-3.10126119E+01
 20
4.58966511E+01
 11
-3.10126119E+01
 21
4.48966511E+01
  0
LINE
  8
0
 62
4
 10
-3.40126119E+01
 20
4.58966511E+01
 11
-3.40126119E+01
 21
4.48966511E+01
  0
LINE
  8
0
 62
6
 10
-3.12826119E+01
 20
4.58966511E+01
 11
-3.12826119E+01
 21
4.48966511E+01
  0
LINE
  8
0
 62
6
 10
-3.37426119E+01
 20
4.58966511E+01
 11
-3.37426119E+01
 21
4.48966511E+01
  0
LINE
  8
0
  6
PHANTOM
 10
-8.94954794E+00
 20
1.23719922E+01
 11
-8.94954794E+00
 21
5.08446024E+01
  0
LINE
  8
0
  6
PHANTOM
 10
6.10504521E+01
 20
1.23719922E+01
 11
6.10504521E+01
 21
5.08446024E+01
  0
TEXT
  8
0
 62
7
 10
-2.58485494E+01
 20
2.54966511E+01
 40
1.50000000E+00
  1
PBDADS10
 41
1.00000000E+00
  7
MONOTXT
  0
ARC
  8
0
 62
7
 10
-5.53937931E+01
 20
2.98966511E+01
 40
4.62356726E+00
 50
1.82596938E+02
 51
2.31332268E+02
  0
LINE
  8
0
 62
7
 10
1.19873881E+01
 20
2.43966511E+01
 11
1.69873881E+01
 21
2.43966511E+01
  0
LINE
  8
0
 62
7
 10
1.44873881E+01
 20
3.53966511E+01
 11
1.69873881E+01
 21
3.53966511E+01
  0
LINE
  8
0
 62
7
 10
-2.80126119E+01
 20
2.43966511E+01
 11
2.98738807E+00
 21
2.43966511E+01
  0
LINE
  8
0
 62
7
 10
-2.55126119E+01
 20
3.53966511E+01
 11
4.87388075E-01
 21
3.53966511E+01
  0
LINE
  8
0
 62
4
 10
-2.55126119E+01
 20
4.01966511E+01
 11
-2.00126119E+01
 21
4.01966511E+01
  0
LINE
  8
0
 62
4
 10
-2.55126119E+01
 20
3.61966511E+01
 11
-2.00126119E+01
 21
3.61966511E+01
  0
LINE
  8
0
 62
4
 10
-3.95126119E+01
 20
3.79966511E+01
 11
-3.95126119E+01
 21
3.48966511E+01
  0
LINE
  8
0
 62
4
 10
-2.55126119E+01
 20
3.79966511E+01
 11
-2.55126119E+01
 21
3.48966511E+01
  0
LINE
  8
0
 62
4
 10
-3.70126119E+01
 20
3.83966511E+01
 11
-2.80126119E+01
 21
3.83966511E+01
  0
LINE
  8
0
 62
4
 10
-3.70126119E+01
 20
3.83966511E+01
 11
-3.70126119E+01
 21
4.48966511E+01
  0
LINE
  8
0
 62
4
 10
-2.80126119E+01
 20
3.83966511E+01
 11
-2.80126119E+01
 21
4.48966511E+01
  0
LINE
  8
0
 62
4
 10
-2.80126119E+01
 20
3.79966511E+01
 11
-2.55126120E+01
 21
3.79966511E+01
  0
LINE
  8
0
 62
4
 10
-2.80126119E+01
 20
4.11966511E+01
 11
-2.55126120E+01
 21
4.11966511E+01
  0
LINE
  8
0
 62
4
 10
-3.95126120E+01
 20
4.11966511E+01
 11
-3.70126119E+01
 21
4.11966511E+01
  0
LINE
  8
0
 62
4
 10
-3.95126120E+01
 20
3.83966511E+01
 11
-3.70126119E+01
 21
3.83966511E+01
  0
LINE
  8
0
 62
4
 10
-3.95126120E+01
 20
3.79966511E+01
 11
-3.70126119E+01
 21
3.79966511E+01
  0
LINE
  8
0
 62
4
 10
-3.70126120E+01
 20
2.42505985E+01
 11
-2.80126120E+01
 21
2.42505985E+01
  0
LINE
  8
0
 62
4
 10
-3.95126119E+01
 20
4.01966511E+01
 11
-4.40126119E+01
 21
4.01966511E+01
  0
LINE
  8
0
 62
4
 10
-2.80126119E+01
 20
3.83966511E+01
 11
-2.80126119E+01
 21
2.42466511E+01
  0
LINE
  8
0
 62
4
 10
-3.70126119E+01
 20
3.83966511E+01
 11
-3.70126119E+01
 21
2.42466511E+01
  0
LINE
  8
0
 62
4
 10
-3.70126119E+01
 20
4.48966511E+01
 11
-2.80126119E+01
 21
4.48966511E+01
  0
LINE
  8
0
 62
4
 10
-2.80126119E+01
 20
3.83966511E+01
 11
-2.55126119E+01
 21
3.83966511E+01
  0
LINE
  8
0
 62
4
 10
-3.70126119E+01
 20
2.42466511E+01
 11
-2.80126119E+01
 21
2.42466511E+01
  0
LINE
  8
0
 62
4
 10
-4.50126119E+01
 20
3.91966511E+01
 11
-4.50126119E+01
 21
3.71966511E+01
  0
LINE
  8
0
 62
4
 10
-4.40126119E+01
 20
3.61966511E+01
 11
-3.95126119E+01
 21
3.61966511E+01
  0
LINE
  8
0
 62
4
 10
-4.40126119E+01
 20
4.01966511E+01
 11
-4.40126119E+01
 21
3.61966511E+01
  0
LINE
  8
0
 62
4
 10
-4.50126119E+01
 20
3.91966511E+01
 11
-4.40126119E+01
 21
4.01966511E+01
  0
LINE
  8
0
 62
4
 10
-4.50126119E+01
 20
3.71966511E+01
 11
-4.40126119E+01
 21
3.61966511E+01
  0
LINE
  8
0
 62
4
 10
-2.55126119E+01
 20
4.11966511E+01
 11
-2.55126119E+01
 21
3.83966511E+01
  0
LINE
  8
0
 62
4
 10
-3.95126119E+01
 20
4.11966511E+01
 11
-3.95126119E+01
 21
3.83966511E+01
  0
LINE
  8
0
 62
4
 10
-3.95126119E+01
 20
3.48966511E+01
 11
-3.70126119E+01
 21
3.48966511E+01
  0
LINE
  8
0
 62
4
 10
-2.80126119E+01
 20
3.48966511E+01
 11
-2.55126119E+01
 21
3.48966511E+01
  0
LINE
  8
0
 62
4
 10
-1.70126120E+01
 20
3.94966511E+01
 11
-1.20756129E+01
 21
3.94966511E+01
  0
LINE
  8
0
 62
4
 10
-1.70126120E+01
 20
3.68966511E+01
 11
-1.46756129E+01
 21
3.68966511E+01
  0
LINE
  8
0
 62
4
 10
-2.00126119E+01
 20
3.61966511E+01
 11
-1.70126120E+01
 21
3.68966511E+01
  0
LINE
  8
0
 62
4
 10
-2.00126119E+01
 20
4.01966511E+01
 11
-1.70126119E+01
 21
3.94966511E+01
  0
LINE
  8
0
 62
4
 10
-2.00126119E+01
 20
4.01966511E+01
 11
-2.00126119E+01
 21
3.61966511E+01
  0
LINE
  8
0
 62
4
 10
-1.70126119E+01
 20
3.94966511E+01
 11
-1.70126119E+01
 21
3.68966511E+01
  0
LINE
  8
0
 62
6
 10
-1.20756129E+01
 20
3.94966511E+01
 11
-1.46756129E+01
 21
3.68966511E+01
  0
LINE
  8
0
 62
4
 10
1.44873881E+01
 20
4.01966511E+01
 11
1.99873881E+01
 21
4.01966511E+01
  0
LINE
  8
0
 62
4
 10
1.44873881E+01
 20
3.61966511E+01
 11
1.99873881E+01
 21
3.61966511E+01
  0
LINE
  8
0
 62
4
 10
4.87388075E-01
 20
3.79966511E+01
 11
4.87388075E-01
 21
3.48966511E+01
  0
LINE
  8
0
 62
4
 10
1.44873881E+01
 20
3.79966511E+01
 11
1.44873881E+01
 21
3.48966511E+01
  0
LINE
  8
0
 62
4
 10
2.98738807E+00
 20
3.83966511E+01
 11
1.19873881E+01
 21
3.83966511E+01
  0
LINE
  8
0
 62
4
 10
2.98738807E+00
 20
3.83966511E+01
 11
2.98738807E+00
 21
4.48966511E+01
  0
LINE
  8
0
 62
4
 10
1.19873881E+01
 20
3.83966511E+01
 11
1.19873881E+01
 21
4.48966511E+01
  0
LINE
  8
0
 62
4
 10
1.19873881E+01
 20
3.79966511E+01
 11
1.44873881E+01
 21
3.79966511E+01
  0
LINE
  8
0
 62
4
 10
1.19873881E+01
 20
4.11966511E+01
 11
1.44873881E+01
 21
4.11966511E+01
  0
LINE
  8
0
 62
4
 10
4.87388065E-01
 20
4.11966511E+01
 11
2.98738807E+00
 21
4.11966511E+01
  0
LINE
  8
0
 62
4
 10
4.87388065E-01
 20
3.83966511E+01
 11
2.98738807E+00
 21
3.83966511E+01
  0
LINE
  8
0
 62
4
 10
4.87388065E-01
 20
3.79966511E+01
 11
2.98738807E+00
 21
3.79966511E+01
  0
LINE
  8
0
 62
4
 10
2.98738807E+00
 20
2.42505985E+01
 11
1.19873881E+01
 21
2.42505985E+01
  0
LINE
  8
0
 62
4
 10
4.87388075E-01
 20
4.01966511E+01
 11
-4.01261193E+00
 21
4.01966511E+01
  0
LINE
  8
0
 62
4
 10
1.19873881E+01
 20
3.83966511E+01
 11
1.19873881E+01
 21
2.42466511E+01
  0
LINE
  8
0
 62
4
 10
2.98738807E+00
 20
3.83966511E+01
 11
2.98738807E+00
 21
2.42466511E+01
  0
LINE
  8
0
 62
4
 10
2.98738807E+00
 20
4.48966511E+01
 11
1.19873881E+01
 21
4.48966511E+01
  0
LINE
  8
0
 62
4
 10
1.19873881E+01
 20
3.83966511E+01
 11
1.44873881E+01
 21
3.83966511E+01
  0
LINE
  8
0
 62
4
 10
2.98738807E+00
 20
2.42466511E+01
 11
1.19873881E+01
 21
2.42466511E+01
  0
LINE
  8
0
 62
4
 10
-5.01261193E+00
 20
3.91966511E+01
 11
-5.01261193E+00
 21
3.71966511E+01
  0
LINE
  8
0
 62
4
 10
-4.01261193E+00
 20
3.61966511E+01
 11
4.87388075E-01
 21
3.61966511E+01
  0
LINE
  8
0
 62
4
 10
-4.01261193E+00
 20
4.01966511E+01
 11
-4.01261193E+00
 21
3.61966511E+01
  0
LINE
  8
0
 62
4
 10
-5.01261193E+00
 20
3.91966511E+01
 11
-4.01261193E+00
 21
4.01966511E+01
  0
LINE
  8
0
 62
4
 10
-5.01261193E+00
 20
3.71966511E+01
 11
-4.01261193E+00
 21
3.61966511E+01
  0
LINE
  8
0
 62
4
 10
1.44873881E+01
 20
4.11966511E+01
 11
1.44873881E+01
 21
3.83966511E+01
  0
LINE
  8
0
 62
4
 10
4.87388075E-01
 20
4.11966511E+01
 11
4.87388075E-01
 21
3.83966511E+01
  0
LINE
  8
0
 62
4
 10
4.87388075E-01
 20
3.48966511E+01
 11
2.98738807E+00
 21
3.48966511E+01
  0
LINE
  8
0
 62
4
 10
1.19873881E+01
 20
3.48966511E+01
 11
1.44873881E+01
 21
3.48966511E+01
  0
LINE
  8
0
 62
4
 10
2.29873881E+01
 20
3.94966511E+01
 11
2.79243872E+01
 21
3.94966511E+01
  0
LINE
  8
0
 62
4
 10
2.29873881E+01
 20
3.68966511E+01
 11
2.53243872E+01
 21
3.68966511E+01
  0
LINE
  8
0
 62
4
 10
1.99873881E+01
 20
3.61966511E+01
 11
2.29873881E+01
 21
3.68966511E+01
  0
LINE
  8
0
 62
4
 10
1.99873881E+01
 20
4.01966511E+01
 11
2.29873881E+01
 21
3.94966511E+01
  0
LINE
  8
0
 62
4
 10
1.99873881E+01
 20
4.01966511E+01
 11
1.99873881E+01
 21
3.61966511E+01
  0
LINE
  8
0
 62
4
 10
2.29873881E+01
 20
3.94966511E+01
 11
2.29873881E+01
 21
3.68966511E+01
  0
LINE
  8
0
 62
6
 10
2.79243872E+01
 20
3.94966511E+01
 11
2.53243872E+01
 21
3.68966511E+01
  0
LINE
  8
0
 62
2
 10
7.29773881E+01
 20
2.82856511E+01
 11
8.02073881E+01
 21
2.82856511E+01
  0
LINE
  8
0
 62
2
 10
8.34073881E+01
 20
2.82856511E+01
 11
8.76663881E+01
 21
2.82856511E+01
  0
LINE
  8
0
 62
2
 10
8.34073881E+01
 20
3.15176511E+01
 11
8.76563881E+01
 21
3.15176511E+01
  0
LINE
  8
0
 62
2
 10
7.29773881E+01
 20
3.15176511E+01
 11
8.02073881E+01
 21
3.15176511E+01
  0
CIRCLE
  8
0
 62
7
 10
2.14873881E+01
 20
2.98966511E+01
 40
2.06700000E+00
  0
CIRCLE
  8
0
 62
2
 10
2.14839823E+01
 20
2.98916513E+01
 40
2.50000000E+00
  0
LINE
  8
0
 62
2
 10
3.14873881E+01
 20
2.65831511E+01
 11
3.20773881E+01
 21
2.65831511E+01
  0
LINE
  8
0
 62
2
 10
3.14873881E+01
 20
3.32201511E+01
 11
3.20773881E+01
 21
3.32201511E+01
  0
LINE
  8
0
 62
2
 10
3.60773881E+01
 20
2.65831511E+01
 11
3.78638881E+01
 21
2.65831511E+01
  0
LINE
  8
0
 62
2
 10
3.60773881E+01
 20
3.32201511E+01
 11
3.78638881E+01
 21
3.32201511E+01
  0
LINE
  8
0
 62
7
 10
-4.70126119E+01
 20
2.43966511E+01
 11
-3.70126119E+01
 21
2.43966511E+01
  0
LINE
  8
0
 62
7
 10
-4.70126119E+01
 20
3.53966511E+01
 11
-3.95126119E+01
 21
3.53966511E+01
  0
LINE
  8
0
 62
7
 10
-4.70126119E+01
 20
3.58966511E+01
 11
-4.70126119E+01
 21
2.38966511E+01
  0
LINE
  8
0
 62
7
 10
-6.00126119E+01
 20
3.58966511E+01
 11
-4.70126119E+01
 21
3.58966511E+01
  0
LINE
  8
0
 62
7
 10
-6.00126119E+01
 20
2.38966511E+01
 11
-4.70126119E+01
 21
2.38966511E+01
  0
LINE
  8
0
 62
7
 10
-6.00126119E+01
 20
3.58966511E+01
 11
-6.00126119E+01
 21
2.38966511E+01
  0
LINE
  8
0
 62
7
 10
-5.82826119E+01
 20
3.35066511E+01
 11
-4.87426119E+01
 21
3.35066511E+01
  0
LINE
  8
0
 62
7
 10
-5.82826119E+01
 20
2.62866511E+01
 11
-4.87426119E+01
 21
2.62866511E+01
  0
LINE
  8
0
 62
7
 10
-5.82826119E+01
 20
3.58966511E+01
 11
-5.82826119E+01
 21
3.35066511E+01
  0
LINE
  8
0
 62
7
 10
-4.87426119E+01
 20
3.58966511E+01
 11
-4.87426119E+01
 21
3.35066511E+01
  0
LINE
  8
0
 62
7
 10
-5.82826119E+01
 20
2.62866511E+01
 11
-5.82826119E+01
 21
2.38966511E+01
  0
LINE
  8
0
 62
7
 10
-4.87426119E+01
 20
2.62866511E+01
 11
-4.87426119E+01
 21
2.38966511E+01
  0
LINE
  8
0
 62
7
 10
1.69873881E+01
 20
3.58966511E+01
 11
1.69873881E+01
 21
2.38966511E+01
  0
LINE
  8
0
 62
7
 10
2.99773881E+01
 20
3.58966511E+01
 11
1.69873881E+01
 21
3.58966511E+01
  0
LINE
  8
0
 62
7
 10
2.99773881E+01
 20
2.38966511E+01
 11
1.69873881E+01
 21
2.38966511E+01
  0
LINE
  8
0
 62
7
 10
3.79773881E+01
 20
3.30966511E+01
 11
3.79773881E+01
 21
2.66966511E+01
  0
LINE
  8
0
 62
7
 10
2.99773881E+01
 20
3.58966511E+01
 11
2.99773881E+01
 21
2.38966511E+01
  0
LINE
  8
0
 62
7
 10
3.71773881E+01
 20
3.38966511E+01
 11
3.60773881E+01
 21
3.38966511E+01
  0
LINE
  8
0
 62
7
 10
3.71773881E+01
 20
2.58966511E+01
 11
3.60773881E+01
 21
2.58966511E+01
  0
LINE
  8
0
 62
7
 10
3.71773881E+01
 20
3.38966511E+01
 11
3.79773881E+01
 21
3.30966511E+01
  0
LINE
  8
0
 62
7
 10
3.79773881E+01
 20
2.66966511E+01
 11
3.71773881E+01
 21
2.58966511E+01
  0
LINE
  8
0
 62
7
 10
3.71773881E+01
 20
3.38966511E+01
 11
3.71773881E+01
 21
2.58966511E+01
  0
LINE
  8
0
 62
7
 10
3.14773881E+01
 20
3.38966511E+01
 11
3.14773881E+01
 21
2.58966511E+01
  0
LINE
  8
0
  6
CENTER
 62
2
 10
2.14873881E+01
 20
3.35066511E+01
 11
2.14873881E+01
 21
2.62866511E+01
  0
LINE
  8
0
 62
7
 10
8.79773881E+01
 20
3.11966511E+01
 11
8.79773881E+01
 21
2.85966511E+01
  0
LINE
  8
0
 62
7
 10
7.29773881E+01
 20
3.18966511E+01
 11
7.29773881E+01
 21
2.78966511E+01
  0
LINE
  8
0
 62
7
 10
8.72773881E+01
 20
3.18966511E+01
 11
8.34073881E+01
 21
3.18966511E+01
  0
LINE
  8
0
 62
7
 10
8.72773881E+01
 20
2.78966511E+01
 11
8.34073881E+01
 21
2.78966511E+01
  0
LINE
  8
0
 62
7
 10
8.72773881E+01
 20
3.18966511E+01
 11
8.79773881E+01
 21
3.11966511E+01
  0
LINE
  8
0
 62
7
 10
8.79773881E+01
 20
2.85966511E+01
 11
8.72773881E+01
 21
2.78966511E+01
  0
LINE
  8
0
 62
7
 10
8.72773881E+01
 20
3.18966511E+01
 11
8.72773881E+01
 21
2.78966511E+01
  0
LINE
  8
0
 62
7
 10
2.82473881E+01
 20
3.35066511E+01
 11
1.87173881E+01
 21
3.35066511E+01
  0
LINE
  8
0
 62
7
 10
2.82473881E+01
 20
2.62866511E+01
 11
1.87173881E+01
 21
2.62866511E+01
  0
LINE
  8
0
 62
4
 10
8.34073881E+01
 20
3.32966511E+01
 11
8.34073881E+01
 21
2.64966511E+01
  0
LINE
  8
0
 62
4
 10
8.02073881E+01
 20
3.32966511E+01
 11
8.02073881E+01
 21
2.64966511E+01
  0
LINE
  8
0
 62
4
 10
8.30373881E+01
 20
3.39366511E+01
 11
8.05773881E+01
 21
3.39366511E+01
  0
LINE
  8
0
 62
4
 10
8.30373881E+01
 20
2.58566511E+01
 11
8.05773881E+01
 21
2.58566511E+01
  0
LINE
  8
0
 62
4
 10
8.30373881E+01
 20
3.19166511E+01
 11
8.05773881E+01
 21
3.19166511E+01
  0
LINE
  8
0
 62
4
 10
8.30373881E+01
 20
2.78766511E+01
 11
8.05773881E+01
 21
2.78766511E+01
  0
LINE
  8
0
 62
7
 10
8.02073881E+01
 20
3.18966511E+01
 11
3.79773881E+01
 21
3.18966511E+01
  0
LINE
  8
0
 62
7
 10
8.02073881E+01
 20
2.78966511E+01
 11
3.79773881E+01
 21
2.78966511E+01
  0
LINE
  8
0
 62
4
 10
8.34073881E+01
 20
3.32966511E+01
 11
8.30373881E+01
 21
3.39366511E+01
  0
LINE
  8
0
 62
4
 10
8.05773881E+01
 20
3.39366511E+01
 11
8.02073881E+01
 21
3.32966511E+01
  0
LINE
  8
0
 62
4
 10
8.34073881E+01
 20
2.64966511E+01
 11
8.30373881E+01
 21
2.58566511E+01
  0
LINE
  8
0
 62
4
 10
8.05773881E+01
 20
2.58566511E+01
 11
8.02073881E+01
 21
2.64966511E+01
  0
LINE
  8
0
 62
4
 10
3.60773881E+01
 20
3.58966511E+01
 11
3.60773881E+01
 21
2.38966511E+01
  0
LINE
  8
0
 62
4
 10
3.20773881E+01
 20
3.58966511E+01
 11
3.20773881E+01
 21
2.38966511E+01
  0
LINE
  8
0
 62
4
 10
3.55373881E+01
 20
3.33566511E+01
 11
3.26073881E+01
 21
3.33566511E+01
  0
LINE
  8
0
 62
4
 10
3.55373881E+01
 20
2.64366511E+01
 11
3.26073881E+01
 21
2.64366511E+01
  0
LINE
  8
0
 62
4
 10
3.55373881E+01
 20
2.29666511E+01
 11
3.26073881E+01
 21
2.29666511E+01
  0
LINE
  8
0
 62
4
 10
3.55373881E+01
 20
3.68266511E+01
 11
3.26073881E+01
 21
3.68266511E+01
  0
LINE
  8
0
 62
4
 10
3.60773881E+01
 20
3.58966511E+01
 11
3.55373881E+01
 21
3.68266511E+01
  0
LINE
  8
0
 62
7
 10
3.20773881E+01
 20
3.38966511E+01
 11
2.99773881E+01
 21
3.38966511E+01
  0
LINE
  8
0
 62
7
 10
3.20773881E+01
 20
2.58966511E+01
 11
2.99773881E+01
 21
2.58966511E+01
  0
LINE
  8
0
 62
4
 10
3.20773881E+01
 20
3.58966511E+01
 11
3.26073881E+01
 21
3.68266511E+01
  0
LINE
  8
0
 62
4
 10
3.60773881E+01
 20
2.38966511E+01
 11
3.55373881E+01
 21
2.29666511E+01
  0
LINE
  8
0
 62
4
 10
3.20773881E+01
 20
2.38966511E+01
 11
3.26073881E+01
 21
2.29666511E+01
  0
LINE
  8
0
 62
7
 10
2.82473881E+01
 20
3.58966511E+01
 11
2.82473881E+01
 21
3.35066511E+01
  0
LINE
  8
0
 62
7
 10
1.87173881E+01
 20
3.58966511E+01
 11
1.87173881E+01
 21
3.35066511E+01
  0
LINE
  8
0
 62
7
 10
2.82473881E+01
 20
2.62866511E+01
 11
2.82473881E+01
 21
2.38966511E+01
  0
LINE
  8
0
 62
7
 10
1.87173881E+01
 20
2.62866511E+01
 11
1.87173881E+01
 21
2.38966511E+01
  0
ARC
  8
0
 62
7
 10
-5.53937931E+01
 20
2.98966511E+01
 40
4.62356726E+00
 50
1.28667732E+02
 51
1.77403062E+02
  0
ARC
  8
0
 62
7
 10
-5.16382423E+01
 20
2.98966511E+01
 40
4.62782617E+00
 50
3.08733576E+02
 51
5.12664237E+01
  0
ARC
  8
0
 62
7
 10
2.16062069E+01
 20
2.98966511E+01
 40
4.62356726E+00
 50
1.28667732E+02
 51
2.31332268E+02
  0
ARC
  8
0
 62
4
 10
8.18438823E+01
 20
3.29266511E+01
 40
1.56350758E+00
 50
3.19760550E+02
 51
4.02394502E+01
  0
ARC
  8
0
 62
4
 10
7.77092152E+01
 20
2.98966511E+01
 40
5.69823004E+00
 50
3.39237439E+02
 51
2.07625612E+01
  0
ARC
  8
0
 62
4
 10
8.59053863E+01
 20
2.98966511E+01
 40
5.69806681E+00
 50
1.59236817E+02
 51
2.00763184E+02
  0
ARC
  8
0
 62
4
 10
8.17707040E+01
 20
3.29266511E+01
 40
1.56336269E+00
 50
1.39756056E+02
 51
2.20243944E+02
  0
ARC
  8
0
 62
4
 10
8.18438876E+01
 20
2.68666511E+01
 40
1.56350352E+00
 50
3.19760424E+02
 51
4.02395761E+01
  0
ARC
  8
0
 62
4
 10
8.17706987E+01
 20
2.68666511E+01
 40
1.56335863E+00
 50
1.39755930E+02
 51
2.20244070E+02
  0
ARC
  8
0
 62
4
 10
3.30130681E+01
 20
3.50916511E+01
 40
3.06307302E+00
 50
3.25498721E+02
 51
3.45012787E+01
  0
ARC
  8
0
 62
4
 10
2.46159583E+01
 20
2.98966511E+01
 40
1.14564055E+01
 50
3.42421364E+02
 51
1.75786359E+01
  0
ARC
  8
0
 62
4
 10
3.30130712E+01
 20
2.47016511E+01
 40
3.06307045E+00
 50
3.25498688E+02
 51
3.45013117E+01
  0
ARC
  8
0
 62
4
 10
3.51470504E+01
 20
3.50916511E+01
 40
3.07572918E+00
 50
1.45660608E+02
 51
2.14339392E+02
  0
ARC
  8
0
 62
4
 10
4.35441640E+01
 20
2.98966511E+01
 40
1.14710360E+01
 50
1.62444514E+02
 51
1.97555486E+02
  0
ARC
  8
0
 62
4
 10
3.51470473E+01
 20
2.47016511E+01
 40
3.07572661E+00
 50
1.45660575E+02
 51
2.14339425E+02
  0
ARC
  8
0
 62
7
 10
2.53617501E+01
 20
2.98966511E+01
 40
4.62158052E+00
 50
3.08636942E+02
 51
5.13630580E+01
  0
CIRCLE
  8
0
 62
7
 10
-5.15126119E+01
 20
2.98966511E+01
 40
2.06700000E+00
  0
LINE
  8
0
 62
7
 10
-6.21026119E+01
 20
3.38966511E+01
 11
-6.00126119E+01
 21
3.38966511E+01
  0
CIRCLE
  8
0
 62
2
 10
-5.15160177E+01
 20
2.98916513E+01
 40
2.50000000E+00
  0
LINE
  8
0
  6
CENTER
 62
2
 10
-5.15126119E+01
 20
3.35066511E+01
 11
-5.15126119E+01
 21
2.62866511E+01
  0
LINE
  8
0
 62
2
 10
-6.61026119E+01
 20
2.65831511E+01
 11
-6.78891119E+01
 21
2.65831511E+01
  0
LINE
  8
0
 62
2
 10
-6.61026119E+01
 20
3.32201511E+01
 11
-6.78891119E+01
 21
3.32201511E+01
  0
LINE
  8
0
 62
2
 10
-8.02326119E+01
 20
2.82856511E+01
 11
-7.30126119E+01
 21
2.82856511E+01
  0
LINE
  8
0
 62
2
 10
-8.02326119E+01
 20
3.15176511E+01
 11
-7.30126119E+01
 21
3.15176511E+01
  0
LINE
  8
0
 62
2
 10
-8.76971047E+01
 20
2.82856511E+01
 11
-8.34326119E+01
 21
2.82856511E+01
  0
LINE
  8
0
 62
2
 10
-8.76916119E+01
 20
3.15176511E+01
 11
-8.34326119E+01
 21
3.15176511E+01
  0
LINE
  8
0
 62
2
 10
-6.15126119E+01
 20
3.32201511E+01
 11
-6.21026119E+01
 21
3.32201511E+01
  0
LINE
  8
0
 62
2
 10
-6.15126119E+01
 20
2.65831511E+01
 11
-6.21026119E+01
 21
2.65831511E+01
  0
LINE
  8
0
 62
7
 10
-6.80126119E+01
 20
3.30966511E+01
 11
-6.80126119E+01
 21
2.67066511E+01
  0
LINE
  8
0
 62
7
 10
-6.72126119E+01
 20
3.38966511E+01
 11
-6.61026119E+01
 21
3.38966511E+01
  0
LINE
  8
0
 62
7
 10
-6.72126119E+01
 20
2.59066511E+01
 11
-6.61026119E+01
 21
2.59066511E+01
  0
LINE
  8
0
 62
7
 10
-6.72126119E+01
 20
3.38966511E+01
 11
-6.80126119E+01
 21
3.30966511E+01
  0
LINE
  8
0
 62
7
 10
-6.80126119E+01
 20
2.67066511E+01
 11
-6.72126119E+01
 21
2.59066511E+01
  0
LINE
  8
0
 62
7
 10
-6.72126119E+01
 20
3.38966511E+01
 11
-6.72126119E+01
 21
2.59066511E+01
  0
LINE
  8
0
 62
7
 10
-6.15126119E+01
 20
3.38966511E+01
 11
-6.15126119E+01
 21
2.59066511E+01
  0
LINE
  8
0
 62
7
 10
-8.80126119E+01
 20
3.11966511E+01
 11
-8.80126119E+01
 21
2.85966511E+01
  0
LINE
  8
0
 62
7
 10
-7.30126119E+01
 20
3.18966511E+01
 11
-7.30126119E+01
 21
2.79066511E+01
  0
LINE
  8
0
 62
7
 10
-8.73126119E+01
 20
3.18966511E+01
 11
-8.34326119E+01
 21
3.18966511E+01
  0
LINE
  8
0
 62
7
 10
-8.73126119E+01
 20
2.79066511E+01
 11
-8.34326119E+01
 21
2.79066511E+01
  0
LINE
  8
0
 62
7
 10
-8.73126119E+01
 20
3.18966511E+01
 11
-8.80126119E+01
 21
3.11966511E+01
  0
LINE
  8
0
 62
7
 10
-8.80126119E+01
 20
2.85966511E+01
 11
-8.73126119E+01
 21
2.79066511E+01
  0
LINE
  8
0
 62
7
 10
-8.73126119E+01
 20
3.18966511E+01
 11
-8.73126119E+01
 21
2.79066511E+01
  0
LINE
  8
0
  6
CENTER
 62
2
 10
-9.00126119E+01
 20
2.98966511E+01
 11
8.96158680E+01
 21
2.98966511E+01
  0
LINE
  8
0
 62
4
 10
-8.34326119E+01
 20
3.32966511E+01
 11
-8.34326119E+01
 21
2.65066511E+01
  0
LINE
  8
0
 62
4
 10
-8.02326119E+01
 20
3.32966511E+01
 11
-8.02326119E+01
 21
2.65066511E+01
  0
LINE
  8
0
 62
4
 10
-8.30626119E+01
 20
3.39366511E+01
 11
-8.06026119E+01
 21
3.39366511E+01
  0
LINE
  8
0
 62
4
 10
-8.30626119E+01
 20
2.58666511E+01
 11
-8.06026119E+01
 21
2.58666511E+01
  0
LINE
  8
0
 62
4
 10
-8.30626119E+01
 20
3.19166511E+01
 11
-8.06026119E+01
 21
3.19166511E+01
  0
LINE
  8
0
 62
4
 10
-8.30626119E+01
 20
2.78866511E+01
 11
-8.06026119E+01
 21
2.78866511E+01
  0
LINE
  8
0
 62
7
 10
-8.02326119E+01
 20
3.18966511E+01
 11
-6.80126119E+01
 21
3.18966511E+01
  0
LINE
  8
0
 62
7
 10
-8.02326119E+01
 20
2.79066511E+01
 11
-6.80126119E+01
 21
2.79066511E+01
  0
LINE
  8
0
 62
4
 10
-8.34326119E+01
 20
3.32966511E+01
 11
-8.30626119E+01
 21
3.39366511E+01
  0
LINE
  8
0
 62
4
 10
-8.06026119E+01
 20
3.39366511E+01
 11
-8.02326119E+01
 21
3.32966511E+01
  0
LINE
  8
0
 62
4
 10
-8.34326119E+01
 20
2.65066511E+01
 11
-8.30626119E+01
 21
2.58666511E+01
  0
LINE
  8
0
 62
4
 10
-8.06026119E+01
 20
2.58666511E+01
 11
-8.02326119E+01
 21
2.65066511E+01
  0
LINE
  8
0
 62
4
 10
-6.61026119E+01
 20
3.58966511E+01
 11
-6.61026119E+01
 21
2.39066511E+01
  0
LINE
  8
0
 62
4
 10
-6.21026119E+01
 20
3.58966511E+01
 11
-6.21026119E+01
 21
2.39066511E+01
  0
LINE
  8
0
 62
4
 10
-6.55726119E+01
 20
3.33566511E+01
 11
-6.26426119E+01
 21
3.33566511E+01
  0
LINE
  8
0
 62
4
 10
-6.55726119E+01
 20
2.64466511E+01
 11
-6.26426119E+01
 21
2.64466511E+01
  0
LINE
  8
0
 62
4
 10
-6.55726119E+01
 20
2.29766511E+01
 11
-6.26426119E+01
 21
2.29766511E+01
  0
LINE
  8
0
 62
4
 10
-6.55726119E+01
 20
3.68266511E+01
 11
-6.26426119E+01
 21
3.68266511E+01
  0
LINE
  8
0
 62
4
 10
-6.61026119E+01
 20
3.58966511E+01
 11
-6.55726119E+01
 21
3.68266511E+01
  0
LINE
  8
0
 62
7
 10
-6.21026119E+01
 20
2.59066511E+01
 11
-6.00126119E+01
 21
2.59066511E+01
  0
LINE
  8
0
 62
4
 10
-6.21026119E+01
 20
3.58966511E+01
 11
-6.26426119E+01
 21
3.68266511E+01
  0
LINE
  8
0
 62
4
 10
-6.61026119E+01
 20
2.39066511E+01
 11
-6.55726119E+01
 21
2.29766511E+01
  0
LINE
  8
0
 62
4
 10
-6.21026119E+01
 20
2.39066511E+01
 11
-6.26426119E+01
 21
2.29766511E+01
  0
ARC
  8
0
 62
4
 10
-8.18759330E+01
 20
3.29266511E+01
 40
1.55830260E+00
 50
1.39598403E+02
 51
2.20401597E+02
  0
ARC
  8
0
 62
4
 10
-7.77412527E+01
 20
2.99016511E+01
 40
5.69008693E+00
 50
1.59260195E+02
 51
2.00739805E+02
  0
ARC
  8
0
 62
4
 10
-8.59374349E+01
 20
2.99016511E+01
 40
5.70268020E+00
 50
3.39308098E+02
 51
2.06919019E+01
  0
ARC
  8
0
 62
4
 10
-8.18027547E+01
 20
3.29266511E+01
 40
1.56857978E+00
 50
3.19917156E+02
 51
4.00828446E+01
  0
ARC
  8
0
 62
4
 10
-8.18759330E+01
 20
2.68766511E+01
 40
1.55830260E+00
 50
1.39598403E+02
 51
2.20401597E+02
  0
ARC
  8
0
 62
4
 10
-8.18027547E+01
 20
2.68766511E+01
 40
1.56857978E+00
 50
3.19917156E+02
 51
4.00828446E+01
  0
ARC
  8
0
 62
4
 10
-6.30451111E+01
 20
3.50916511E+01
 40
3.06569493E+00
 50
1.45532394E+02
 51
2.14467606E+02
  0
ARC
  8
0
 62
4
 10
-5.46479910E+01
 20
2.99016511E+01
 40
1.14579391E+01
 50
1.62450019E+02
 51
1.97549981E+02
  0
ARC
  8
0
 62
4
 10
-6.30451111E+01
 20
2.47116511E+01
 40
3.06569493E+00
 50
1.45532394E+02
 51
2.14467606E+02
  0
ARC
  8
0
 62
4
 10
-6.51790935E+01
 20
3.50916511E+01
 40
3.07310324E+00
 50
3.25627155E+02
 51
3.43728456E+01
  0
ARC
  8
0
 62
4
 10
-7.35761984E+01
 20
2.99016511E+01
 40
1.14664876E+01
 50
3.42463527E+02
 51
1.75364728E+01
  0
ARC
  8
0
 62
4
 10
-6.51790935E+01
 20
2.47116511E+01
 40
3.07310324E+00
 50
3.25627155E+02
 51
3.43728456E+01
  0
LINE
  8
0
 62
4
 10
-3.50126119E+01
 20
4.58966511E+01
 11
-3.00126119E+01
 21
4.58966511E+01
  0
LINE
  8
0
 62
4
 10
-3.40126119E+01
 20
4.73966511E+01
 11
-3.10126119E+01
 21
4.73966511E+01
  0
LINE
  8
0
 62
4
 10
-3.00126119E+01
 20
4.63966511E+01
 11
-3.00126119E+01
 21
4.58966511E+01
  0
LINE
  8
0
 62
4
 10
-3.50126119E+01
 20
4.63966511E+01
 11
-3.50126119E+01
 21
4.58966511E+01
  0
ARC
  8
0
 62
4
 10
-3.40118205E+01
 20
4.63958597E+01
 40
1.00079180E+00
 50
9.00000002E+01
 51
1.79954687E+02
  0
ARC
  8
0
 62
4
 10
-3.10142776E+01
 20
4.63949855E+01
 40
1.00166704E+00
 50
9.52762946E-02
 51
8.99047236E+01
  0
LINE
  8
0
 62
4
 10
4.98738807E+00
 20
4.58966511E+01
 11
9.98738807E+00
 21
4.58966511E+01
  0
LINE
  8
0
 62
4
 10
5.98738807E+00
 20
4.73966511E+01
 11
8.98738807E+00
 21
4.73966511E+01
  0
LINE
  8
0
 62
4
 10
9.98738807E+00
 20
4.63966511E+01
 11
9.98738807E+00
 21
4.58966511E+01
  0
LINE
  8
0
 62
4
 10
4.98738807E+00
 20
4.63966511E+01
 11
4.98738807E+00
 21
4.58966511E+01
  0
ARC
  8
0
 62
4
 10
5.98817956E+00
 20
4.63958597E+01
 40
1.00079180E+00
 50
9.00000002E+01
 51
1.79954687E+02
  0
ARC
  8
0
 62
4
 10
8.98572242E+00
 20
4.63949855E+01
 40
1.00166704E+00
 50
9.52762946E-02
 51
8.99047236E+01
  0
LINE
  8
0
 62
4
 10
-1.03872612E+02
 20
3.61966511E+01
 11
-1.04872612E+02
 21
3.71966511E+01
  0
LINE
  8
0
 62
4
 10
-1.03872612E+02
 20
4.01966511E+01
 11
-1.04872612E+02
 21
3.91966511E+01
  0
LINE
  8
0
 62
4
 10
-1.07972612E+02
 20
3.61966511E+01
 11
-1.06972612E+02
 21
3.71966511E+01
  0
LINE
  8
0
 62
4
 10
-1.07972612E+02
 20
4.01966511E+01
 11
-1.06972612E+02
 21
3.91966511E+01
  0
LINE
  8
0
 62
4
 10
-1.04872612E+02
 20
3.71966511E+01
 11
-1.06972612E+02
 21
3.71966511E+01
  0
LINE
  8
0
 62
4
 10
-1.06972612E+02
 20
3.91966511E+01
 11
-1.06972612E+02
 21
3.71966511E+01
  0
LINE
  8
0
 62
4
 10
-1.04872612E+02
 20
3.91966511E+01
 11
-1.06972612E+02
 21
3.91966511E+01
  0
LINE
  8
0
 62
4
 10
-1.04872612E+02
 20
3.91966511E+01
 11
-1.04872612E+02
 21
3.71966511E+01
  0
LINE
  8
0
 62
4
 10
-1.07011949E+02
 20
3.61966511E+01
 11
-1.07972612E+02
 21
3.61966511E+01
  0
LINE
  8
0
 62
4
 10
-1.04422612E+02
 20
4.21966511E+01
 11
-1.04722612E+02
 21
4.18966511E+01
  0
LINE
  8
0
 62
4
 10
-1.07422612E+02
 20
4.21966511E+01
 11
-1.07122612E+02
 21
4.18966511E+01
  0
LINE
  8
0
 62
4
 10
-1.10272159E+02
 20
4.35306056E+01
 11
-1.10769807E+02
 21
4.35790477E+01
  0
LINE
  8
0
 62
4
 10
-1.10769807E+02
 20
4.35790477E+01
 11
-1.11719285E+02
 21
3.38250184E+01
  0
LINE
  8
0
 62
4
 10
-1.10752612E+02
 20
3.70466511E+01
 11
-1.10901906E+02
 21
3.70611838E+01
  0
LINE
  8
0
 62
4
 10
-1.10272159E+02
 20
4.35306056E+01
 11
-1.11145244E+02
 21
3.45613649E+01
  0
LINE
  8
0
 62
4
 10
-1.10752612E+02
 20
3.70466511E+01
 11
-1.10976819E+02
 21
3.47433607E+01
  0
LINE
  8
0
 62
4
 10
-1.02422612E+02
 20
3.83966511E+01
 11
-1.01586124E+02
 21
3.53896584E+01
  0
LINE
  8
0
 62
4
 10
-1.02572612E+02
 20
3.83966511E+01
 11
-1.01779235E+02
 21
3.55363026E+01
  0
LINE
  8
0
 62
4
 10
-1.09172612E+02
 20
4.18966511E+01
 11
-1.09172612E+02
 21
3.58966511E+01
  0
LINE
  8
0
 62
4
 10
-1.02672612E+02
 20
4.18966511E+01
 11
-1.02672612E+02
 21
3.83966511E+01
  0
LINE
  8
0
 62
4
 10
-1.02672612E+02
 20
4.18966511E+01
 11
-1.09172612E+02
 21
4.18966511E+01
  0
LINE
  8
0
 62
4
 10
-1.03872612E+02
 20
3.61966511E+01
 11
-1.04833275E+02
 21
3.61966511E+01
  0
LINE
  8
0
 62
4
 10
-1.07972612E+02
 20
4.01966511E+01
 11
-1.07972612E+02
 21
3.61966511E+01
  0
LINE
  8
0
 62
4
 10
-1.03872612E+02
 20
4.01966511E+01
 11
-1.07972612E+02
 21
4.01966511E+01
  0
LINE
  8
0
 62
4
 10
-1.04922612E+02
 20
4.04966511E+01
 11
-1.04922612E+02
 21
4.01966511E+01
  0
LINE
  8
0
 62
4
 10
-1.06922612E+02
 20
4.04966511E+01
 11
-1.06922612E+02
 21
4.01966511E+01
  0
LINE
  8
0
 62
4
 10
-1.04922612E+02
 20
4.04966511E+01
 11
-1.06922612E+02
 21
4.04966511E+01
  0
LINE
  8
0
 62
4
 10
-1.02672612E+02
 20
4.11966511E+01
 11
-1.09172612E+02
 21
4.11966511E+01
  0
LINE
  8
0
 62
4
 10
-1.02672612E+02
 20
3.79966511E+01
 11
-1.03872612E+02
 21
3.79966511E+01
  0
LINE
  8
0
 62
4
 10
-1.02672612E+02
 20
3.83966511E+01
 11
-1.03872612E+02
 21
3.83966511E+01
  0
LINE
  8
0
 62
4
 10
-1.02672612E+02
 20
3.79966511E+01
 11
-1.02672612E+02
 21
3.58966511E+01
  0
LINE
  8
0
 62
4
 10
-1.03872612E+02
 20
4.01966511E+01
 11
-1.03872612E+02
 21
3.61966511E+01
  0
LINE
  8
0
 62
4
 10
-1.09422612E+02
 20
4.35966511E+01
 11
-1.09422612E+02
 21
3.76966511E+01
  0
LINE
  8
0
 62
4
 10
-1.02422612E+02
 20
4.35966511E+01
 11
-1.02422612E+02
 21
3.83966511E+01
  0
LINE
  8
0
 62
4
 10
-1.03422612E+02
 20
4.58966511E+01
 11
-1.08422612E+02
 21
4.58966511E+01
  0
LINE
  8
0
 62
4
 10
-1.02422612E+02
 20
4.48966511E+01
 11
-1.09422612E+02
 21
4.48966511E+01
  0
LINE
  8
0
 62
4
 10
-1.03922612E+02
 20
4.33966511E+01
 11
-1.07922612E+02
 21
4.33966511E+01
  0
LINE
  8
0
 62
4
 10
-1.02922612E+02
 20
4.40966511E+01
 11
-1.08922612E+02
 21
4.40966511E+01
  0
LINE
  8
0
 62
4
 10
-1.10222612E+02
 20
4.40966511E+01
 11
-1.10222612E+02
 21
3.76966511E+01
  0
LINE
  8
0
 62
4
 10
-1.01622612E+02
 20
4.40966511E+01
 11
-1.01622612E+02
 21
3.83966511E+01
  0
LINE
  8
0
 62
4
 10
-1.07982612E+02
 20
4.40966511E+01
 11
-1.07922612E+02
 21
4.33966511E+01
  0
LINE
  8
0
 62
4
 10
-1.03862612E+02
 20
4.40966511E+01
 11
-1.03922612E+02
 21
4.33966511E+01
  0
LINE
  8
0
 62
4
 10
-1.01622612E+02
 20
3.83966511E+01
 11
-1.02422612E+02
 21
3.83966511E+01
  0
LINE
  8
0
 62
4
 10
-1.09422612E+02
 20
3.76966511E+01
 11
-1.10222612E+02
 21
3.76966511E+01
  0
LINE
  8
0
 62
4
 10
-1.10222612E+02
 20
3.98966511E+01
 11
-1.10604227E+02
 21
4.01192598E+01
  0
LINE
  8
0
 62
4
 10
-1.11822612E+02
 20
4.31966511E+01
 11
-1.11822612E+02
 21
4.08266511E+01
  0
LINE
  8
0
 62
4
 10
-1.11022612E+02
 20
4.31966511E+01
 11
-1.11822612E+02
 21
4.31966511E+01
  0
LINE
  8
0
 62
4
 10
-1.11022612E+02
 20
4.31966511E+01
 11
-1.11022612E+02
 21
4.12866511E+01
  0
LINE
  8
0
 62
4
 10
-1.10222612E+02
 20
4.08266511E+01
 11
-1.10519322E+02
 21
4.09914900E+01
  0
LINE
  8
0
 62
4
 10
-1.02572612E+02
 20
4.35966511E+01
 11
-1.02572612E+02
 21
3.83966511E+01
  0
LINE
  8
0
 62
4
 10
-1.02422612E+02
 20
4.35966511E+01
 11
-1.02572612E+02
 21
4.35966511E+01
  0
LINE
  8
0
 62
4
 10
-1.10994761E+02
 20
4.12680839E+01
 11
-1.11022612E+02
 21
4.12866511E+01
  0
LINE
  8
0
 62
4
 10
-1.11080504E+02
 20
4.03872450E+01
 11
-1.11822612E+02
 21
4.08266511E+01
  0
LINE
  8
0
 62
4
 10
-1.04422612E+02
 20
4.58966511E+01
 11
-1.04422612E+02
 21
4.48966511E+01
  0
LINE
  8
0
 62
4
 10
-1.07422612E+02
 20
4.58966511E+01
 11
-1.07422612E+02
 21
4.48966511E+01
  0
LINE
  8
0
 62
6
 10
-1.07152612E+02
 20
4.58966511E+01
 11
-1.07152612E+02
 21
4.48966511E+01
  0
LINE
  8
0
 62
6
 10
-1.04692612E+02
 20
4.58966511E+01
 11
-1.04692612E+02
 21
4.48966511E+01
  0
LINE
  8
0
 62
4
 10
-1.08422612E+02
 20
4.63966511E+01
 11
-1.08422612E+02
 21
4.58966511E+01
  0
LINE
  8
0
 62
4
 10
-1.03422612E+02
 20
4.63966511E+01
 11
-1.03422612E+02
 21
4.58966511E+01
  0
LINE
  8
0
 62
4
 10
-1.04422612E+02
 20
4.73966511E+01
 11
-1.07422612E+02
 21
4.73966511E+01
  0
LINE
  8
0
 62
4
 10
-1.04422612E+02
 20
4.33966511E+01
 11
-1.04422612E+02
 21
4.21966511E+01
  0
LINE
  8
0
 62
6
 10
-1.04692612E+02
 20
4.33966511E+01
 11
-1.04692612E+02
 21
4.19266511E+01
  0
LINE
  8
0
 62
6
 10
-1.07152612E+02
 20
4.33966511E+01
 11
-1.07152612E+02
 21
4.19266511E+01
  0
LINE
  8
0
 62
4
 10
-1.07422612E+02
 20
4.33966511E+01
 11
-1.07422612E+02
 21
4.21966511E+01
  0
ARC
  8
0
 62
4
 10
-1.02922772E+02
 20
4.35964910E+01
 40
5.00160181E-01
 50
1.83465799E-02
 51
9.00000002E+01
  0
ARC
  8
0
 62
4
 10
-1.08930237E+02
 20
4.36042763E+01
 40
4.92433852E-01
 50
8.91127567E+01
 51
1.80887243E+02
  0
ARC
  8
0
 62
4
 10
-1.02422750E+02
 20
4.40965128E+01
 40
8.00138358E-01
 50
9.90662024E-03
 51
9.00000002E+01
  0
ARC
  8
0
 62
4
 10
-1.09430237E+02
 20
4.41042763E+01
 40
7.92411497E-01
 50
8.94486475E+01
 51
1.80551352E+02
  0
ARC
  8
0
 62
4
 10
-1.04422742E+02
 20
4.63965216E+01
 40
1.00012957E+00
 50
7.42247612E-03
 51
9.00000002E+01
  0
ARC
  8
0
 62
4
 10
-1.07430239E+02
 20
4.64042779E+01
 40
9.92402587E-01
 50
8.95596718E+01
 51
1.80440329E+02
  0
LINE
  8
0
 62
7
 10
-1.11922612E+02
 20
2.64466511E+01
 11
-1.11922612E+02
 21
2.62966511E+01
  0
LINE
  8
0
 62
4
 10
-1.11922612E+02
 20
3.33566511E+01
 11
-1.11922612E+02
 21
2.64466511E+01
  0
LINE
  8
0
 62
7
 10
-9.99226119E+01
 20
2.64466511E+01
 11
-9.99226119E+01
 21
2.62966511E+01
  0
LINE
  8
0
 62
4
 10
-9.99226119E+01
 20
3.33566511E+01
 11
-9.99226119E+01
 21
2.64466511E+01
  0
CIRCLE
  8
0
 62
2
 10
-1.05922612E+02
 20
2.98966511E+01
 40
1.62100000E+00
  0
LINE
  8
0
  6
CENTER
 62
2
 10
-1.13922612E+02
 20
2.98966511E+01
 11
-9.79226119E+01
 21
2.98966511E+01
  0
LINE
  8
0
  6
CENTER
 62
2
 10
-1.05922612E+02
 20
4.85506413E+01
 11
-1.05922612E+02
 21
2.19066511E+01
  0
LINE
  8
0
 62
4
 10
-1.05922612E+02
 20
3.39366511E+01
 11
-1.09422612E+02
 21
3.19166511E+01
  0
LINE
  8
0
 62
4
 10
-1.09422612E+02
 20
3.19166511E+01
 11
-1.09422612E+02
 21
2.78866511E+01
  0
LINE
  8
0
 62
4
 10
-1.09422612E+02
 20
2.78866511E+01
 11
-1.05922612E+02
 21
2.58666511E+01
  0
LINE
  8
0
 62
4
 10
-1.05922612E+02
 20
2.58666511E+01
 11
-1.02422612E+02
 21
2.78866511E+01
  0
LINE
  8
0
 62
4
 10
-1.02422612E+02
 20
2.78866511E+01
 11
-1.02422612E+02
 21
3.19166511E+01
  0
LINE
  8
0
 62
4
 10
-1.02422612E+02
 20
3.19166511E+01
 11
-1.05922612E+02
 21
3.39366511E+01
  0
LINE
  8
0
 62
4
 10
-1.05922612E+02
 20
3.68266511E+01
 11
-1.11922612E+02
 21
3.33566511E+01
  0
LINE
  8
0
 62
7
 10
-9.99226119E+01
 20
3.35066511E+01
 11
-9.99226119E+01
 21
3.33566511E+01
  0
LINE
  8
0
 62
7
 10
-1.09532612E+02
 20
2.39066511E+01
 11
-1.07532612E+02
 21
2.39066511E+01
  0
LINE
  8
0
 62
7
 10
-1.09532612E+02
 20
3.58966511E+01
 11
-1.07532612E+02
 21
3.58966511E+01
  0
LINE
  8
0
 62
7
 10
-1.11922612E+02
 20
3.35066511E+01
 11
-1.11922612E+02
 21
3.33566511E+01
  0
LINE
  8
0
 62
4
 10
-1.11922612E+02
 20
2.64466511E+01
 11
-1.05922612E+02
 21
2.29766511E+01
  0
LINE
  8
0
 62
4
 10
-1.05922612E+02
 20
2.29766511E+01
 11
-9.99226119E+01
 21
2.64466511E+01
  0
LINE
  8
0
 62
4
 10
-9.99226119E+01
 20
3.33566511E+01
 11
-1.05922612E+02
 21
3.68266511E+01
  0
LINE
  8
0
 62
7
 10
-1.04322612E+02
 20
2.39066511E+01
 11
-1.02322612E+02
 21
2.39066511E+01
  0
LINE
  8
0
 62
7
 10
-1.04322612E+02
 20
3.58966511E+01
 11
-1.02322612E+02
 21
3.58966511E+01
  0
CIRCLE
  8
0
 62
7
 10
-1.05929653E+02
 20
2.99016523E+01
 40
2.00000000E+00
  0
CIRCLE
  8
0
 62
4
 10
-1.05929653E+02
 20
2.99016523E+01
 40
3.50000000E+00
  0
ARC
  8
0
 62
7
 10
-1.05929653E+02
 20
2.99016511E+01
 40
3.99311751E+00
 50
1.51014793E+02
 51
2.08985207E+02
  0
ARC
  8
0
 62
7
 10
-1.05926782E+02
 20
2.98999912E+01
 40
3.99405996E+00
 50
2.10937213E+02
 51
2.68912138E+02
  0
ARC
  8
0
 62
7
 10
-1.05929466E+02
 20
2.99017604E+01
 40
3.99584842E+00
 50
2.71102069E+02
 51
3.29048580E+02
  0
ARC
  8
0
 62
7
 10
-1.05929653E+02
 20
2.99016511E+01
 40
4.00544151E+00
 50
3.31112406E+02
 51
2.88875940E+01
  0
ARC
  8
0
 62
7
 10
-1.05929465E+02
 20
2.99015436E+01
 40
3.99584669E+00
 50
3.09514064E+01
 51
8.88979451E+01
  0
ARC
  8
0
 62
7
 10
-1.05926783E+02
 20
2.99033128E+01
 40
3.99405823E+00
 50
9.10878482E+01
 51
1.49062800E+02
  0
ARC
  8
0
 62
7
 10
-1.05928632E+02
 20
2.99006313E+01
 40
6.99403112E+00
 50
2.11017088E+02
 51
2.38982912E+02
  0
CIRCLE
  8
0
 62
4
 10
-1.05929653E+02
 20
2.99016523E+01
 40
6.00000000E+00
  0
ARC
  8
0
 62
7
 10
-1.05916095E+02
 20
2.99151901E+01
 40
7.00111833E+00
 50
3.00882066E+02
 51
3.28878703E+02
  0
ARC
  8
0
 62
7
 10
-1.05916093E+02
 20
2.98881133E+01
 40
7.00111676E+00
 50
3.11212937E+01
 51
5.91179366E+01
  0
ARC
  8
0
 62
7
 10
-1.05928633E+02
 20
2.99026721E+01
 40
6.99402955E+00
 50
1.21017085E+02
 51
1.48982915E+02
  0
LINE
  8
0
  6
CENTER
 62
2
 10
1.04418903E+02
 20
4.85586868E+01
 11
1.04418903E+02
 21
2.19066511E+01
  0
LINE
  8
0
 62
4
 10
1.05508240E+02
 20
3.61966511E+01
 11
1.06468903E+02
 21
3.61966511E+01
  0
LINE
  8
0
 62
4
 10
1.02918903E+02
 20
4.21966511E+01
 11
1.03218903E+02
 21
4.18966511E+01
  0
LINE
  8
0
 62
4
 10
1.05918903E+02
 20
4.21966511E+01
 11
1.05618903E+02
 21
4.18966511E+01
  0
LINE
  8
0
 62
4
 10
1.08768450E+02
 20
4.35306056E+01
 11
1.09266098E+02
 21
4.35790477E+01
  0
LINE
  8
0
 62
4
 10
1.09266098E+02
 20
4.35790477E+01
 11
1.10215713E+02
 21
3.38236141E+01
  0
LINE
  8
0
 62
4
 10
1.09248903E+02
 20
3.70466511E+01
 11
1.09398198E+02
 21
3.70611838E+01
  0
LINE
  8
0
 62
4
 10
1.08768450E+02
 20
4.35306056E+01
 11
1.09641903E+02
 21
3.45575840E+01
  0
LINE
  8
0
 62
4
 10
1.09248903E+02
 20
3.70466511E+01
 11
1.09473523E+02
 21
3.47391248E+01
  0
LINE
  8
0
 62
4
 10
1.00918903E+02
 20
3.83966511E+01
 11
1.00084248E+02
 21
3.53962480E+01
  0
LINE
  8
0
 62
4
 10
1.01068903E+02
 20
3.83966511E+01
 11
1.00277409E+02
 21
3.55430899E+01
  0
CIRCLE
  8
0
 62
4
 10
1.04418903E+02
 20
3.81966511E+01
 40
1.30000000E+00
  0
LINE
  8
0
 62
4
 10
1.07668903E+02
 20
4.18966511E+01
 11
1.07668903E+02
 21
3.58966511E+01
  0
LINE
  8
0
 62
4
 10
1.01168903E+02
 20
4.18966511E+01
 11
1.01168903E+02
 21
3.83966511E+01
  0
LINE
  8
0
 62
4
 10
1.01168903E+02
 20
4.18966511E+01
 11
1.07668903E+02
 21
4.18966511E+01
  0
LINE
  8
0
 62
4
 10
1.02368903E+02
 20
3.61966511E+01
 11
1.03329566E+02
 21
3.61966511E+01
  0
LINE
  8
0
 62
4
 10
1.06468903E+02
 20
4.01966511E+01
 11
1.06468903E+02
 21
3.61966511E+01
  0
LINE
  8
0
 62
4
 10
1.02368903E+02
 20
4.01966511E+01
 11
1.06468903E+02
 21
4.01966511E+01
  0
LINE
  8
0
 62
4
 10
1.03418903E+02
 20
4.04966511E+01
 11
1.03418903E+02
 21
4.01966511E+01
  0
LINE
  8
0
 62
4
 10
1.05418903E+02
 20
4.04966511E+01
 11
1.05418903E+02
 21
4.01966511E+01
  0
LINE
  8
0
 62
4
 10
1.03418903E+02
 20
4.04966511E+01
 11
1.05418903E+02
 21
4.04966511E+01
  0
LINE
  8
0
 62
4
 10
1.01168903E+02
 20
4.11966511E+01
 11
1.07668903E+02
 21
4.11966511E+01
  0
LINE
  8
0
 62
4
 10
1.01168903E+02
 20
3.79966511E+01
 11
1.02368903E+02
 21
3.79966511E+01
  0
LINE
  8
0
 62
4
 10
1.01168903E+02
 20
3.83966511E+01
 11
1.02368903E+02
 21
3.83966511E+01
  0
LINE
  8
0
 62
4
 10
1.01168903E+02
 20
3.79966511E+01
 11
1.01168903E+02
 21
3.58966511E+01
  0
LINE
  8
0
 62
4
 10
1.02368903E+02
 20
4.01966511E+01
 11
1.02368903E+02
 21
3.61966511E+01
  0
LINE
  8
0
 62
4
 10
1.07918903E+02
 20
4.35966511E+01
 11
1.07918903E+02
 21
3.76966511E+01
  0
LINE
  8
0
 62
4
 10
1.00918903E+02
 20
4.35966511E+01
 11
1.00918903E+02
 21
3.83966511E+01
  0
LINE
  8
0
 62
4
 10
1.01918903E+02
 20
4.58966511E+01
 11
1.06918903E+02
 21
4.58966511E+01
  0
LINE
  8
0
 62
4
 10
1.00918903E+02
 20
4.48966511E+01
 11
1.07918903E+02
 21
4.48966511E+01
  0
LINE
  8
0
 62
4
 10
1.02418903E+02
 20
4.33966511E+01
 11
1.06418903E+02
 21
4.33966511E+01
  0
LINE
  8
0
 62
4
 10
1.01418903E+02
 20
4.40966511E+01
 11
1.07418903E+02
 21
4.40966511E+01
  0
LINE
  8
0
 62
4
 10
1.08718903E+02
 20
4.40966511E+01
 11
1.08718903E+02
 21
3.76966511E+01
  0
LINE
  8
0
 62
4
 10
1.00118903E+02
 20
4.40966511E+01
 11
1.00118903E+02
 21
3.83966511E+01
  0
LINE
  8
0
 62
4
 10
1.06478903E+02
 20
4.40966511E+01
 11
1.06418903E+02
 21
4.33966511E+01
  0
LINE
  8
0
 62
4
 10
1.02358903E+02
 20
4.40966511E+01
 11
1.02418903E+02
 21
4.33966511E+01
  0
LINE
  8
0
 62
4
 10
1.00118903E+02
 20
3.83966511E+01
 11
1.00918903E+02
 21
3.83966511E+01
  0
LINE
  8
0
 62
4
 10
1.07918903E+02
 20
3.76966511E+01
 11
1.08718903E+02
 21
3.76966511E+01
  0
LINE
  8
0
 62
4
 10
1.08718903E+02
 20
3.98966511E+01
 11
1.09100518E+02
 21
4.01192598E+01
  0
LINE
  8
0
 62
4
 10
1.10318903E+02
 20
4.31966511E+01
 11
1.10318903E+02
 21
4.08266511E+01
  0
LINE
  8
0
 62
4
 10
1.09518903E+02
 20
4.31966511E+01
 11
1.10318903E+02
 21
4.31966511E+01
  0
LINE
  8
0
 62
4
 10
1.09518903E+02
 20
4.31966511E+01
 11
1.09518903E+02
 21
4.12866511E+01
  0
LINE
  8
0
 62
4
 10
1.08718903E+02
 20
4.08266511E+01
 11
1.09015613E+02
 21
4.09914900E+01
  0
LINE
  8
0
 62
4
 10
1.01068903E+02
 20
4.35966511E+01
 11
1.01068903E+02
 21
3.83966511E+01
  0
LINE
  8
0
 62
4
 10
1.00918903E+02
 20
4.35966511E+01
 11
1.01068903E+02
 21
4.35966511E+01
  0
LINE
  8
0
 62
4
 10
1.09491052E+02
 20
4.12680839E+01
 11
1.09518903E+02
 21
4.12866511E+01
  0
LINE
  8
0
 62
4
 10
1.09576795E+02
 20
4.03872450E+01
 11
1.10318903E+02
 21
4.08266511E+01
  0
LINE
  8
0
 62
4
 10
1.02918903E+02
 20
4.58966511E+01
 11
1.02918903E+02
 21
4.48966511E+01
  0
LINE
  8
0
 62
4
 10
1.05918903E+02
 20
4.58966511E+01
 11
1.05918903E+02
 21
4.48966511E+01
  0
LINE
  8
0
 62
6
 10
1.05648903E+02
 20
4.58966511E+01
 11
1.05648903E+02
 21
4.48966511E+01
  0
LINE
  8
0
 62
6
 10
1.03188903E+02
 20
4.58966511E+01
 11
1.03188903E+02
 21
4.48966511E+01
  0
LINE
  8
0
 62
4
 10
1.06918903E+02
 20
4.63966511E+01
 11
1.06918903E+02
 21
4.58966511E+01
  0
LINE
  8
0
 62
4
 10
1.01918903E+02
 20
4.63966511E+01
 11
1.01918903E+02
 21
4.58966511E+01
  0
LINE
  8
0
 62
4
 10
1.02918903E+02
 20
4.73966511E+01
 11
1.05918903E+02
 21
4.73966511E+01
  0
LINE
  8
0
 62
4
 10
1.02918903E+02
 20
4.33966511E+01
 11
1.02918903E+02
 21
4.21966511E+01
  0
LINE
  8
0
 62
6
 10
1.03188903E+02
 20
4.33966511E+01
 11
1.03188903E+02
 21
4.19266511E+01
  0
LINE
  8
0
 62
6
 10
1.05648903E+02
 20
4.33966511E+01
 11
1.05648903E+02
 21
4.19266511E+01
  0
LINE
  8
0
 62
4
 10
1.05918903E+02
 20
4.33966511E+01
 11
1.05918903E+02
 21
4.21966511E+01
  0
LINE
  8
0
 62
4
 10
1.03118903E+02
 20
3.68966511E+01
 11
1.05718903E+02
 21
3.68966511E+01
  0
LINE
  8
0
 62
4
 10
1.03118903E+02
 20
3.94966511E+01
 11
1.05718903E+02
 21
3.94966511E+01
  0
LINE
  8
0
 62
4
 10
1.05718903E+02
 20
3.94966511E+01
 11
1.05718903E+02
 21
3.68966511E+01
  0
LINE
  8
0
 62
4
 10
1.03118903E+02
 20
3.94966511E+01
 11
1.03118903E+02
 21
3.68966511E+01
  0
LINE
  8
0
 62
4
 10
1.02368903E+02
 20
4.01966511E+01
 11
1.03118903E+02
 21
3.94966511E+01
  0
LINE
  8
0
 62
4
 10
1.05718903E+02
 20
3.94966511E+01
 11
1.06468903E+02
 21
4.01966511E+01
  0
LINE
  8
0
 62
4
 10
1.03118903E+02
 20
3.68966511E+01
 11
1.02368903E+02
 21
3.61966511E+01
  0
LINE
  8
0
 62
4
 10
1.05718903E+02
 20
3.68966511E+01
 11
1.06468903E+02
 21
3.61966511E+01
  0
ARC
  8
0
 62
4
 10
1.01419063E+02
 20
4.35964910E+01
 40
5.00160181E-01
 50
9.00000002E+01
 51
1.79981654E+02
  0
ARC
  8
0
 62
4
 10
1.07426528E+02
 20
4.36042763E+01
 40
4.92433852E-01
 50
3.59112757E+02
 51
9.08872431E+01
  0
ARC
  8
0
 62
4
 10
1.00919042E+02
 20
4.40965128E+01
 40
8.00138358E-01
 50
9.00000002E+01
 51
1.79990093E+02
  0
ARC
  8
0
 62
4
 10
1.07926528E+02
 20
4.41042763E+01
 40
7.92411497E-01
 50
3.59448647E+02
 51
9.05513523E+01
  0
ARC
  8
0
 62
4
 10
1.02919033E+02
 20
4.63965216E+01
 40
1.00012957E+00
 50
9.00000002E+01
 51
1.79992578E+02
  0
ARC
  8
0
 62
4
 10
1.05926530E+02
 20
4.64042779E+01
 40
9.92402587E-01
 50
3.59559672E+02
 51
9.04403286E+01
  0
ARC
  8
0
 62
7
 10
1.04412882E+02
 20
2.99026721E+01
 40
6.99402955E+00
 50
1.21017085E+02
 51
1.48982915E+02
  0
ARC
  8
0
 62
7
 10
1.04425422E+02
 20
2.98881133E+01
 40
7.00111676E+00
 50
3.11212937E+01
 51
5.91179366E+01
  0
ARC
  8
0
 62
7
 10
1.04425421E+02
 20
2.99151901E+01
 40
7.00111833E+00
 50
3.00882066E+02
 51
3.28878703E+02
  0
CIRCLE
  8
0
 62
4
 10
1.04411862E+02
 20
2.99016523E+01
 40
6.00000000E+00
  0
ARC
  8
0
 62
7
 10
1.04412883E+02
 20
2.99006313E+01
 40
6.99403112E+00
 50
2.11017088E+02
 51
2.38982912E+02
  0
ARC
  8
0
 62
7
 10
1.04414732E+02
 20
2.99033128E+01
 40
3.99405823E+00
 50
9.10878482E+01
 51
1.49062800E+02
  0
ARC
  8
0
 62
7
 10
1.04412050E+02
 20
2.99015436E+01
 40
3.99584669E+00
 50
3.09514064E+01
 51
8.88979451E+01
  0
ARC
  8
0
 62
7
 10
1.04411862E+02
 20
2.99016511E+01
 40
4.00544151E+00
 50
3.31112406E+02
 51
2.88875940E+01
  0
ARC
  8
0
 62
7
 10
1.04412049E+02
 20
2.99017604E+01
 40
3.99584842E+00
 50
2.71102069E+02
 51
3.29048580E+02
  0
ARC
  8
0
 62
7
 10
1.04414733E+02
 20
2.98999912E+01
 40
3.99405996E+00
 50
2.10937213E+02
 51
2.68912138E+02
  0
ARC
  8
0
 62
7
 10
1.04411862E+02
 20
2.99016511E+01
 40
3.99311751E+00
 50
1.51014793E+02
 51
2.08985207E+02
  0
CIRCLE
  8
0
 62
4
 10
1.04411862E+02
 20
2.99016523E+01
 40
3.50000000E+00
  0
CIRCLE
  8
0
 62
7
 10
1.04411862E+02
 20
2.99016523E+01
 40
2.00000000E+00
  0
LINE
  8
0
 62
7
 10
1.06018903E+02
 20
3.58966511E+01
 11
1.08018903E+02
 21
3.58966511E+01
  0
LINE
  8
0
 62
7
 10
1.06018903E+02
 20
2.39066511E+01
 11
1.08018903E+02
 21
2.39066511E+01
  0
LINE
  8
0
 62
4
 10
1.10418903E+02
 20
3.33566511E+01
 11
1.04418903E+02
 21
3.68266511E+01
  0
LINE
  8
0
 62
4
 10
1.04418903E+02
 20
2.29766511E+01
 11
1.10418903E+02
 21
2.64466511E+01
  0
LINE
  8
0
 62
4
 10
9.84189032E+01
 20
2.64466511E+01
 11
1.04418903E+02
 21
2.29766511E+01
  0
LINE
  8
0
 62
7
 10
9.84189032E+01
 20
3.35066511E+01
 11
9.84189032E+01
 21
3.33566511E+01
  0
LINE
  8
0
 62
7
 10
1.00808903E+02
 20
3.58966511E+01
 11
1.02808903E+02
 21
3.58966511E+01
  0
LINE
  8
0
 62
7
 10
1.00808903E+02
 20
2.39066511E+01
 11
1.02808903E+02
 21
2.39066511E+01
  0
LINE
  8
0
 62
7
 10
1.10418903E+02
 20
3.35066511E+01
 11
1.10418903E+02
 21
3.33566511E+01
  0
LINE
  8
0
 62
4
 10
1.04418903E+02
 20
3.68266511E+01
 11
9.84189032E+01
 21
3.33566511E+01
  0
LINE
  8
0
 62
4
 10
1.07918903E+02
 20
3.19166511E+01
 11
1.04418903E+02
 21
3.39366511E+01
  0
LINE
  8
0
 62
4
 10
1.07918903E+02
 20
2.78866511E+01
 11
1.07918903E+02
 21
3.19166511E+01
  0
LINE
  8
0
 62
4
 10
1.04418903E+02
 20
2.58666511E+01
 11
1.07918903E+02
 21
2.78866511E+01
  0
LINE
  8
0
 62
4
 10
1.00918903E+02
 20
2.78866511E+01
 11
1.04418903E+02
 21
2.58666511E+01
  0
LINE
  8
0
 62
4
 10
1.00918903E+02
 20
3.19166511E+01
 11
1.00918903E+02
 21
2.78866511E+01
  0
LINE
  8
0
 62
4
 10
1.04418903E+02
 20
3.39366511E+01
 11
1.00918903E+02
 21
3.19166511E+01
  0
LINE
  8
0
  6
CENTER
 62
2
 10
9.64189032E+01
 20
2.98966511E+01
 11
1.12418903E+02
 21
2.98966511E+01
  0
CIRCLE
  8
0
 62
2
 10
1.04418903E+02
 20
2.98966511E+01
 40
1.62100000E+00
  0
LINE
  8
0
 62
4
 10
1.10418903E+02
 20
3.33566511E+01
 11
1.10418903E+02
 21
2.64466511E+01
  0
LINE
  8
0
 62
7
 10
1.10418903E+02
 20
2.64466511E+01
 11
1.10418903E+02
 21
2.62966511E+01
  0
LINE
  8
0
 62
4
 10
9.84189032E+01
 20
3.33566511E+01
 11
9.84189032E+01
 21
2.64466511E+01
  0
LINE
  8
0
 62
7
 10
9.84189032E+01
 20
2.64466511E+01
 11
9.84189032E+01
 21
2.62966511E+01
  0
LINE
  8
0
  6
CENTER
 62
6
 10
7.48738807E+00
 20
7.96266511E+01
 11
7.48738807E+00
 21
6.49066511E+01
  0
LINE
  8
0
 62
4
 10
2.98738807E+00
 20
6.66766511E+01
 11
1.19873881E+01
 21
6.66766511E+01
  0
LINE
  8
0
 62
4
 10
5.48738807E+00
 20
7.71738461E+01
 11
5.48738807E+00
 21
7.81911301E+01
  0
LINE
  8
0
 62
4
 10
2.98738810E+00
 20
7.81911301E+01
 11
1.19873881E+01
 21
7.81911301E+01
  0
LINE
  8
0
 62
4
 10
5.48738807E+00
 20
7.74266511E+01
 11
9.48738807E+00
 21
7.74266511E+01
  0
CIRCLE
  8
0
 62
4
 10
7.48651283E+00
 20
7.23241927E+01
 40
2.50000000E+00
  0
LINE
  8
0
 62
4
 10
1.44873881E+01
 20
7.03266511E+01
 11
1.99873881E+01
 21
7.03266511E+01
  0
LINE
  8
0
 62
4
 10
1.44873881E+01
 20
7.43266511E+01
 11
1.99873881E+01
 21
7.43266511E+01
  0
LINE
  8
0
 62
4
 10
1.19873881E+01
 20
6.90766511E+01
 11
1.44873881E+01
 21
6.90766511E+01
  0
LINE
  8
0
 62
4
 10
1.19873881E+01
 20
7.55766511E+01
 11
1.44873881E+01
 21
7.55766511E+01
  0
LINE
  8
0
 62
4
 10
1.44873881E+01
 20
6.90766511E+01
 11
1.44873881E+01
 21
7.55766511E+01
  0
LINE
  8
0
 62
4
 10
4.87388075E-01
 20
7.55766511E+01
 11
2.98738807E+00
 21
7.55766511E+01
  0
LINE
  8
0
 62
4
 10
4.87388075E-01
 20
6.90766511E+01
 11
2.98738807E+00
 21
6.90766511E+01
  0
LINE
  8
0
 62
4
 10
-5.01261193E+00
 20
7.13266511E+01
 11
-4.01261193E+00
 21
7.03266511E+01
  0
LINE
  8
0
 62
4
 10
-5.01261193E+00
 20
7.33266511E+01
 11
-4.01261193E+00
 21
7.43266511E+01
  0
LINE
  8
0
 62
4
 10
-4.01261193E+00
 20
7.43266511E+01
 11
-4.01261193E+00
 21
7.03266511E+01
  0
LINE
  8
0
 62
4
 10
-4.01261193E+00
 20
7.43266511E+01
 11
4.87388075E-01
 21
7.43266511E+01
  0
LINE
  8
0
 62
4
 10
-4.01261193E+00
 20
7.03266511E+01
 11
4.87388075E-01
 21
7.03266511E+01
  0
LINE
  8
0
 62
4
 10
-5.01261193E+00
 20
7.33266511E+01
 11
-5.01261193E+00
 21
7.13266511E+01
  0
LINE
  8
0
 62
4
 10
1.99873881E+01
 20
7.43266511E+01
 11
1.99873881E+01
 21
7.03266511E+01
  0
LINE
  8
0
 62
4
 10
8.49482149E+00
 20
7.13240846E+01
 11
6.42482149E+00
 21
7.33840846E+01
  0
LINE
  8
0
 62
4
 10
6.42482149E+00
 20
7.12640846E+01
 11
8.54482149E+00
 21
7.33840846E+01
  0
LINE
  8
0
 62
4
 10
8.59738807E+00
 20
7.12266511E+01
 11
8.54738807E+00
 21
7.12666511E+01
  0
LINE
  8
0
 62
4
 10
4.87388075E-01
 20
6.90766511E+01
 11
4.87388075E-01
 21
7.55766511E+01
  0
LINE
  8
0
 62
4
 10
2.98738807E+00
 20
6.80266511E+01
 11
1.19873881E+01
 21
6.80266511E+01
  0
LINE
  8
0
 62
4
 10
2.98738807E+00
 20
7.66266878E+01
 11
1.19873881E+01
 21
7.66266878E+01
  0
LINE
  8
0
 62
4
 10
1.99873881E+01
 20
7.43266511E+01
 11
2.29873881E+01
 21
7.36266511E+01
  0
LINE
  8
0
 62
4
 10
2.29873881E+01
 20
7.36266511E+01
 11
2.79243872E+01
 21
7.36266511E+01
  0
LINE
  8
0
 62
4
 10
2.29873881E+01
 20
7.10266511E+01
 11
2.53243872E+01
 21
7.10266511E+01
  0
LINE
  8
0
 62
4
 10
1.99873881E+01
 20
7.03266511E+01
 11
2.29873881E+01
 21
7.10266511E+01
  0
LINE
  8
0
 62
6
 10
2.79243872E+01
 20
7.36266511E+01
 11
2.53243872E+01
 21
7.10266511E+01
  0
LINE
  8
0
 62
4
 10
2.98738810E+00
 20
7.71738461E+01
 11
1.19873881E+01
 21
7.71738461E+01
  0
LINE
  8
0
 62
4
 10
9.48738807E+00
 20
7.81911301E+01
 11
9.48738807E+00
 21
7.71738461E+01
  0
LINE
  8
0
  6
CENTER
 62
6
 10
-7.14668864E+00
 20
7.23266511E+01
 11
2.91589641E+01
 21
7.23266511E+01
  0
LINE
  8
0
 62
4
 10
2.29873881E+01
 20
7.36266511E+01
 11
2.29873881E+01
 21
7.10266511E+01
  0
LINE
  8
0
 62
4
 10
1.19873881E+01
 20
6.66766511E+01
 11
1.19873881E+01
 21
7.81911301E+01
  0
LINE
  8
0
 62
4
 10
2.98738807E+00
 20
6.66766511E+01
 11
2.98738807E+00
 21
7.81911301E+01
  0
CIRCLE
  8
0
 62
4
 10
-1.05988101E+02
 20
-3.28104135E+01
 40
4.00000000E+00
  0
LINE
  8
0
 62
4
 10
-8.99881012E+01
 20
-4.02104135E+01
 11
-1.00768101E+02
 21
-2.81504135E+01
  0
LINE
  8
0
  6
CENTER
 62
6
 10
-1.05988101E+02
 20
-2.70606154E+01
 11
-1.05988101E+02
 21
-3.88540975E+01
  0
LINE
  8
0
 62
4
 10
-1.21988101E+02
 20
-4.02104135E+01
 11
-1.11208101E+02
 21
-2.81504135E+01
  0
LINE
  8
0
  6
CENTER
 62
6
 10
-1.11602046E+02
 20
-3.28104135E+01
 11
-1.00405702E+02
 21
-3.28104135E+01
  0
LINE
  8
0
 62
4
 10
-1.21988101E+02
 20
-4.02104135E+01
 11
-8.99881012E+01
 21
-4.02104135E+01
  0
LINE
  8
0
 62
4
 10
-1.21988101E+02
 20
-4.18004135E+01
 11
-8.99881012E+01
 21
-4.18004135E+01
  0
LINE
  8
0
 62
4
 10
-8.99881012E+01
 20
-4.02104135E+01
 11
-8.99881012E+01
 21
-4.18004135E+01
  0
LINE
  8
0
  6
CENTER
 62
6
 10
-1.17088101E+02
 20
-4.38146146E+01
 11
-1.17088101E+02
 21
-3.82569591E+01
  0
LINE
  8
0
  6
CENTER
 62
6
 10
-9.48881012E+01
 20
-4.38146146E+01
 11
-9.48881012E+01
 21
-3.79583900E+01
  0
LINE
  8
0
 62
4
 10
-1.21988101E+02
 20
-4.02104135E+01
 11
-1.21988101E+02
 21
-4.18004135E+01
  0
ARC
  8
0
 62
4
 10
-1.05988101E+02
 20
-3.28054166E+01
 40
6.99410138E+00
 50
4.17254003E+01
 51
1.38274600E+02
  0
LINE
  8
0
  6
CENTER
 62
6
 10
-7.49881012E+01
 20
-3.79583900E+01
 11
-7.49881012E+01
 21
-4.38146146E+01
  0
LINE
  8
0
  6
CENTER
 62
6
 10
-7.20141479E+01
 20
-3.28104135E+01
 11
-6.60681811E+01
 21
-3.28104135E+01
  0
LINE
  8
0
 62
4
 10
-6.79881012E+01
 20
-2.58004135E+01
 11
-6.79881012E+01
 21
-3.92004135E+01
  0
ARC
  8
0
 62
4
 10
-7.05912735E+01
 20
-3.91972412E+01
 40
2.60317420E+00
 50
2.70069822E+02
 51
3.59930178E+02
  0
LINE
  8
0
 62
4
 10
-7.99881012E+01
 20
-4.18004135E+01
 11
-7.05881012E+01
 21
-4.18004135E+01
  0
LINE
  8
0
 62
4
 10
-7.99881012E+01
 20
-4.02004135E+01
 11
-7.99881012E+01
 21
-4.18004135E+01
  0
LINE
  8
0
 62
4
 10
-7.99881012E+01
 20
-4.02004135E+01
 11
-7.05881012E+01
 21
-4.02004135E+01
  0
ARC
  8
0
 62
4
 10
-7.05912725E+01
 20
-3.91972422E+01
 40
1.00317633E+00
 50
2.70181129E+02
 51
3.59818872E+02
  0
LINE
  8
0
 62
4
 10
-6.95881012E+01
 20
-2.58004135E+01
 11
-6.95881012E+01
 21
-3.92004135E+01
  0
LINE
  8
0
 62
4
 10
-6.95881012E+01
 20
-2.58004135E+01
 11
-6.79881012E+01
 21
-2.58004135E+01
  0
LINE
  8
0
 62
4
 10
-7.28881012E+01
 20
-4.02004135E+01
 11
-7.28881012E+01
 21
-4.18004135E+01
  0
LINE
  8
0
 62
4
 10
-7.70881012E+01
 20
-4.02004135E+01
 11
-7.70881012E+01
 21
-4.18004135E+01
  0
LINE
  8
0
  6
CENTER
 62
6
 10
-1.05988101E+02
 20
-1.41041351E+00
 11
-1.05988101E+02
 21
-1.60404135E+01
  0
LINE
  8
0
  6
CENTER
 62
6
 10
-9.48881012E+01
 20
-1.29685643E+01
 11
-9.48881012E+01
 21
-6.69861179E+00
  0
LINE
  8
0
  6
CENTER
 62
6
 10
-1.17088101E+02
 20
-1.32671334E+01
 11
-1.17088101E+02
 21
-6.80041351E+00
  0
LINE
  8
0
 62
4
 10
-1.21988101E+02
 20
-4.40041351E+00
 11
-8.99881012E+01
 21
-4.40041351E+00
  0
LINE
  8
0
 62
4
 10
-1.21988101E+02
 20
-2.80041351E+00
 11
-1.21988101E+02
 21
-7.70041351E+00
  0
LINE
  8
0
 62
4
 10
-8.99881012E+01
 20
-2.80041351E+00
 11
-8.99881012E+01
 21
-7.70041351E+00
  0
LINE
  8
0
 62
4
 10
-1.21988101E+02
 20
-2.80041351E+00
 11
-8.99881012E+01
 21
-2.80041351E+00
  0
LINE
  8
0
 62
4
 10
-1.21988101E+02
 20
-1.48004135E+01
 11
-8.99881012E+01
 21
-1.48004135E+01
  0
LINE
  8
0
  6
CENTER
 62
6
 10
-1.19961983E+02
 20
-9.80041351E+00
 11
-9.21950501E+01
 21
-9.80041351E+00
  0
LINE
  8
0
 62
4
 10
-1.21988101E+02
 20
-7.70041351E+00
 11
-1.17088101E+02
 21
-7.70041351E+00
  0
LINE
  8
0
 62
4
 10
-1.21988101E+02
 20
-1.19004135E+01
 11
-1.17088101E+02
 21
-1.19004135E+01
  0
LINE
  8
0
 62
4
 10
-9.48881012E+01
 20
-7.70041351E+00
 11
-8.99881012E+01
 21
-7.70041351E+00
  0
LINE
  8
0
 62
4
 10
-9.48881012E+01
 20
-1.19004135E+01
 11
-8.99881012E+01
 21
-1.19004135E+01
  0
LINE
  8
0
 62
4
 10
-8.99881012E+01
 20
-1.19004135E+01
 11
-8.99881012E+01
 21
-1.48004135E+01
  0
LINE
  8
0
 62
4
 10
-1.21988101E+02
 20
-1.19004135E+01
 11
-1.21988101E+02
 21
-1.48004135E+01
  0
ARC
  8
0
 62
4
 10
-9.48951514E+01
 20
-9.80041351E+00
 40
2.10001183E+00
 50
8.98076456E+01
 51
2.70192355E+02
  0
ARC
  8
0
 62
4
 10
-1.17095148E+02
 20
-9.80041351E+00
 40
2.10001182E+00
 50
2.70192271E+02
 51
8.98077287E+01
  0
LINE
  8
0
  6
CENTER
 62
6
 10
-4.88810119E+00
 20
-2.60672643E+01
 11
-4.88810119E+00
 21
-3.18270990E+01
  0
LINE
  8
0
  6
CENTER
 62
6
 10
-2.70881012E+01
 20
-2.60672643E+01
 11
-2.70881012E+01
 21
-3.18270990E+01
  0
LINE
  8
0
 62
4
 10
-3.19881012E+01
 20
-2.18104135E+01
 11
-3.19881012E+01
 21
-2.67104135E+01
  0
LINE
  8
0
 62
4
 10
1.18988113E-02
 20
-2.18104135E+01
 11
1.18988113E-02
 21
-2.67104135E+01
  0
CIRCLE
  8
0
 62
4
 10
-1.59881012E+01
 20
-2.88104135E+01
 40
4.00000000E+00
  0
LINE
  8
0
  6
CENTER
 62
6
 10
-1.59881012E+01
 20
-2.36250908E+01
 11
-1.59881012E+01
 21
-3.44524322E+01
  0
LINE
  8
0
  6
CENTER
 62
6
 10
-2.91062609E+01
 20
-2.88104135E+01
 11
-2.48768137E+00
 21
-2.88104135E+01
  0
LINE
  8
0
 62
4
 10
-3.19881012E+01
 20
-3.09104135E+01
 11
-2.70881012E+01
 21
-3.09104135E+01
  0
LINE
  8
0
 62
4
 10
-3.19881012E+01
 20
-2.67104135E+01
 11
-2.70881012E+01
 21
-2.67104135E+01
  0
LINE
  8
0
 62
4
 10
-4.88810119E+00
 20
-3.09104135E+01
 11
1.18988113E-02
 21
-3.09104135E+01
  0
LINE
  8
0
 62
4
 10
-4.88810119E+00
 20
-2.67104135E+01
 11
1.18988113E-02
 21
-2.67104135E+01
  0
LINE
  8
0
 62
4
 10
-3.19881012E+01
 20
-3.58104135E+01
 11
1.18988113E-02
 21
-3.58104135E+01
  0
LINE
  8
0
 62
4
 10
-3.19881012E+01
 20
-2.18104135E+01
 11
1.18988113E-02
 21
-2.18104135E+01
  0
LINE
  8
0
 62
4
 10
1.18988113E-02
 20
-3.09104135E+01
 11
1.18988113E-02
 21
-3.58104135E+01
  0
LINE
  8
0
 62
4
 10
-3.19881012E+01
 20
-3.09104135E+01
 11
-3.19881012E+01
 21
-3.58104135E+01
  0
ARC
  8
0
 62
4
 10
-4.88810119E+00
 20
-2.88104135E+01
 40
2.10000000E+00
 50
9.00000002E+01
 51
2.70000000E+02
  0
ARC
  8
0
 62
4
 10
-2.70881012E+01
 20
-2.88104135E+01
 40
2.10000000E+00
 50
2.70000000E+02
 51
9.00000002E+01
  0
LINE
  8
0
 62
4
 10
2.66118988E+01
 20
-2.18104135E+01
 11
2.66118988E+01
 21
-3.58104135E+01
  0
LINE
  8
0
 62
4
 10
2.50118988E+01
 20
-2.18104135E+01
 11
2.50118988E+01
 21
-3.58104135E+01
  0
LINE
  8
0
 62
4
 10
2.50118988E+01
 20
-2.67104135E+01
 11
2.66118988E+01
 21
-2.67104135E+01
  0
LINE
  8
0
 62
4
 10
2.50118988E+01
 20
-3.09104135E+01
 11
2.66118988E+01
 21
-3.09104135E+01
  0
LINE
  8
0
 62
4
 10
2.50118988E+01
 20
-2.18104135E+01
 11
2.66118988E+01
 21
-2.18104135E+01
  0
LINE
  8
0
  6
CENTER
 62
6
 10
2.31016383E+01
 20
-2.88104135E+01
 11
2.85788726E+01
 21
-2.88104135E+01
  0
LINE
  8
0
 62
4
 10
2.50118988E+01
 20
-3.58104135E+01
 11
2.66118988E+01
 21
-3.58104135E+01
  0
LINE
  8
0
  6
CENTER
 62
6
 10
-2.70881012E+01
 20
-8.52613641E+00
 11
-2.70881012E+01
 21
-3.57091613E+00
  0
LINE
  8
0
 62
4
 10
1.18988113E-02
 20
-5.21041351E+00
 11
1.18988113E-02
 21
-6.81041351E+00
  0
LINE
  8
0
 62
4
 10
-3.19881012E+01
 20
-5.21041351E+00
 11
1.18988113E-02
 21
-5.21041351E+00
  0
LINE
  8
0
 62
4
 10
-3.19881012E+01
 20
-6.81041351E+00
 11
1.18988113E-02
 21
-6.81041351E+00
  0
LINE
  8
0
 62
4
 10
-3.19881012E+01
 20
-5.21041351E+00
 11
-3.19881012E+01
 21
-6.81041351E+00
  0
LINE
  8
0
  6
CENTER
 62
6
 10
-4.88810119E+00
 20
-8.52613641E+00
 11
-4.88810119E+00
 21
-3.57091613E+00
  0
LINE
  8
0
  6
CENTER
 62
6
 10
-1.59881012E+01
 20
-8.52613641E+00
 11
-1.59881012E+01
 21
-3.57091613E+00
  0
LINE
  8
0
 62
7
 10
3.56000061E+01
 20
-5.98000031E+01
 11
3.56000061E+01
 21
-8.98000031E+01
  0
LINE
  8
0
 62
7
 10
2.36000061E+01
 20
-5.98000031E+01
 11
2.36000061E+01
 21
-8.98000031E+01
  0
LINE
  8
0
 62
7
 10
1.16000061E+01
 20
-5.98000031E+01
 11
1.16000061E+01
 21
-8.98000031E+01
  0
LINE
  8
0
 62
7
 10
-3.99993896E-01
 20
-5.98000031E+01
 11
-3.99993896E-01
 21
-8.98000031E+01
  0
LINE
  8
0
 62
7
 10
-1.23999939E+01
 20
-5.98000031E+01
 11
-1.23999939E+01
 21
-8.98000031E+01
  0
LINE
  8
0
 62
7
 10
-2.43999939E+01
 20
-5.98000031E+01
 11
-2.43999939E+01
 21
-8.98000031E+01
  0
LINE
  8
0
 62
7
 10
-3.63999939E+01
 20
-5.98000031E+01
 11
-3.63999939E+01
 21
-8.98000031E+01
  0
LINE
  8
0
 62
7
 10
-4.83999939E+01
 20
-5.98000031E+01
 11
-4.83999939E+01
 21
-8.98000031E+01
  0
TEXT
  8
0
 62
7
 10
2.68625310E+01
 20
-8.84000011E+01
 40
3.20000005E+00
  1
30
 41
1.00000000E+00
  7
MONOTXT
  0
TEXT
  8
0
 62
7
 10
2.68625310E+01
 20
-8.24000031E+01
 40
3.20000005E+00
  1
30
 41
1.00000000E+00
  7
MONOTXT
  0
TEXT
  8
0
 62
7
 10
2.68625310E+01
 20
-7.03963805E+01
 40
3.20000005E+00
  1
60
 41
1.00000000E+00
  7
MONOTXT
  0
TEXT
  8
0
 62
7
 10
1.48625310E+01
 20
-8.84000011E+01
 40
3.20000005E+00
  1
25
 41
1.00000000E+00
  7
MONOTXT
  0
TEXT
  8
0
 62
7
 10
1.48625310E+01
 20
-8.24000031E+01
 40
3.20000005E+00
  1
25
 41
1.00000000E+00
  7
MONOTXT
  0
TEXT
  8
0
 62
7
 10
1.48625310E+01
 20
-7.03963805E+01
 40
3.20000005E+00
  1
55
 41
1.00000000E+00
  7
MONOTXT
  0
TEXT
  8
0
 62
7
 10
2.86253098E+00
 20
-8.84000011E+01
 40
3.20000005E+00
  1
20
 41
1.00000000E+00
  7
MONOTXT
  0
TEXT
  8
0
 62
7
 10
2.86253098E+00
 20
-8.24000031E+01
 40
3.20000005E+00
  1
20
 41
1.00000000E+00
  7
MONOTXT
  0
TEXT
  8
0
 62
7
 10
2.86253098E+00
 20
-7.03963805E+01
 40
3.20000005E+00
  1
50
 41
1.00000000E+00
  7
MONOTXT
  0
TEXT
  8
0
 62
7
 10
-9.13746902E+00
 20
-8.84000011E+01
 40
3.20000005E+00
  1
15
 41
1.00000000E+00
  7
MONOTXT
  0
TEXT
  8
0
 62
7
 10
-9.13746902E+00
 20
-8.24000031E+01
 40
3.20000005E+00
  1
15
 41
1.00000000E+00
  7
MONOTXT
  0
TEXT
  8
0
 62
7
 10
-9.13746902E+00
 20
-7.03963805E+01
 40
3.20000005E+00
  1
45
 41
1.00000000E+00
  7
MONOTXT
  0
TEXT
  8
0
 62
7
 10
-2.11374690E+01
 20
-8.84000011E+01
 40
3.20000005E+00
  1
10
 41
1.00000000E+00
  7
MONOTXT
  0
TEXT
  8
0
 62
7
 10
-2.11374690E+01
 20
-8.24000031E+01
 40
3.20000005E+00
  1
10
 41
1.00000000E+00
  7
MONOTXT
  0
TEXT
  8
0
 62
7
 10
-2.11374690E+01
 20
-7.03963805E+01
 40
3.20000005E+00
  1
40
 41
1.00000000E+00
  7
MONOTXT
  0
TEXT
  8
0
 62
7
 10
-3.15374690E+01
 20
-8.84000011E+01
 40
3.20000005E+00
  1
5
 41
1.00000000E+00
  7
MONOTXT
  0
TEXT
  8
0
 62
7
 10
-3.15374690E+01
 20
-8.24000031E+01
 40
3.20000005E+00
  1
5
 41
1.00000000E+00
  7
MONOTXT
  0
TEXT
  8
0
 62
7
 10
-3.31374690E+01
 20
-7.03963805E+01
 40
3.20000005E+00
  1
35
 41
1.00000000E+00
  7
MONOTXT
  0
TEXT
  8
0
 62
7
 10
-4.35374690E+01
 20
-8.84000011E+01
 40
3.20000005E+00
  1
0
 41
1.00000000E+00
  7
MONOTXT
  0
TEXT
  8
0
 62
7
 10
-4.35374690E+01
 20
-8.24000031E+01
 40
3.20000005E+00
  1
0
 41
1.00000000E+00
  7
MONOTXT
  0
TEXT
  8
0
 62
7
 10
-4.51374690E+01
 20
-7.03963805E+01
 40
3.20000005E+00
  1
30
 41
1.00000000E+00
  7
MONOTXT
  0
TEXT
  8
0
 62
7
 10
-5.71374690E+01
 20
-8.84000011E+01
 40
3.20000005E+00
  1
-5
 41
1.00000000E+00
  7
MONOTXT
  0
TEXT
  8
0
 62
7
 10
-5.71374690E+01
 20
-8.24000031E+01
 40
3.20000005E+00
  1
-5
 41
1.00000000E+00
  7
MONOTXT
  0
TEXT
  8
0
 62
7
 10
-5.71374690E+01
 20
-7.03963805E+01
 40
3.20000005E+00
  1
25
 41
1.00000000E+00
  7
MONOTXT
  0
TEXT
  8
0
 62
7
 10
-6.76429942E+01
 20
-5.81802848E+01
 40
3.20000005E+00
  1
STRETCH LIST
 41
1.05263158E+00
  7
MONOTXT
  0
TEXT
  8
0
 62
7
 10
2.42538108E+01
 20
-5.81802848E+01
 40
3.20000005E+00
  1
(mm)
 41
1.00000000E+00
  7
MONOTXT
  0
TEXT
  8
0
 62
7
 10
-1.06737469E+02
 20
-8.84000011E+01
 40
3.20000005E+00
  1
-25
 41
1.00000000E+00
  7
MONOTXT
  0
TEXT
  8
0
 62
7
 10
-9.47374691E+01
 20
-8.84000011E+01
 40
3.20000005E+00
  1
-20
 41
1.00000000E+00
  7
MONOTXT
  0
TEXT
  8
0
 62
7
 10
-8.27374691E+01
 20
-8.84000011E+01
 40
3.20000005E+00
  1
-15
 41
1.00000000E+00
  7
MONOTXT
  0
TEXT
  8
0
 62
7
 10
-7.07374691E+01
 20
-8.84000011E+01
 40
3.20000005E+00
  1
-10
 41
1.00000000E+00
  7
MONOTXT
  0
TEXT
  8
0
 62
7
 10
-1.22037469E+02
 20
-8.84000031E+01
 40
3.20000005E+00
  1
B
 41
1.00000000E+00
  7
MONOTXT
  0
TEXT
  8
0
 62
7
 10
-1.22037469E+02
 20
-8.24000031E+01
 40
3.20000005E+00
  1
A
 41
1.00000000E+00
  7
MONOTXT
  0
TEXT
  8
0
 62
7
 10
-1.32241000E+02
 20
-7.19763780E+01
 40
3.20000005E+00
  1
STRETCH
 41
1.00000000E+00
  7
MONOTXT
  0
TEXT
  8
0
 62
7
 10
-1.32241000E+02
 20
-7.67763782E+01
 40
3.20000005E+00
  1
  PLACE
 41
1.20689655E+00
  7
MONOTXT
  0
TEXT
  8
0
 62
7
 10
-1.06737469E+02
 20
-8.24000031E+01
 40
3.20000005E+00
  1
-25
 41
1.00000000E+00
  7
MONOTXT
  0
TEXT
  8
0
 62
7
 10
-9.47374691E+01
 20
-8.24000031E+01
 40
3.20000005E+00
  1
-20
 41
1.00000000E+00
  7
MONOTXT
  0
TEXT
  8
0
 62
7
 10
-8.27374691E+01
 20
-8.24000031E+01
 40
3.20000005E+00
  1
-15
 41
1.00000000E+00
  7
MONOTXT
  0
TEXT
  8
0
 62
7
 10
-7.07374691E+01
 20
-8.24000031E+01
 40
3.20000005E+00
  1
-10
 41
1.00000000E+00
  7
MONOTXT
  0
TEXT
  8
0
 62
7
 10
-1.03537469E+02
 20
-7.03963805E+01
 40
3.20000005E+00
  1
5
 41
1.00000000E+00
  7
MONOTXT
  0
TEXT
  8
0
 62
7
 10
-9.31374690E+01
 20
-7.03963805E+01
 40
3.20000005E+00
  1
10
 41
1.00000000E+00
  7
MONOTXT
  0
TEXT
  8
0
 62
7
 10
-8.11374690E+01
 20
-7.03963805E+01
 40
3.20000005E+00
  1
15
 41
1.00000000E+00
  7
MONOTXT
  0
TEXT
  8
0
 62
7
 10
-6.91374690E+01
 20
-7.03963805E+01
 40
3.20000005E+00
  1
20
 41
1.00000000E+00
  7
MONOTXT
  0
TEXT
  8
0
 62
7
 10
-1.29037469E+02
 20
-6.43963843E+01
 40
3.20000005E+00
  1
STROKE
 41
1.00000000E+00
  7
MONOTXT
  0
LINE
  8
0
 62
7
 10
-1.33399994E+02
 20
-5.98000031E+01
 11
-1.33399994E+02
 21
-8.98000031E+01
  0
LINE
  8
0
 62
7
 10
-1.33399994E+02
 20
-6.58000031E+01
 11
-1.10509994E+02
 21
-6.58000031E+01
  0
LINE
  8
0
 62
7
 10
-1.08399994E+02
 20
-7.78000031E+01
 11
-1.10509994E+02
 21
-6.58000031E+01
  0
LINE
  8
0
 62
7
 10
-1.33399994E+02
 20
-7.78000031E+01
 11
3.56000061E+01
 21
-7.78000031E+01
  0
LINE
  8
0
 62
7
 10
-1.33399994E+02
 20
-5.98000031E+01
 11
3.56000061E+01
 21
-5.98000031E+01
  0
LINE
  8
0
 62
7
 10
-6.03999939E+01
 20
-5.98000031E+01
 11
-6.03999939E+01
 21
-8.98000031E+01
  0
LINE
  8
0
 62
7
 10
-7.23999939E+01
 20
-5.98000031E+01
 11
-7.23999939E+01
 21
-8.98000031E+01
  0
LINE
  8
0
 62
7
 10
-8.43999939E+01
 20
-5.98000031E+01
 11
-8.43999939E+01
 21
-8.98000031E+01
  0
LINE
  8
0
 62
7
 10
-9.63999939E+01
 20
-5.98000031E+01
 11
-9.63999939E+01
 21
-8.98000031E+01
  0
LINE
  8
0
 62
7
 10
-1.08399994E+02
 20
-5.98000031E+01
 11
-1.08399994E+02
 21
-8.98000031E+01
  0
LINE
  8
0
 62
7
 10
-1.33399994E+02
 20
-8.38000031E+01
 11
3.56000061E+01
 21
-8.38000031E+01
  0
LINE
  8
0
 62
7
 10
-1.33399994E+02
 20
-8.98000031E+01
 11
3.56000061E+01
 21
-8.98000031E+01
  0
TEXT
  8
0
 10
3.89526715E+01
 20
5.43079376E+01
 40
3.20000005E+00
  1
STRETCH LINE B
 41
1.09375000E+00
  7
MONOTXT
  0
TEXT
  8
0
 10
-3.10473285E+01
 20
5.43079376E+01
 40
3.20000005E+00
  1
STRETCH LINE A
 41
1.09375000E+00
  7
MONOTXT
  0
LINE
  8
0
 62
7
 10
-1.38399994E+02
 20
9.45000000E+01
 11
1.38350006E+02
 21
9.45000000E+01
  0
LINE
  8
0
 62
7
 10
1.38350006E+02
 20
9.45000000E+01
 11
1.38350006E+02
 21
-9.48000031E+01
  0
LINE
  8
0
 62
7
 10
-1.38399994E+02
 20
-9.48000031E+01
 11
1.38350006E+02
 21
-9.48000031E+01
  0
LINE
  8
0
 62
7
 10
-1.38399994E+02
 20
9.45000000E+01
 11
-1.38399994E+02
 21
-9.48000031E+01
  0
LINE
  8
0
 62
7
 10
7.33500061E+01
 20
-8.48000031E+01
 11
1.38350006E+02
 21
-8.48000031E+01
  0
LINE
  8
0
 62
7
 10
-1.38399994E+02
 20
8.45000000E+01
 11
-7.33999939E+01
 21
8.45000000E+01
  0
LINE
  8
0
 62
7
 10
7.33500061E+01
 20
8.45000000E+01
 11
1.38350006E+02
 21
8.45000000E+01
  0
LINE
  8
0
 62
7
 10
7.33500061E+01
 20
-8.48000031E+01
 11
7.33500061E+01
 21
-9.48000031E+01
  0
LINE
  8
0
 62
7
 10
7.33500061E+01
 20
9.45000000E+01
 11
7.33500061E+01
 21
8.45000000E+01
  0
LINE
  8
0
 62
7
 10
-7.33999939E+01
 20
9.45000000E+01
 11
-7.33999939E+01
 21
8.45000000E+01
  0
TEXT
  8
0
 62
7
 10
7.72426624E+01
 20
-9.20500031E+01
 40
4.50000000E+00
  1
KOGANEI CORP.
 41
1.04838710E+00
  7
MONOTXT
  0
TEXT
  8
0
 62
7
 10
9.35071483E+01
 20
8.79000000E+01
 40
3.20000005E+00
  1
Ver. 1.1
 41
1.08108108E+00
  7
MONOTXT
  0
TEXT
  8
0
 62
7
 10
-1.31042852E+02
 20
8.79000000E+01
 40
3.20000005E+00
  1
NEW PEN CYLINDER
 41
1.08108108E+00
  7
MONOTXT
  0
TEXT
  8
0
 62
7
 10
-1.29085994E+02
 20
7.29000000E+01
 40
3.20000005E+00
  1
MODEL:PBDADS10*ST(30)-ZC230
 41
1.00000000E+00
  7
MONOTXT
  0
ENDSEC
  0
EOF
