  0
SECTION
  2
HEADER
  9
$ACADVER
  1
AC1003
  9
$EXTMIN
 10
-1.38399994E+02
 20
-9.48000031E+01
  9
$EXTMAX
 10
1.38350006E+02
 20
9.45000000E+01
  9
$LIMMIN
 10
-1.38400994E+02
 20
-9.48010031E+01
  9
$LIMMAX
 10
1.38351006E+02
 20
9.45010000E+01
  9
$SNAPUNIT
 10
1
 20
1
  9
$SNAPBASE
 10
0
 20
0
  9
$GRIDMODE
 70
0
  9
$GRIDUNIT
 10
0
 20
0
  9
$LTSCALE
 40
4.61250000E+00
  9
$TEXTSIZE
 40
3.2
  9
$DIMTAD
 70
0
  9
$LUNITS
 70
2
  9
$LUPREC
 70
4
  9
$FILLETRAD
 40
0
  9
$AUNITS
 70
0
  9
$AUPREC
 70
0
  0
ENDSEC
  0
SECTION
  2
TABLES
  0
TABLE
  2
LTYPE
 70
2
  0
LTYPE
  2
CONTINUOUS
 70
64
  3
Solid-Line
 72
65
 73
0
 40
0
  0
LTYPE
  2
DASHED
 70
64
  3
DASHED
 72
65
 73
2
 40
.75
 49
.5
 49
-.25
  0
LTYPE
  2
HIDDEN
 70
64
  3
HIDDEN
 72
65
 73
2
 40
.375
 49
.25
 49
-.125
  0
LTYPE
  2
CENTER
 70
64
  3
CENTER
 72
65
 73
4
 40
2
 49
1.25
 49
-.25
 49
.25
 49
-.25
  0
LTYPE
  2
PHANTOM
 70
64
  3
PHANTOM
 72
65
 73
6
 40
2.5
 49
1.25
 49
-.25
 49
.25
 49
-.25
 49
.25
 49
-.25
  0
ENDTAB
  0
TABLE
  2
LAYER
 70
1
  0
LAYER
  2
1
 70
0
 62
7
  6
CONTINUOUS
 0
ENDTAB
  0
TABLE
  2
STYLE
 70
2
  0
STYLE
  2
MONOTXT
 70
0
 40
0
 41
1
 50
0
 71
0
 42
.2
  3
monotxt
  0
STYLE
  2
BIGFONT
 70
0
 40
0
 41
1
 50
0
 71
0
 42
.2
  3
txt
  4
bigfont
  0
ENDTAB
  0
ENDSEC
  0
SECTION
  2
ENTITIES
  0
LINE
  8
0
  6
CENTER
 62
6
 10
-1.43929267E+01
 20
5.48715410E+01
 11
-1.43929267E+01
 21
2.18268819E+01
  0
LINE
  8
0
 62
4
 10
-1.88929267E+01
 20
4.27615410E+01
 11
-1.88929267E+01
 21
4.95615410E+01
  0
LINE
  8
0
 62
4
 10
-9.89292674E+00
 20
4.27615410E+01
 11
-9.89292674E+00
 21
4.95615410E+01
  0
LINE
  8
0
  6
CENTER
 62
6
 10
2.55970733E+01
 20
5.48715410E+01
 11
2.55970733E+01
 21
2.18268819E+01
  0
LINE
  8
0
 62
4
 10
2.10970733E+01
 20
4.27615410E+01
 11
2.10970733E+01
 21
4.95615410E+01
  0
LINE
  8
0
 62
4
 10
3.00970733E+01
 20
4.27615410E+01
 11
3.00970733E+01
 21
4.95615410E+01
  0
LINE
  8
0
  6
PHANTOM
 10
8.86623381E+00
 20
1.23719922E+01
 11
8.86623381E+00
 21
5.34950315E+01
  0
LINE
  8
0
 62
7
 10
3.00970733E+01
 20
2.30615410E+01
 11
4.80970733E+01
 21
2.30615410E+01
  0
LINE
  8
0
 62
7
 10
3.25970733E+01
 20
4.00615410E+01
 11
4.80970733E+01
 21
4.00615410E+01
  0
LINE
  8
0
 62
7
 10
-9.89292674E+00
 20
2.30615410E+01
 11
2.10970733E+01
 21
2.30615410E+01
  0
LINE
  8
0
 62
7
 10
-7.39292674E+00
 20
4.00615410E+01
 11
1.85970733E+01
 21
4.00615410E+01
  0
LINE
  8
0
 62
4
 10
3.25970733E+01
 20
4.48615410E+01
 11
3.80970733E+01
 21
4.48615410E+01
  0
LINE
  8
0
 62
4
 10
3.25970733E+01
 20
4.08615410E+01
 11
3.80970733E+01
 21
4.08615410E+01
  0
LINE
  8
0
 62
4
 10
1.85970733E+01
 20
4.26615410E+01
 11
1.85970733E+01
 21
3.95934232E+01
  0
LINE
  8
0
 62
4
 10
3.25970733E+01
 20
4.26615410E+01
 11
3.25970733E+01
 21
3.95934232E+01
  0
LINE
  8
0
 62
4
 10
2.10970733E+01
 20
4.30615410E+01
 11
3.00970733E+01
 21
4.30615410E+01
  0
LINE
  8
0
 62
4
 10
1.85970733E+01
 20
3.95934232E+01
 11
2.10970733E+01
 21
3.95934232E+01
  0
LINE
  8
0
 62
4
 10
3.25970733E+01
 20
3.95934232E+01
 11
3.00970733E+01
 21
3.95934232E+01
  0
LINE
  8
0
 62
4
 10
3.00970733E+01
 20
4.26615410E+01
 11
3.25970733E+01
 21
4.26615410E+01
  0
LINE
  8
0
 62
4
 10
3.00970733E+01
 20
4.30615410E+01
 11
3.25970733E+01
 21
4.30615410E+01
  0
LINE
  8
0
 62
4
 10
3.00970733E+01
 20
4.58615410E+01
 11
3.25970733E+01
 21
4.58615410E+01
  0
LINE
  8
0
 62
4
 10
1.85970733E+01
 20
4.26615410E+01
 11
2.10970733E+01
 21
4.26615410E+01
  0
LINE
  8
0
 62
4
 10
1.85970733E+01
 20
4.30615410E+01
 11
2.10970733E+01
 21
4.30615410E+01
  0
LINE
  8
0
 62
4
 10
1.85970733E+01
 20
4.58615410E+01
 11
2.10970733E+01
 21
4.58615410E+01
  0
LINE
  8
0
 62
4
 10
2.10970733E+01
 20
2.29115563E+01
 11
3.00970733E+01
 21
2.29115563E+01
  0
LINE
  8
0
 62
4
 10
3.25970733E+01
 20
4.58615410E+01
 11
3.25970733E+01
 21
4.30615410E+01
  0
LINE
  8
0
 62
4
 10
1.85970733E+01
 20
4.58615410E+01
 11
1.85970733E+01
 21
4.30615410E+01
  0
LINE
  8
0
 62
4
 10
1.30970733E+01
 20
4.38615410E+01
 11
1.40970733E+01
 21
4.48615410E+01
  0
LINE
  8
0
 62
4
 10
1.30970733E+01
 20
4.38615410E+01
 11
1.30970733E+01
 21
4.18615410E+01
  0
LINE
  8
0
 62
4
 10
1.40970733E+01
 20
4.08615410E+01
 11
1.85970733E+01
 21
4.08615410E+01
  0
LINE
  8
0
 62
4
 10
1.40970733E+01
 20
4.48615410E+01
 11
1.85970733E+01
 21
4.48615410E+01
  0
LINE
  8
0
 62
4
 10
1.30970733E+01
 20
4.18615410E+01
 11
1.40970733E+01
 21
4.08615410E+01
  0
LINE
  8
0
 62
4
 10
1.40970733E+01
 20
4.48615410E+01
 11
1.40970733E+01
 21
4.08615410E+01
  0
LINE
  8
0
 62
4
 10
3.00970733E+01
 20
4.27615410E+01
 11
3.00970733E+01
 21
2.29115563E+01
  0
LINE
  8
0
 62
4
 10
2.10970733E+01
 20
4.27615410E+01
 11
2.10970733E+01
 21
2.29115563E+01
  0
LINE
  8
0
 62
4
 10
3.80970733E+01
 20
4.48615410E+01
 11
4.10970733E+01
 21
4.41615410E+01
  0
LINE
  8
0
 62
4
 10
3.80970733E+01
 20
4.08615410E+01
 11
4.10970733E+01
 21
4.15615410E+01
  0
LINE
  8
0
 62
4
 10
3.80970733E+01
 20
4.48615410E+01
 11
3.80970733E+01
 21
4.08615410E+01
  0
LINE
  8
0
 62
6
 10
4.60340724E+01
 20
4.41615410E+01
 11
4.34340724E+01
 21
4.15615410E+01
  0
LINE
  8
0
 62
4
 10
4.10970733E+01
 20
4.15615410E+01
 11
4.34340724E+01
 21
4.15615410E+01
  0
LINE
  8
0
 62
4
 10
4.10970733E+01
 20
4.41615410E+01
 11
4.10970733E+01
 21
4.15615410E+01
  0
LINE
  8
0
 62
4
 10
4.10970733E+01
 20
4.41615410E+01
 11
4.60340724E+01
 21
4.41615410E+01
  0
LINE
  8
0
 62
4
 10
-7.39292674E+00
 20
4.48615410E+01
 11
-1.89292674E+00
 21
4.48615410E+01
  0
LINE
  8
0
 62
4
 10
-7.39292674E+00
 20
4.08615410E+01
 11
-1.89292674E+00
 21
4.08615410E+01
  0
LINE
  8
0
 62
4
 10
-2.13929267E+01
 20
4.26615410E+01
 11
-2.13929267E+01
 21
3.95934232E+01
  0
LINE
  8
0
 62
4
 10
-7.39292674E+00
 20
4.26615410E+01
 11
-7.39292674E+00
 21
3.95934232E+01
  0
LINE
  8
0
 62
4
 10
-1.88929267E+01
 20
4.30615410E+01
 11
-9.89292674E+00
 21
4.30615410E+01
  0
LINE
  8
0
 62
4
 10
-2.13929267E+01
 20
3.95934232E+01
 11
-1.88929267E+01
 21
3.95934232E+01
  0
LINE
  8
0
 62
4
 10
-7.39292676E+00
 20
3.95934232E+01
 11
-9.89292676E+00
 21
3.95934232E+01
  0
LINE
  8
0
 62
4
 10
-9.89292674E+00
 20
4.26615410E+01
 11
-7.39292674E+00
 21
4.26615410E+01
  0
LINE
  8
0
 62
4
 10
-9.89292674E+00
 20
4.30615410E+01
 11
-7.39292674E+00
 21
4.30615410E+01
  0
LINE
  8
0
 62
4
 10
-9.89292674E+00
 20
4.58615410E+01
 11
-7.39292674E+00
 21
4.58615410E+01
  0
LINE
  8
0
 62
4
 10
-2.13929267E+01
 20
4.26615410E+01
 11
-1.88929267E+01
 21
4.26615410E+01
  0
LINE
  8
0
 62
4
 10
-2.13929267E+01
 20
4.30615410E+01
 11
-1.88929267E+01
 21
4.30615410E+01
  0
LINE
  8
0
 62
4
 10
-2.13929267E+01
 20
4.58615410E+01
 11
-1.88929267E+01
 21
4.58615410E+01
  0
LINE
  8
0
 62
4
 10
-1.88929267E+01
 20
2.29115563E+01
 11
-9.89292674E+00
 21
2.29115563E+01
  0
LINE
  8
0
 62
4
 10
-7.39292674E+00
 20
4.58615410E+01
 11
-7.39292674E+00
 21
4.30615410E+01
  0
LINE
  8
0
 62
4
 10
-2.13929267E+01
 20
4.58615410E+01
 11
-2.13929267E+01
 21
4.30615410E+01
  0
LINE
  8
0
 62
4
 10
-2.68929267E+01
 20
4.38615410E+01
 11
-2.58929267E+01
 21
4.48615410E+01
  0
LINE
  8
0
 62
4
 10
-2.68929267E+01
 20
4.38615410E+01
 11
-2.68929267E+01
 21
4.18615410E+01
  0
LINE
  8
0
 62
4
 10
-2.58929267E+01
 20
4.08615410E+01
 11
-2.13929267E+01
 21
4.08615410E+01
  0
LINE
  8
0
 62
4
 10
-2.58929267E+01
 20
4.48615410E+01
 11
-2.13929267E+01
 21
4.48615410E+01
  0
LINE
  8
0
 62
4
 10
-2.68929267E+01
 20
4.18615410E+01
 11
-2.58929267E+01
 21
4.08615410E+01
  0
LINE
  8
0
 62
4
 10
-2.58929267E+01
 20
4.48615410E+01
 11
-2.58929267E+01
 21
4.08615410E+01
  0
LINE
  8
0
 62
4
 10
-9.89292674E+00
 20
4.27615410E+01
 11
-9.89292674E+00
 21
2.29115563E+01
  0
LINE
  8
0
 62
4
 10
-1.88929267E+01
 20
4.27615410E+01
 11
-1.88929267E+01
 21
2.29115563E+01
  0
LINE
  8
0
 62
4
 10
-1.89292674E+00
 20
4.48615410E+01
 11
1.10707326E+00
 21
4.41615410E+01
  0
LINE
  8
0
 62
4
 10
-1.89292674E+00
 20
4.08615410E+01
 11
1.10707325E+00
 21
4.15615410E+01
  0
LINE
  8
0
 62
4
 10
-1.89292674E+00
 20
4.48615410E+01
 11
-1.89292674E+00
 21
4.08615410E+01
  0
LINE
  8
0
 62
6
 10
6.04407234E+00
 20
4.41615410E+01
 11
3.44407234E+00
 21
4.15615410E+01
  0
LINE
  8
0
 62
4
 10
1.10707325E+00
 20
4.15615410E+01
 11
3.44407234E+00
 21
4.15615410E+01
  0
LINE
  8
0
 62
4
 10
1.10707326E+00
 20
4.41615410E+01
 11
1.10707326E+00
 21
4.15615410E+01
  0
LINE
  8
0
 62
4
 10
1.10707325E+00
 20
4.41615410E+01
 11
6.04407234E+00
 21
4.41615410E+01
  0
LINE
  8
0
 62
2
 10
5.33970733E+01
 20
3.36285410E+01
 11
6.77300733E+01
 21
3.36285410E+01
  0
LINE
  8
0
 62
2
 10
5.33970733E+01
 20
2.94945410E+01
 11
6.77300733E+01
 21
2.94945410E+01
  0
CIRCLE
  8
0
 62
7
 10
4.05970733E+01
 20
3.15615410E+01
 40
2.06700000E+00
  0
CIRCLE
  8
0
 62
2
 10
4.05912450E+01
 20
3.15615425E+01
 40
2.50000000E+00
  0
LINE
  8
0
 62
7
 10
-2.98929267E+01
 20
3.15615410E+01
 11
-2.98929267E+01
 21
2.30615410E+01
  0
LINE
  8
0
 62
7
 10
-4.13929267E+01
 20
2.30615410E+01
 11
-1.88929267E+01
 21
2.30615410E+01
  0
LINE
  8
0
 62
7
 10
-3.96429267E+01
 20
2.73115410E+01
 11
-3.16429267E+01
 21
2.73115410E+01
  0
LINE
  8
0
 62
7
 10
-3.96429267E+01
 20
2.73115410E+01
 11
-3.96429267E+01
 21
2.30615410E+01
  0
LINE
  8
0
 62
7
 10
-3.16429267E+01
 20
2.73115410E+01
 11
-3.16429267E+01
 21
2.30615410E+01
  0
LINE
  8
0
 62
7
 10
4.80970733E+01
 20
4.00615410E+01
 11
4.80970733E+01
 21
2.30615410E+01
  0
LINE
  8
0
 62
7
 10
5.33970733E+01
 20
2.90615410E+01
 11
6.72970733E+01
 21
2.90615410E+01
  0
LINE
  8
0
 62
7
 10
4.93970733E+01
 20
3.78115410E+01
 11
4.93970733E+01
 21
2.53115410E+01
  0
LINE
  8
0
 62
7
 10
4.80970733E+01
 20
2.53115410E+01
 11
4.93970733E+01
 21
2.53115410E+01
  0
LINE
  8
0
 62
7
 10
4.80970733E+01
 20
3.78115410E+01
 11
4.93970733E+01
 21
3.78115410E+01
  0
LINE
  8
0
 62
7
 10
6.80970733E+01
 20
3.32615410E+01
 11
6.80970733E+01
 21
2.98615410E+01
  0
LINE
  8
0
 62
7
 10
6.72970733E+01
 20
3.40615410E+01
 11
6.80970733E+01
 21
3.32615410E+01
  0
LINE
  8
0
 62
7
 10
6.72970733E+01
 20
2.90615410E+01
 11
6.80970733E+01
 21
2.98615410E+01
  0
LINE
  8
0
 62
7
 10
6.72970733E+01
 20
3.40615410E+01
 11
6.72970733E+01
 21
2.90615410E+01
  0
LINE
  8
0
 62
4
 10
5.28970733E+01
 20
3.60615410E+01
 11
4.98970733E+01
 21
3.60615410E+01
  0
LINE
  8
0
 62
4
 10
5.33970733E+01
 20
3.49415410E+01
 11
5.33970733E+01
 21
2.81715410E+01
  0
LINE
  8
0
 62
4
 10
5.28970733E+01
 20
3.38315410E+01
 11
4.98970733E+01
 21
3.38315410E+01
  0
LINE
  8
0
 62
4
 10
5.28970733E+01
 20
2.92815410E+01
 11
4.98970733E+01
 21
2.92815410E+01
  0
LINE
  8
0
 62
4
 10
5.28970733E+01
 20
2.70615410E+01
 11
4.98970733E+01
 21
2.70615410E+01
  0
LINE
  8
0
 62
7
 10
5.33970733E+01
 20
3.40615410E+01
 11
6.72970733E+01
 21
3.40615410E+01
  0
LINE
  8
0
 62
7
 10
4.63470733E+01
 20
2.73115410E+01
 11
3.78470733E+01
 21
2.73115410E+01
  0
LINE
  8
0
 62
7
 10
3.78470733E+01
 20
2.73115410E+01
 11
3.78470733E+01
 21
2.30615410E+01
  0
LINE
  8
0
 62
7
 10
4.63470733E+01
 20
2.73115410E+01
 11
4.63470733E+01
 21
2.30615410E+01
  0
LINE
  8
0
 62
7
 10
-2.98929267E+01
 20
3.15615410E+01
 11
-2.98929267E+01
 21
4.00615410E+01
  0
LINE
  8
0
 62
7
 10
-4.13929267E+01
 20
2.30615410E+01
 11
-4.13929267E+01
 21
4.00615410E+01
  0
LINE
  8
0
 62
7
 10
3.60970733E+01
 20
2.30615410E+01
 11
3.60970733E+01
 21
4.00615410E+01
  0
LINE
  8
0
 62
7
 10
-4.13929267E+01
 20
4.00615410E+01
 11
-2.13929267E+01
 21
4.00615410E+01
  0
LINE
  8
0
 62
7
 10
-3.96429267E+01
 20
3.58015410E+01
 11
-3.16429267E+01
 21
3.58015410E+01
  0
LINE
  8
0
 62
7
 10
-3.96429267E+01
 20
3.58015410E+01
 11
-3.96429267E+01
 21
4.00615410E+01
  0
LINE
  8
0
 62
7
 10
-3.16429267E+01
 20
3.58015410E+01
 11
-3.16429267E+01
 21
4.00615410E+01
  0
LINE
  8
0
 62
7
 10
4.63470733E+01
 20
3.58015410E+01
 11
3.78470733E+01
 21
3.58015410E+01
  0
LINE
  8
0
 62
7
 10
3.78470733E+01
 20
3.58015410E+01
 11
3.78470733E+01
 21
4.00615410E+01
  0
LINE
  8
0
 62
7
 10
4.63470733E+01
 20
3.58015410E+01
 11
4.63470733E+01
 21
4.00615410E+01
  0
LINE
  8
0
  6
CENTER
 62
2
 10
-3.38929267E+01
 20
3.58015410E+01
 11
-3.38929267E+01
 21
2.73115410E+01
  0
LINE
  8
0
  6
CENTER
 62
2
 10
4.05970733E+01
 20
3.58015410E+01
 11
4.05970733E+01
 21
2.73115410E+01
  0
ARC
  8
0
 62
7
 10
-3.53774616E+01
 20
3.15532031E+01
 40
6.01547095E+00
 50
1.79920584E+02
 51
2.24839686E+02
  0
ARC
  8
0
 62
7
 10
-3.59183673E+01
 20
3.15573106E+01
 40
6.02544205E+00
 50
3.15199504E+02
 51
4.02263448E-02
  0
ARC
  8
0
 62
4
 10
5.19090613E+01
 20
3.49488571E+01
 40
1.48802991E+00
 50
3.59718296E+02
 51
4.83964026E+01
  0
ARC
  8
0
 62
4
 10
4.79913802E+01
 20
3.15609258E+01
 40
5.40569308E+00
 50
3.35078500E+02
 51
2.48372050E+01
  0
ARC
  8
0
 62
4
 10
5.19084609E+01
 20
3.49444745E+01
 40
1.48861527E+00
 50
3.11614500E+02
 51
3.59887091E+02
  0
ARC
  8
0
 62
4
 10
5.08920218E+01
 20
3.49457604E+01
 40
1.49495454E+00
 50
1.31723588E+02
 51
1.80161713E+02
  0
ARC
  8
0
 62
4
 10
5.48107155E+01
 20
3.15591748E+01
 40
5.41364276E+00
 50
1.55181316E+02
 51
2.04880124E+02
  0
ARC
  8
0
 62
4
 10
5.19090487E+01
 20
2.81742097E+01
 40
1.48802700E+00
 50
3.11604350E+02
 51
3.59897241E+02
  0
ARC
  8
0
 62
4
 10
5.19121980E+01
 20
2.81702908E+01
 40
1.48487583E+00
 50
4.82380199E-02
 51
4.84501708E+01
  0
ARC
  8
0
 62
4
 10
5.08888790E+01
 20
2.81671690E+01
 40
1.49181218E+00
 50
1.31669505E+02
 51
1.79832086E+02
  0
ARC
  8
0
 62
4
 10
5.08920137E+01
 20
2.81773250E+01
 40
1.49495164E+00
 50
1.80221679E+02
 51
2.28276730E+02
  0
ARC
  8
0
 62
7
 10
4.20837034E+01
 20
3.15607515E+01
 40
6.01336993E+00
 50
3.15095303E+02
 51
4.48478674E+01
  0
ARC
  8
0
 62
4
 10
5.08926002E+01
 20
3.49475891E+01
 40
1.49553916E+00
 50
1.80231713E+02
 51
2.28266696E+02
  0
ARC
  8
0
 62
7
 10
-3.59148426E+01
 20
3.15572243E+01
 40
6.02191737E+00
 50
4.10711680E-02
 51
4.48143182E+01
  0
ARC
  8
0
 62
7
 10
4.21175603E+01
 20
3.15578140E+01
 40
6.02048817E+00
 50
1.35180079E+02
 51
2.24837103E+02
  0
ARC
  8
0
 62
7
 10
-3.53809853E+01
 20
3.15613411E+01
 40
6.01194142E+00
 50
1.35146516E+02
 51
1.79998095E+02
  0
CIRCLE
  8
0
 62
7
 10
-3.38929267E+01
 20
3.15615410E+01
 40
2.06700000E+00
  0
LINE
  8
0
 62
2
 10
-4.33629267E+01
 20
2.73735410E+01
 11
-4.28929267E+01
 21
2.73735410E+01
  0
LINE
  8
0
 62
2
 10
-4.33629267E+01
 20
3.57495410E+01
 11
-4.28929267E+01
 21
3.57495410E+01
  0
LINE
  8
0
 62
2
 10
-4.92049267E+01
 20
2.73735410E+01
 11
-4.73629267E+01
 21
2.73735410E+01
  0
LINE
  8
0
 62
2
 10
-4.92049267E+01
 20
3.57495410E+01
 11
-4.73629267E+01
 21
3.57495410E+01
  0
LINE
  8
0
 62
2
 10
-6.14229267E+01
 20
2.94945410E+01
 11
-5.43929267E+01
 21
2.94945410E+01
  0
LINE
  8
0
 62
2
 10
-6.14229267E+01
 20
3.36285410E+01
 11
-5.43929267E+01
 21
3.36285410E+01
  0
LINE
  8
0
 62
2
 10
-6.93259267E+01
 20
3.36285410E+01
 11
-6.54229267E+01
 21
3.36285410E+01
  0
LINE
  8
0
 62
2
 10
-6.93259267E+01
 20
2.94945410E+01
 11
-6.54229267E+01
 21
2.94945410E+01
  0
LINE
  8
0
 62
7
 10
-4.93929267E+01
 20
3.55615410E+01
 11
-4.93929267E+01
 21
2.75615410E+01
  0
LINE
  8
0
 62
7
 10
-4.83929267E+01
 20
2.65615410E+01
 11
-4.73629267E+01
 21
2.65615410E+01
  0
LINE
  8
0
 62
7
 10
-4.83929267E+01
 20
3.65615410E+01
 11
-4.73629267E+01
 21
3.65615410E+01
  0
LINE
  8
0
 62
7
 10
-4.93929267E+01
 20
3.55615410E+01
 11
-4.83929267E+01
 21
3.65615410E+01
  0
LINE
  8
0
 62
7
 10
-4.93929267E+01
 20
2.75615410E+01
 11
-4.83929267E+01
 21
2.65615410E+01
  0
LINE
  8
0
  6
CENTER
 62
2
 10
-7.28029267E+01
 20
3.15615410E+01
 11
6.97125621E+01
 21
3.15615410E+01
  0
LINE
  8
0
 62
7
 10
-4.28929267E+01
 20
3.65615410E+01
 11
-4.28929267E+01
 21
2.65615410E+01
  0
LINE
  8
0
 62
7
 10
-4.83929267E+01
 20
3.65615410E+01
 11
-4.83929267E+01
 21
2.65615410E+01
  0
LINE
  8
0
 62
7
 10
-6.88929267E+01
 20
3.40615410E+01
 11
-6.54229267E+01
 21
3.40615410E+01
  0
LINE
  8
0
 62
7
 10
-6.88929267E+01
 20
2.90615410E+01
 11
-6.54229267E+01
 21
2.90615410E+01
  0
LINE
  8
0
 62
7
 10
-6.93929267E+01
 20
3.35615410E+01
 11
-6.93929267E+01
 21
2.95615410E+01
  0
LINE
  8
0
 62
7
 10
-5.43929267E+01
 20
3.40615410E+01
 11
-5.43929267E+01
 21
2.90615410E+01
  0
LINE
  8
0
 62
7
 10
-6.93929267E+01
 20
3.35615410E+01
 11
-6.88929267E+01
 21
3.40615410E+01
  0
LINE
  8
0
 62
7
 10
-6.93929267E+01
 20
2.95615410E+01
 11
-6.88929267E+01
 21
2.90615410E+01
  0
LINE
  8
0
 62
7
 10
-6.88929267E+01
 20
3.40615410E+01
 11
-6.88929267E+01
 21
2.90615410E+01
  0
LINE
  8
0
 62
4
 10
-6.54229267E+01
 20
3.49515410E+01
 11
-6.54229267E+01
 21
2.81815410E+01
  0
LINE
  8
0
 62
4
 10
-6.14229267E+01
 20
3.49515410E+01
 11
-6.14229267E+01
 21
2.81815410E+01
  0
LINE
  8
0
 62
4
 10
-6.49229267E+01
 20
2.70615410E+01
 11
-6.19229267E+01
 21
2.70615410E+01
  0
LINE
  8
0
 62
4
 10
-6.49229267E+01
 20
3.60615410E+01
 11
-6.19229267E+01
 21
3.60615410E+01
  0
LINE
  8
0
 62
7
 10
-6.14229267E+01
 20
2.90615410E+01
 11
-4.93929267E+01
 21
2.90615410E+01
  0
LINE
  8
0
 62
7
 10
-6.14229267E+01
 20
3.40615410E+01
 11
-4.93929267E+01
 21
3.40615410E+01
  0
LINE
  8
0
 62
7
 10
-4.33629267E+01
 20
3.65615410E+01
 11
-4.13929267E+01
 21
3.65615410E+01
  0
LINE
  8
0
 62
7
 10
-4.33629267E+01
 20
2.65615410E+01
 11
-4.13929267E+01
 21
2.65615410E+01
  0
LINE
  8
0
 62
4
 10
-6.49229267E+01
 20
3.38415410E+01
 11
-6.19229267E+01
 21
3.38415410E+01
  0
LINE
  8
0
 62
4
 10
-6.49229267E+01
 20
2.92915410E+01
 11
-6.19229267E+01
 21
2.92915410E+01
  0
LINE
  8
0
 62
4
 10
-4.69629267E+01
 20
3.95615410E+01
 11
-4.37629267E+01
 21
3.95615410E+01
  0
LINE
  8
0
 62
4
 10
-4.69629267E+01
 20
3.55415410E+01
 11
-4.37629267E+01
 21
3.55415410E+01
  0
LINE
  8
0
 62
4
 10
-4.73629267E+01
 20
3.75515410E+01
 11
-4.73629267E+01
 21
2.55815410E+01
  0
LINE
  8
0
 62
4
 10
-4.69629267E+01
 20
2.75915410E+01
 11
-4.37629267E+01
 21
2.75915410E+01
  0
LINE
  8
0
 62
4
 10
-4.69629267E+01
 20
2.35615410E+01
 11
-4.37629267E+01
 21
2.35615410E+01
  0
LINE
  8
0
 62
4
 10
-4.33629267E+01
 20
3.75515410E+01
 11
-4.33629267E+01
 21
2.55815410E+01
  0
CIRCLE
  8
0
 62
2
 10
-3.38987550E+01
 20
3.15615425E+01
 40
2.50000000E+00
  0
ARC
  8
0
 62
4
 10
-6.00196385E+01
 20
3.15714339E+01
 40
5.40329733E+00
 50
1.55156974E+02
 51
1.80104903E+02
  0
ARC
  8
0
 62
4
 10
-6.00217339E+01
 20
3.15611649E+01
 40
5.40119281E+00
 50
1.79996011E+02
 51
2.04847715E+02
  0
ARC
  8
0
 62
4
 10
-6.39382328E+01
 20
2.81803725E+01
 40
1.48469438E+00
 50
1.31546682E+02
 51
1.79954909E+02
  0
ARC
  8
0
 62
4
 10
-6.39388472E+01
 20
2.81724693E+01
 40
1.48410722E+00
 50
1.79649775E+02
 51
2.28464923E+02
  0
ARC
  8
0
 62
4
 10
-6.39419804E+01
 20
3.49510213E+01
 40
1.48094647E+00
 50
1.79979895E+02
 51
2.28518513E+02
  0
ARC
  8
0
 62
4
 10
-6.39388221E+01
 20
3.49506380E+01
 40
1.48410487E+00
 50
1.31536451E+02
 51
1.79965140E+02
  0
ARC
  8
0
 62
4
 10
-6.68431668E+01
 20
3.15677164E+01
 40
5.42024357E+00
 50
3.59934721E+02
 51
2.48034017E+01
  0
ARC
  8
0
 62
4
 10
-6.29186666E+01
 20
3.49576850E+01
 40
1.49575246E+00
 50
3.11736944E+02
 51
3.59764647E+02
  0
ARC
  8
0
 62
4
 10
-6.68410710E+01
 20
3.15648987E+01
 40
5.41814532E+00
 50
3.35191782E+02
 51
3.59964492E+02
  0
ARC
  8
0
 62
4
 10
-6.29223771E+01
 20
2.81737255E+01
 40
1.49947071E+00
 50
2.98635695E-01
 51
4.81997731E+01
  0
ARC
  8
0
 62
4
 10
-6.29218129E+01
 20
2.81790794E+01
 40
1.49888818E+00
 50
3.11791208E+02
 51
9.40935745E-02
  0
ARC
  8
0
 62
4
 10
-6.29217936E+01
 20
3.49439883E+01
 40
1.49888586E+00
 50
2.88704672E-01
 51
4.82097042E+01
  0
ARC
  8
0
 62
4
 10
-4.86301553E+01
 20
2.55781373E+01
 40
5.26722966E+00
 50
3.70246508E-02
 51
2.24731834E+01
  0
ARC
  8
0
 62
4
 10
-2.74136485E+01
 20
3.15666889E+01
 40
1.99492789E+01
 50
1.68507018E+02
 51
1.80014785E+02
  0
ARC
  8
0
 62
4
 10
-4.21058915E+01
 20
3.75529162E+01
 40
5.25703545E+00
 50
1.80014988E+02
 51
2.02495220E+02
  0
ARC
  8
0
 62
4
 10
-4.21049805E+01
 20
3.75499845E+01
 40
5.25794651E+00
 50
1.57506753E+02
 51
1.79983039E+02
  0
ARC
  8
0
 62
4
 10
-4.86291523E+01
 20
3.75483369E+01
 40
5.26622655E+00
 50
3.48600779E-02
 51
2.24753479E+01
  0
ARC
  8
0
 62
4
 10
-4.86282427E+01
 20
3.75545641E+01
 40
5.26531686E+00
 50
3.37522688E+02
 51
3.59967104E+02
  0
ARC
  8
0
 62
4
 10
-4.21049846E+01
 20
2.55731137E+01
 40
5.25794885E+00
 50
1.79908168E+02
 51
2.02493428E+02
  0
ARC
  8
0
 62
4
 10
-4.86291513E+01
 20
2.55747537E+01
 40
5.26622888E+00
 50
3.37524561E+02
 51
7.38440165E-02
  0
ARC
  8
0
 62
4
 10
-4.21039759E+01
 20
2.55797846E+01
 40
5.25895115E+00
 50
1.57508928E+02
 51
1.79980864E+02
  0
ARC
  8
0
 62
4
 10
-2.74146444E+01
 20
3.15662923E+01
 40
1.99482829E+01
 50
1.80013647E+02
 51
1.91493268E+02
  0
ARC
  8
0
 62
4
 10
-6.33197300E+01
 20
3.15671509E+01
 40
1.99568041E+01
 50
3.48509191E+02
 51
3.59983894E+02
  0
ARC
  8
0
 62
4
 10
-6.33207259E+01
 20
3.15658325E+01
 40
1.99577996E+01
 50
3.59987680E+02
 51
1.14905173E+01
  0
ARC
  8
0
 62
4
 10
-1.58921353E+01
 20
5.10607495E+01
 40
1.00079180E+00
 50
9.00000002E+01
 51
1.79954687E+02
  0
ARC
  8
0
 62
4
 10
-1.28945924E+01
 20
5.10598753E+01
 40
1.00166704E+00
 50
9.52762946E-02
 51
8.99047236E+01
  0
ARC
  8
0
 62
4
 10
2.40978648E+01
 20
5.10607495E+01
 40
1.00079180E+00
 50
9.00000002E+01
 51
1.79954687E+02
  0
ARC
  8
0
 62
4
 10
2.70954076E+01
 20
5.10598753E+01
 40
1.00166704E+00
 50
9.52762946E-02
 51
8.99047236E+01
  0
LINE
  8
0
 62
6
 10
2.43670733E+01
 20
5.05615410E+01
 11
2.43670733E+01
 21
4.95615410E+01
  0
LINE
  8
0
 62
6
 10
2.68270733E+01
 20
5.05615410E+01
 11
2.68270733E+01
 21
4.95615410E+01
  0
LINE
  8
0
 62
4
 10
2.40970733E+01
 20
5.05615410E+01
 11
2.40970733E+01
 21
4.95615410E+01
  0
LINE
  8
0
 62
4
 10
2.70970733E+01
 20
5.05615410E+01
 11
2.70970733E+01
 21
4.95615410E+01
  0
LINE
  8
0
 62
4
 10
2.30970733E+01
 20
5.05615410E+01
 11
2.80970733E+01
 21
5.05615410E+01
  0
LINE
  8
0
 62
4
 10
2.10970733E+01
 20
4.95615410E+01
 11
3.00970733E+01
 21
4.95615410E+01
  0
LINE
  8
0
 62
4
 10
2.80970733E+01
 20
5.10615410E+01
 11
2.80970733E+01
 21
5.05615410E+01
  0
LINE
  8
0
 62
4
 10
2.30970733E+01
 20
5.10615410E+01
 11
2.30970733E+01
 21
5.05615410E+01
  0
LINE
  8
0
 62
6
 10
-1.56229267E+01
 20
5.05615410E+01
 11
-1.56229267E+01
 21
4.95615410E+01
  0
LINE
  8
0
 62
6
 10
-1.31629267E+01
 20
5.05615410E+01
 11
-1.31629267E+01
 21
4.95615410E+01
  0
LINE
  8
0
 62
4
 10
-1.58929267E+01
 20
5.05615410E+01
 11
-1.58929267E+01
 21
4.95615410E+01
  0
LINE
  8
0
 62
4
 10
-1.28929267E+01
 20
5.05615410E+01
 11
-1.28929267E+01
 21
4.95615410E+01
  0
LINE
  8
0
 62
4
 10
-1.68929267E+01
 20
5.05615410E+01
 11
-1.18929267E+01
 21
5.05615410E+01
  0
LINE
  8
0
 62
4
 10
-1.88929267E+01
 20
4.95615410E+01
 11
-9.89292674E+00
 21
4.95615410E+01
  0
LINE
  8
0
 62
4
 10
-1.18929267E+01
 20
5.10615410E+01
 11
-1.18929267E+01
 21
5.05615410E+01
  0
LINE
  8
0
 62
4
 10
-1.68929267E+01
 20
5.10615410E+01
 11
-1.68929267E+01
 21
5.05615410E+01
  0
LINE
  8
0
 62
4
 10
2.40970733E+01
 20
5.20615410E+01
 11
2.70970733E+01
 21
5.20615410E+01
  0
LINE
  8
0
 62
4
 10
-1.58929267E+01
 20
5.20615410E+01
 11
-1.28929267E+01
 21
5.20615410E+01
  0
TEXT
  8
0
 62
7
 10
-7.72886424E+00
 20
2.41615563E+01
 40
1.50000000E+00
  1
PBDAES16
 41
1.00000000E+00
  7
MONOTXT
  0
LINE
  8
0
 62
4
 10
-9.82029267E+01
 20
4.18615410E+01
 11
-9.72029267E+01
 21
4.08615410E+01
  0
LINE
  8
0
 62
4
 10
-9.82029267E+01
 20
4.38615410E+01
 11
-9.72029267E+01
 21
4.48615410E+01
  0
LINE
  8
0
 62
4
 10
-1.01302927E+02
 20
4.08615410E+01
 11
-1.00302927E+02
 21
4.18615410E+01
  0
LINE
  8
0
 62
4
 10
-1.01302927E+02
 20
4.48615410E+01
 11
-1.00302927E+02
 21
4.38615410E+01
  0
LINE
  8
0
 62
4
 10
-9.82029267E+01
 20
4.38615410E+01
 11
-9.82029267E+01
 21
4.18615410E+01
  0
LINE
  8
0
 62
4
 10
-1.00302927E+02
 20
4.38615410E+01
 11
-1.00302927E+02
 21
4.18615410E+01
  0
LINE
  8
0
 62
4
 10
-9.82029267E+01
 20
4.18615410E+01
 11
-1.00302927E+02
 21
4.18615410E+01
  0
LINE
  8
0
 62
4
 10
-9.82029267E+01
 20
4.38615410E+01
 11
-1.00302927E+02
 21
4.38615410E+01
  0
ARC
  8
0
 62
4
 10
-9.92529267E+01
 20
3.15615410E+01
 40
8.65000000E+00
 50
1.69314255E+02
 51
1.90685745E+02
  0
ARC
  8
0
 62
4
 10
-9.92529267E+01
 20
3.15615410E+01
 40
8.65000000E+00
 50
2.59314255E+02
 51
2.80685745E+02
  0
LINE
  8
0
 62
4
 10
-9.77529267E+01
 20
4.68615410E+01
 11
-9.80529267E+01
 21
4.65615410E+01
  0
LINE
  8
0
 62
4
 10
-1.00752927E+02
 20
4.68615410E+01
 11
-1.00452927E+02
 21
4.65615410E+01
  0
LINE
  8
0
 62
4
 10
-9.77529267E+01
 20
4.68615410E+01
 11
-9.80529267E+01
 21
4.65615410E+01
  0
LINE
  8
0
 62
4
 10
-1.00752927E+02
 20
4.68615410E+01
 11
-1.00452927E+02
 21
4.65615410E+01
  0
LINE
  8
0
 62
4
 10
-9.82529267E+01
 20
4.05615410E+01
 11
-1.00252927E+02
 21
4.05615410E+01
  0
LINE
  8
0
 62
4
 10
-1.06159318E+02
 20
3.82811024E+01
 11
-1.06634658E+02
 21
3.84361894E+01
  0
LINE
  8
0
 62
4
 10
-1.04918623E+02
 20
4.20838217E+01
 11
-1.04776021E+02
 21
4.20372956E+01
  0
LINE
  8
0
 62
4
 10
-1.04177927E+02
 20
4.59660450E+01
 11
-1.06634658E+02
 21
3.84361894E+01
  0
LINE
  8
0
 62
4
 10
-1.04776035E+02
 20
4.20372508E+01
 11
-1.06016980E+02
 21
3.82337671E+01
  0
LINE
  8
0
 62
4
 10
-1.03677927E+02
 20
4.58865410E+01
 11
-1.06256987E+02
 21
3.79817490E+01
  0
LINE
  8
0
 62
4
 10
-9.57529267E+01
 20
4.30615410E+01
 11
-9.36079130E+01
 21
3.92065603E+01
  0
LINE
  8
0
 62
4
 10
-9.59029267E+01
 20
4.30615410E+01
 11
-9.38741897E+01
 21
3.93961876E+01
  0
ARC
  8
0
 62
4
 10
-9.92529267E+01
 20
3.15615410E+01
 40
8.65000000E+00
 50
3.49314255E+02
 51
1.06857449E+01
  0
ARC
  8
0
 62
4
 10
-9.92529267E+01
 20
3.15615410E+01
 40
8.50000000E+00
 50
1.61930287E+02
 51
2.89640969E+01
  0
LINE
  8
0
 62
4
 10
-9.57529267E+01
 20
4.95615410E+01
 11
-1.02752927E+02
 21
4.95615410E+01
  0
LINE
  8
0
 62
4
 10
-1.02752927E+02
 20
4.82615410E+01
 11
-1.02752927E+02
 21
4.23615410E+01
  0
LINE
  8
0
 62
4
 10
-9.57529267E+01
 20
4.82615410E+01
 11
-9.57529267E+01
 21
4.30615410E+01
  0
LINE
  8
0
 62
4
 10
-1.03552927E+02
 20
4.45593187E+01
 11
-1.04022445E+02
 21
4.48305960E+01
  0
LINE
  8
0
 62
4
 10
-1.04252927E+02
 20
4.78615410E+01
 11
-1.04252927E+02
 21
4.61765410E+01
  0
LINE
  8
0
 62
4
 10
-1.04252927E+02
 20
4.78615410E+01
 11
-1.05052927E+02
 21
4.78615410E+01
  0
LINE
  8
0
 62
4
 10
-1.01537927E+02
 20
4.87615410E+01
 11
-1.01397927E+02
 21
4.79615410E+01
  0
LINE
  8
0
 62
4
 10
-9.69679267E+01
 20
4.87615410E+01
 11
-9.71079267E+01
 21
4.79615410E+01
  0
LINE
  8
0
 62
4
 10
-9.71079267E+01
 20
4.79615410E+01
 11
-1.01397927E+02
 21
4.79615410E+01
  0
LINE
  8
0
 62
6
 10
-1.00482927E+02
 20
5.00615410E+01
 11
-1.00482927E+02
 21
4.95615410E+01
  0
LINE
  8
0
 62
6
 10
-9.80229267E+01
 20
5.00615410E+01
 11
-9.80229267E+01
 21
4.95615410E+01
  0
LINE
  8
0
 62
4
 10
-9.49529267E+01
 20
4.87615410E+01
 11
-9.49529267E+01
 21
4.30615410E+01
  0
LINE
  8
0
 62
4
 10
-1.03552927E+02
 20
4.23615410E+01
 11
-1.03552927E+02
 21
4.87615410E+01
  0
LINE
  8
0
 62
4
 10
-9.62529267E+01
 20
4.87615410E+01
 11
-1.02252927E+02
 21
4.87615410E+01
  0
LINE
  8
0
 62
4
 10
-1.05052927E+02
 20
4.78615410E+01
 11
-1.05052927E+02
 21
4.57165410E+01
  0
LINE
  8
0
 62
4
 10
-1.03552927E+02
 20
4.54855410E+01
 11
-1.03767032E+02
 21
4.56097217E+01
  0
LINE
  8
0
 62
4
 10
-9.59029267E+01
 20
4.82615410E+01
 11
-9.59029267E+01
 21
4.30615410E+01
  0
LINE
  8
0
 62
4
 10
-9.57529267E+01
 20
4.82615410E+01
 11
-9.59029267E+01
 21
4.82615410E+01
  0
LINE
  8
0
 62
4
 10
-9.60029267E+01
 20
4.65615410E+01
 11
-1.02502927E+02
 21
4.65615410E+01
  0
LINE
  8
0
 62
4
 10
-9.60029267E+01
 20
4.58615410E+01
 11
-1.02502927E+02
 21
4.58615410E+01
  0
LINE
  8
0
 62
4
 10
-1.03677927E+02
 20
4.83865410E+01
 11
-1.03677927E+02
 21
4.58865410E+01
  0
LINE
  8
0
 62
4
 10
-1.04177927E+02
 20
4.83865410E+01
 11
-1.04177927E+02
 21
4.59660450E+01
  0
LINE
  8
0
 62
4
 10
-1.03677927E+02
 20
4.83865410E+01
 11
-1.04177927E+02
 21
4.83865410E+01
  0
LINE
  8
0
 62
4
 10
-1.00752927E+02
 20
5.05615410E+01
 11
-1.00752927E+02
 21
4.95615410E+01
  0
LINE
  8
0
 62
4
 10
-9.77529267E+01
 20
5.05615410E+01
 11
-9.77529267E+01
 21
4.95615410E+01
  0
LINE
  8
0
 62
4
 10
-9.49529267E+01
 20
4.30615410E+01
 11
-9.57529267E+01
 21
4.30615410E+01
  0
LINE
  8
0
 62
4
 10
-1.02752927E+02
 20
4.23615410E+01
 11
-1.03552927E+02
 21
4.23615410E+01
  0
LINE
  8
0
 62
4
 10
-9.67529267E+01
 20
5.05615410E+01
 11
-1.01752927E+02
 21
5.05615410E+01
  0
LINE
  8
0
 62
4
 10
-9.77529267E+01
 20
5.20615410E+01
 11
-1.00752927E+02
 21
5.20615410E+01
  0
LINE
  8
0
 62
4
 10
-9.67529267E+01
 20
5.10615410E+01
 11
-9.67529267E+01
 21
5.05615410E+01
  0
LINE
  8
0
 62
4
 10
-1.01752927E+02
 20
5.10615410E+01
 11
-1.01752927E+02
 21
5.05615410E+01
  0
LINE
  8
0
 62
4
 10
-9.77529267E+01
 20
5.00615410E+01
 11
-1.00752927E+02
 21
5.00615410E+01
  0
ARC
  8
0
 62
4
 10
-9.57529300E+01
 20
4.87615377E+01
 40
8.00003254E-01
 50
2.33015759E-04
 51
9.00000002E+01
  0
ARC
  8
0
 62
4
 10
-1.02754589E+02
 20
4.87632036E+01
 40
7.98339134E-01
 50
8.98806771E+01
 51
1.80119323E+02
  0
ARC
  8
0
 62
4
 10
-9.62529310E+01
 20
4.82615367E+01
 40
5.00004290E-01
 50
4.91607912E-04
 51
9.00000002E+01
  0
ARC
  8
0
 62
4
 10
-1.02254589E+02
 20
4.82632036E+01
 40
4.98340176E-01
 50
8.98088454E+01
 51
1.80191155E+02
  0
ARC
  8
0
 62
4
 10
-1.04552723E+02
 20
4.57146753E+01
 40
5.00207143E-01
 50
1.79786293E+02
 51
2.39986760E+02
  0
ARC
  8
0
 62
4
 10
-1.03754075E+02
 20
4.61788967E+01
 40
4.98857363E-01
 50
1.80270562E+02
 51
2.09445368E+02
  0
ARC
  8
0
 62
4
 10
-1.00754339E+02
 20
5.10629533E+01
 40
9.98588677E-01
 50
8.99189656E+01
 51
1.80081034E+02
  0
ARC
  8
0
 62
4
 10
-9.77531795E+01
 20
5.10612882E+01
 40
1.00025280E+00
 50
1.44788446E-02
 51
9.00000002E+01
  0
LINE
  8
0
 62
4
 10
-1.02502927E+02
 20
4.65615410E+01
 11
-1.02502927E+02
 21
4.00615410E+01
  0
LINE
  8
0
 62
4
 10
-9.60029267E+01
 20
4.26615410E+01
 11
-9.60029267E+01
 21
4.00615410E+01
  0
LINE
  8
0
 62
4
 10
-9.60029267E+01
 20
4.26615410E+01
 11
-9.72029267E+01
 21
4.26615410E+01
  0
LINE
  8
0
 62
4
 10
-9.60029267E+01
 20
4.30615410E+01
 11
-9.72029267E+01
 21
4.30615410E+01
  0
LINE
  8
0
 62
4
 10
-9.60029267E+01
 20
4.65615410E+01
 11
-9.60029267E+01
 21
4.30615410E+01
  0
LINE
  8
0
 62
4
 10
-9.72029267E+01
 20
4.08615410E+01
 11
-1.01302927E+02
 21
4.08615410E+01
  0
LINE
  8
0
 62
4
 10
-9.72029267E+01
 20
4.48615410E+01
 11
-1.01302927E+02
 21
4.48615410E+01
  0
LINE
  8
0
 62
4
 10
-9.82529267E+01
 20
4.51615410E+01
 11
-1.00252927E+02
 21
4.51615410E+01
  0
LINE
  8
0
 62
4
 10
-9.82529267E+01
 20
4.51615410E+01
 11
-9.82529267E+01
 21
4.48615410E+01
  0
LINE
  8
0
 62
4
 10
-9.82529267E+01
 20
4.08615410E+01
 11
-9.82529267E+01
 21
4.05615410E+01
  0
LINE
  8
0
 62
4
 10
-9.72029267E+01
 20
4.48615410E+01
 11
-9.72029267E+01
 21
4.08615410E+01
  0
LINE
  8
0
 62
4
 10
-1.01302927E+02
 20
4.48615410E+01
 11
-1.01302927E+02
 21
4.08615410E+01
  0
LINE
  8
0
 62
4
 10
-1.00252927E+02
 20
4.51615410E+01
 11
-1.00252927E+02
 21
4.48615410E+01
  0
LINE
  8
0
 62
4
 10
-1.00252927E+02
 20
4.08615410E+01
 11
-1.00252927E+02
 21
4.05615410E+01
  0
LINE
  8
0
 62
4
 10
-9.77529267E+01
 20
4.79615410E+01
 11
-9.77529267E+01
 21
4.68615410E+01
  0
LINE
  8
0
 62
4
 10
-1.00752927E+02
 20
4.79615410E+01
 11
-1.00752927E+02
 21
4.68615410E+01
  0
LINE
  8
0
 62
6
 10
-9.80229267E+01
 20
4.79615410E+01
 11
-9.80229267E+01
 21
4.65915410E+01
  0
LINE
  8
0
 62
6
 10
-1.00482927E+02
 20
4.79615410E+01
 11
-1.00482927E+02
 21
4.65915410E+01
  0
LINE
  8
0
 62
4
 10
-1.04464965E+02
 20
4.50862745E+01
 11
-1.04802927E+02
 21
4.52815410E+01
  0
ARC
  8
0
 62
2
 10
-9.92529267E+01
 20
3.15615410E+01
 40
4.18800000E+00
 50
4.27674369E+01
 51
7.72325633E+01
  0
ARC
  8
0
 62
2
 10
-9.92529267E+01
 20
3.15615410E+01
 40
4.18800000E+00
 50
3.42767437E+02
 51
1.72325634E+01
  0
ARC
  8
0
 62
2
 10
-9.92529267E+01
 20
3.15615410E+01
 40
4.18800000E+00
 50
2.82767437E+02
 51
3.17232564E+02
  0
ARC
  8
0
 62
2
 10
-9.92529267E+01
 20
3.15615410E+01
 40
4.18800000E+00
 50
2.22767437E+02
 51
2.57232563E+02
  0
ARC
  8
0
 62
2
 10
-9.92529267E+01
 20
3.15615410E+01
 40
4.18800000E+00
 50
1.62767437E+02
 51
1.97232563E+02
  0
ARC
  8
0
 62
2
 10
-9.92529267E+01
 20
3.15615410E+01
 40
4.18800000E+00
 50
1.02767437E+02
 51
1.37232563E+02
  0
CIRCLE
  8
0
 62
7
 10
-9.92529267E+01
 20
3.15615410E+01
 40
5.00000000E+00
  0
LINE
  8
0
 62
4
 10
-9.92529267E+01
 20
3.96444463E+01
 11
-9.22529254E+01
 21
3.56029936E+01
  0
LINE
  8
0
 62
4
 10
-9.22529254E+01
 20
3.56029936E+01
 11
-9.22529254E+01
 21
2.75200883E+01
  0
LINE
  8
0
 62
4
 10
-9.22529254E+01
 20
2.75200883E+01
 11
-9.92529268E+01
 21
2.34786357E+01
  0
LINE
  8
0
 62
4
 10
-9.92529268E+01
 20
2.34786357E+01
 11
-1.06252928E+02
 21
2.75200883E+01
  0
LINE
  8
0
 62
4
 10
-1.06252928E+02
 20
2.75200883E+01
 11
-1.06252928E+02
 21
3.56029936E+01
  0
LINE
  8
0
 62
4
 10
-1.06252928E+02
 20
3.56029936E+01
 11
-9.92529267E+01
 21
3.96444463E+01
  0
LINE
  8
0
 62
4
 10
-1.03252928E+02
 20
2.92521391E+01
 11
-1.03252928E+02
 21
3.38709428E+01
  0
LINE
  8
0
 62
4
 10
-9.92529268E+01
 20
2.69427373E+01
 11
-1.03252928E+02
 21
2.92521391E+01
  0
LINE
  8
0
 62
4
 10
-9.52529254E+01
 20
2.92521391E+01
 11
-9.92529268E+01
 21
2.69427373E+01
  0
LINE
  8
0
 62
4
 10
-9.52529254E+01
 20
3.38709428E+01
 11
-9.52529254E+01
 21
2.92521391E+01
  0
LINE
  8
0
 62
4
 10
-9.92529267E+01
 20
3.61803446E+01
 11
-9.52529254E+01
 21
3.38709428E+01
  0
LINE
  8
0
 62
4
 10
-1.03252928E+02
 20
3.38709428E+01
 11
-9.92529267E+01
 21
3.61803447E+01
  0
CIRCLE
  8
0
 62
2
 10
-9.92529267E+01
 20
3.15615410E+01
 40
2.06700000E+00
  0
LINE
  8
0
 62
7
 10
-9.07529267E+01
 20
3.58115410E+01
 11
-9.07529267E+01
 21
2.73215410E+01
  0
LINE
  8
0
 62
7
 10
-1.07752927E+02
 20
3.58115410E+01
 11
-1.07752927E+02
 21
2.73215410E+01
  0
LINE
  8
0
 62
7
 10
-1.03492927E+02
 20
2.30615410E+01
 11
-9.50029267E+01
 21
2.30615410E+01
  0
LINE
  8
0
 62
7
 10
-1.03492927E+02
 20
4.00615410E+01
 11
-9.50029267E+01
 21
4.00615410E+01
  0
LINE
  8
0
  6
CENTER
 62
2
 10
-9.92529267E+01
 20
5.41316020E+01
 11
-9.92529267E+01
 21
2.11115824E+01
  0
LINE
  8
0
  6
CENTER
 62
2
 10
-1.09684190E+02
 20
3.15615410E+01
 11
-8.83902933E+01
 21
3.15615410E+01
  0
CIRCLE
  8
0
 62
7
 10
-9.92529267E+01
 20
3.15615425E+01
 40
2.50000000E+00
  0
CIRCLE
  8
0
 62
7
 10
-9.92529267E+01
 20
3.15615425E+01
 40
8.50000000E+00
  0
ARC
  8
0
 62
7
 10
-9.92529260E+01
 20
3.15615417E+01
 40
9.50328788E+00
 50
2.65650491E+01
 51
6.34349507E+01
  0
ARC
  8
0
 62
7
 10
-9.92579199E+01
 20
3.15565576E+01
 40
9.50105392E+00
 50
1.16470741E+02
 51
1.53394604E+02
  0
ARC
  8
0
 62
7
 10
-9.92529260E+01
 20
3.15615417E+01
 40
9.49882200E+00
 50
2.06511102E+02
 51
2.43488897E+02
  0
ARC
  8
0
 62
7
 10
-9.92579116E+01
 20
3.15565494E+01
 40
9.50105596E+00
 50
2.96605401E+02
 51
3.33529254E+02
  0
CIRCLE
  8
0
 62
4
 10
-9.92529267E+01
 20
3.15615425E+01
 40
7.00000000E+00
  0
CIRCLE
  8
0
 62
4
 10
-9.92529267E+01
 20
3.15615425E+01
 40
4.00000000E+00
  0
ARC
  8
0
 62
4
 10
9.47470733E+01
 20
3.15615410E+01
 40
8.65000000E+00
 50
3.49314255E+02
 51
1.06857449E+01
  0
ARC
  8
0
 62
4
 10
9.47470733E+01
 20
3.15615410E+01
 40
8.65000000E+00
 50
2.59314255E+02
 51
2.80685745E+02
  0
LINE
  8
0
 62
4
 10
9.32470733E+01
 20
4.68615410E+01
 11
9.35470733E+01
 21
4.65615410E+01
  0
LINE
  8
0
 62
4
 10
9.62470733E+01
 20
4.68615410E+01
 11
9.59470733E+01
 21
4.65615410E+01
  0
LINE
  8
0
 62
4
 10
9.32470733E+01
 20
4.68615410E+01
 11
9.35470733E+01
 21
4.65615410E+01
  0
LINE
  8
0
 62
4
 10
9.62470733E+01
 20
4.68615410E+01
 11
9.59470733E+01
 21
4.65615410E+01
  0
LINE
  8
0
 62
4
 10
9.37470733E+01
 20
4.05615410E+01
 11
9.57470733E+01
 21
4.05615410E+01
  0
LINE
  8
0
 62
4
 10
9.34470733E+01
 20
4.15615410E+01
 11
9.60470733E+01
 21
4.15615410E+01
  0
LINE
  8
0
 62
4
 10
9.34470733E+01
 20
4.15615410E+01
 11
9.26970733E+01
 21
4.08615410E+01
  0
LINE
  8
0
 62
4
 10
1.01653465E+02
 20
3.82811024E+01
 11
1.02128805E+02
 21
3.84361894E+01
  0
LINE
  8
0
 62
4
 10
1.00412769E+02
 20
4.20838217E+01
 11
1.00270167E+02
 21
4.20372956E+01
  0
LINE
  8
0
 62
4
 10
9.96720733E+01
 20
4.59660450E+01
 11
1.02128805E+02
 21
3.84361894E+01
  0
LINE
  8
0
 62
4
 10
1.00270182E+02
 20
4.20372508E+01
 11
1.01512714E+02
 21
3.82289021E+01
  0
LINE
  8
0
 62
4
 10
9.91720733E+01
 20
4.58865410E+01
 11
1.01753042E+02
 21
3.79759005E+01
  0
LINE
  8
0
 62
4
 10
9.12470733E+01
 20
4.30615410E+01
 11
8.91006703E+01
 21
3.92040637E+01
  0
LINE
  8
0
 62
4
 10
9.13970733E+01
 20
4.30615410E+01
 11
8.93673148E+01
 21
3.93943423E+01
  0
ARC
  8
0
 62
4
 10
9.47470733E+01
 20
3.15615410E+01
 40
8.65000000E+00
 50
1.69314255E+02
 51
1.90685745E+02
  0
CIRCLE
  8
0
 62
4
 10
9.47470733E+01
 20
4.28615410E+01
 40
1.30000000E+00
  0
LINE
  8
0
 62
4
 10
9.12470733E+01
 20
4.95615410E+01
 11
9.82470733E+01
 21
4.95615410E+01
  0
LINE
  8
0
 62
4
 10
9.82470733E+01
 20
4.82615410E+01
 11
9.82470733E+01
 21
4.23615410E+01
  0
LINE
  8
0
 62
4
 10
9.12470733E+01
 20
4.82615410E+01
 11
9.12470733E+01
 21
4.30615410E+01
  0
LINE
  8
0
 62
4
 10
9.90470733E+01
 20
4.45593187E+01
 11
9.95165916E+01
 21
4.48305960E+01
  0
LINE
  8
0
 62
4
 10
9.97470733E+01
 20
4.78615410E+01
 11
9.97470733E+01
 21
4.61765410E+01
  0
LINE
  8
0
 62
4
 10
9.97470733E+01
 20
4.78615410E+01
 11
1.00547073E+02
 21
4.78615410E+01
  0
LINE
  8
0
 62
4
 10
9.70320733E+01
 20
4.87615410E+01
 11
9.68920733E+01
 21
4.79615410E+01
  0
LINE
  8
0
 62
4
 10
9.24620733E+01
 20
4.87615410E+01
 11
9.26020733E+01
 21
4.79615410E+01
  0
LINE
  8
0
 62
4
 10
9.26020733E+01
 20
4.79615410E+01
 11
9.68920733E+01
 21
4.79615410E+01
  0
LINE
  8
0
 62
6
 10
9.59770733E+01
 20
5.00615410E+01
 11
9.59770733E+01
 21
4.95615410E+01
  0
LINE
  8
0
 62
6
 10
9.35170733E+01
 20
5.00615410E+01
 11
9.35170733E+01
 21
4.95615410E+01
  0
LINE
  8
0
 62
4
 10
9.04470733E+01
 20
4.87615410E+01
 11
9.04470733E+01
 21
4.30615410E+01
  0
LINE
  8
0
 62
4
 10
9.90470733E+01
 20
4.23615410E+01
 11
9.90470733E+01
 21
4.87615410E+01
  0
LINE
  8
0
 62
4
 10
9.17470733E+01
 20
4.87615410E+01
 11
9.77470733E+01
 21
4.87615410E+01
  0
LINE
  8
0
 62
4
 10
1.00547073E+02
 20
4.78615410E+01
 11
1.00547073E+02
 21
4.57165410E+01
  0
LINE
  8
0
 62
4
 10
9.90470733E+01
 20
4.54855410E+01
 11
9.92611780E+01
 21
4.56097217E+01
  0
LINE
  8
0
 62
4
 10
9.13970733E+01
 20
4.82615410E+01
 11
9.13970733E+01
 21
4.30615410E+01
  0
LINE
  8
0
 62
4
 10
9.12470733E+01
 20
4.82615410E+01
 11
9.13970733E+01
 21
4.82615410E+01
  0
LINE
  8
0
 62
4
 10
9.14970733E+01
 20
4.65615410E+01
 11
9.79970733E+01
 21
4.65615410E+01
  0
LINE
  8
0
 62
4
 10
9.14970733E+01
 20
4.58615410E+01
 11
9.79970733E+01
 21
4.58615410E+01
  0
LINE
  8
0
 62
4
 10
9.91720733E+01
 20
4.83865410E+01
 11
9.91720733E+01
 21
4.58865410E+01
  0
LINE
  8
0
 62
4
 10
9.96720733E+01
 20
4.83865410E+01
 11
9.96720733E+01
 21
4.59660450E+01
  0
LINE
  8
0
 62
4
 10
9.91720733E+01
 20
4.83865410E+01
 11
9.96720733E+01
 21
4.83865410E+01
  0
LINE
  8
0
 62
4
 10
9.62470733E+01
 20
5.05615410E+01
 11
9.62470733E+01
 21
4.95615410E+01
  0
LINE
  8
0
 62
4
 10
9.32470733E+01
 20
5.05615410E+01
 11
9.32470733E+01
 21
4.95615410E+01
  0
LINE
  8
0
 62
4
 10
9.04470733E+01
 20
4.30615410E+01
 11
9.12470733E+01
 21
4.30615410E+01
  0
LINE
  8
0
 62
4
 10
9.82470733E+01
 20
4.23615410E+01
 11
9.90470733E+01
 21
4.23615410E+01
  0
LINE
  8
0
 62
4
 10
9.22470733E+01
 20
5.05615410E+01
 11
9.72470733E+01
 21
5.05615410E+01
  0
LINE
  8
0
 62
4
 10
9.32470733E+01
 20
5.20615410E+01
 11
9.62470733E+01
 21
5.20615410E+01
  0
LINE
  8
0
 62
4
 10
9.22470733E+01
 20
5.10615410E+01
 11
9.22470733E+01
 21
5.05615410E+01
  0
LINE
  8
0
 62
4
 10
9.72470733E+01
 20
5.10615410E+01
 11
9.72470733E+01
 21
5.05615410E+01
  0
LINE
  8
0
 62
4
 10
9.32470733E+01
 20
5.00615410E+01
 11
9.62470733E+01
 21
5.00615410E+01
  0
ARC
  8
0
 62
4
 10
9.12470765E+01
 20
4.87615377E+01
 40
8.00003254E-01
 50
9.00000002E+01
 51
1.79999767E+02
  0
ARC
  8
0
 62
4
 10
9.82487359E+01
 20
4.87632036E+01
 40
7.98339134E-01
 50
3.59880678E+02
 51
9.01193227E+01
  0
ARC
  8
0
 62
4
 10
9.17470775E+01
 20
4.82615367E+01
 40
5.00004290E-01
 50
9.00000002E+01
 51
1.79999508E+02
  0
ARC
  8
0
 62
4
 10
9.77487359E+01
 20
4.82632036E+01
 40
4.98340176E-01
 50
3.59808845E+02
 51
9.01911544E+01
  0
ARC
  8
0
 62
4
 10
1.00046870E+02
 20
4.57146753E+01
 40
5.00207143E-01
 50
3.00013240E+02
 51
2.13706628E-01
  0
ARC
  8
0
 62
4
 10
9.92482215E+01
 20
4.61788967E+01
 40
4.98857363E-01
 50
3.30554632E+02
 51
3.59729437E+02
  0
ARC
  8
0
 62
4
 10
9.62484856E+01
 20
5.10629533E+01
 40
9.98588677E-01
 50
3.59918966E+02
 51
9.00810348E+01
  0
ARC
  8
0
 62
4
 10
9.32473260E+01
 20
5.10612882E+01
 40
1.00025280E+00
 50
9.00000002E+01
 51
1.79985521E+02
  0
LINE
  8
0
 62
4
 10
9.79970733E+01
 20
4.65615410E+01
 11
9.79970733E+01
 21
4.00615410E+01
  0
LINE
  8
0
 62
4
 10
9.14970733E+01
 20
4.26615410E+01
 11
9.14970733E+01
 21
4.00615410E+01
  0
LINE
  8
0
 62
4
 10
9.14970733E+01
 20
4.26615410E+01
 11
9.26970733E+01
 21
4.26615410E+01
  0
LINE
  8
0
 62
4
 10
9.14970733E+01
 20
4.30615410E+01
 11
9.26970733E+01
 21
4.30615410E+01
  0
LINE
  8
0
 62
4
 10
9.14970733E+01
 20
4.65615410E+01
 11
9.14970733E+01
 21
4.30615410E+01
  0
LINE
  8
0
 62
4
 10
9.26970733E+01
 20
4.08615410E+01
 11
9.67970733E+01
 21
4.08615410E+01
  0
LINE
  8
0
 62
4
 10
9.26970733E+01
 20
4.48615410E+01
 11
9.67970733E+01
 21
4.48615410E+01
  0
LINE
  8
0
 62
4
 10
9.37470733E+01
 20
4.51615410E+01
 11
9.57470733E+01
 21
4.51615410E+01
  0
LINE
  8
0
 62
4
 10
9.34470733E+01
 20
4.41615410E+01
 11
9.60470733E+01
 21
4.41615410E+01
  0
LINE
  8
0
 62
4
 10
9.37470733E+01
 20
4.51615410E+01
 11
9.37470733E+01
 21
4.48615410E+01
  0
LINE
  8
0
 62
4
 10
9.37470733E+01
 20
4.08615410E+01
 11
9.37470733E+01
 21
4.05615410E+01
  0
LINE
  8
0
 62
4
 10
9.26970733E+01
 20
4.48615410E+01
 11
9.26970733E+01
 21
4.08615410E+01
  0
LINE
  8
0
 62
4
 10
9.34470733E+01
 20
4.41615410E+01
 11
9.34470733E+01
 21
4.15615410E+01
  0
LINE
  8
0
 62
4
 10
9.26970733E+01
 20
4.48615410E+01
 11
9.34470733E+01
 21
4.41615410E+01
  0
LINE
  8
0
 62
4
 10
9.67970733E+01
 20
4.48615410E+01
 11
9.67970733E+01
 21
4.08615410E+01
  0
LINE
  8
0
 62
4
 10
9.57470733E+01
 20
4.51615410E+01
 11
9.57470733E+01
 21
4.48615410E+01
  0
LINE
  8
0
 62
4
 10
9.57470733E+01
 20
4.08615410E+01
 11
9.57470733E+01
 21
4.05615410E+01
  0
LINE
  8
0
 62
4
 10
9.60470733E+01
 20
4.41615410E+01
 11
9.60470733E+01
 21
4.15615410E+01
  0
LINE
  8
0
 62
4
 10
9.60470733E+01
 20
4.41615410E+01
 11
9.67970733E+01
 21
4.48615410E+01
  0
LINE
  8
0
 62
4
 10
9.60470733E+01
 20
4.15615410E+01
 11
9.67970733E+01
 21
4.08615410E+01
  0
LINE
  8
0
 62
4
 10
9.32470733E+01
 20
4.79615410E+01
 11
9.32470733E+01
 21
4.68615410E+01
  0
LINE
  8
0
 62
4
 10
9.62470733E+01
 20
4.79615410E+01
 11
9.62470733E+01
 21
4.68615410E+01
  0
LINE
  8
0
 62
6
 10
9.35170733E+01
 20
4.79615410E+01
 11
9.35170733E+01
 21
4.65915410E+01
  0
LINE
  8
0
 62
6
 10
9.59770733E+01
 20
4.79615410E+01
 11
9.59770733E+01
 21
4.65915410E+01
  0
LINE
  8
0
 62
4
 10
9.99591120E+01
 20
4.50862745E+01
 11
1.00297073E+02
 21
4.52815410E+01
  0
CIRCLE
  8
0
 62
2
 10
9.47470733E+01
 20
3.15615410E+01
 40
2.06700000E+00
  0
LINE
  8
0
 62
7
 10
8.62470733E+01
 20
3.58015410E+01
 11
8.62470733E+01
 21
2.73115410E+01
  0
LINE
  8
0
 62
7
 10
1.03247073E+02
 20
3.58015410E+01
 11
1.03247073E+02
 21
2.73115410E+01
  0
LINE
  8
0
 62
7
 10
9.04970733E+01
 20
2.30615410E+01
 11
9.89870733E+01
 21
2.30615410E+01
  0
LINE
  8
0
 62
7
 10
9.04970733E+01
 20
4.00615410E+01
 11
9.89870733E+01
 21
4.00615410E+01
  0
LINE
  8
0
  6
CENTER
 62
2
 10
8.38370733E+01
 20
3.15615410E+01
 11
1.05707073E+02
 21
3.15615410E+01
  0
LINE
  8
0
  6
CENTER
 62
2
 10
9.47470733E+01
 20
5.36916937E+01
 11
9.47470733E+01
 21
2.07199880E+01
  0
LINE
  8
0
 62
4
 10
9.47470733E+01
 20
2.69515410E+01
 11
9.87470733E+01
 21
2.92515410E+01
  0
LINE
  8
0
 62
4
 10
9.07470733E+01
 20
3.38615410E+01
 11
9.47470733E+01
 21
3.61715410E+01
  0
LINE
  8
0
 62
4
 10
9.07470733E+01
 20
3.38615410E+01
 11
9.07470733E+01
 21
2.92515410E+01
  0
LINE
  8
0
 62
4
 10
9.87470733E+01
 20
3.38615410E+01
 11
9.87470733E+01
 21
2.92515410E+01
  0
LINE
  8
0
 62
4
 10
9.07470733E+01
 20
2.92515410E+01
 11
9.47470733E+01
 21
2.69515410E+01
  0
LINE
  8
0
 62
4
 10
9.47470733E+01
 20
3.61715410E+01
 11
9.87470733E+01
 21
3.38615410E+01
  0
CIRCLE
  8
0
 62
7
 10
9.47470733E+01
 20
3.15615425E+01
 40
2.50000000E+00
  0
CIRCLE
  8
0
 62
7
 10
9.47470733E+01
 20
3.15615425E+01
 40
6.25000000E+00
  0
CIRCLE
  8
0
 62
7
 10
9.47470733E+01
 20
3.15615425E+01
 40
8.50000000E+00
  0
CIRCLE
  8
0
 62
4
 10
9.47470733E+01
 20
3.15615425E+01
 40
4.00000000E+00
  0
ARC
  8
0
 62
7
 10
9.47470740E+01
 20
3.15615417E+01
 40
9.49881996E+00
 50
2.65110983E+01
 51
6.34889015E+01
  0
ARC
  8
0
 62
7
 10
9.47520566E+01
 20
3.15665341E+01
 40
9.50105392E+00
 50
1.16605396E+02
 51
1.53529259E+02
  0
ARC
  8
0
 62
7
 10
9.47470740E+01
 20
3.15615417E+01
 40
9.50328993E+00
 50
2.06565053E+02
 51
2.43434947E+02
  0
ARC
  8
0
 62
7
 10
9.47520648E+01
 20
3.15665259E+01
 40
9.50105597E+00
 50
2.96470746E+02
 51
3.33394600E+02
  0
LINE
  8
0
  6
CENTER
 62
6
 10
-1.43929267E+01
 20
8.48715396E+01
 11
-1.43929267E+01
 21
6.48715410E+01
  0
LINE
  8
0
 62
4
 10
-1.88929267E+01
 20
6.62215410E+01
 11
-9.89292674E+00
 21
6.62215410E+01
  0
LINE
  8
0
 62
4
 10
-2.68929267E+01
 20
7.58715410E+01
 11
-2.58929267E+01
 21
7.68715410E+01
  0
LINE
  8
0
 62
4
 10
-2.13929267E+01
 20
7.16215410E+01
 11
-2.13929267E+01
 21
7.81215410E+01
  0
LINE
  8
0
 62
4
 10
-2.58929267E+01
 20
7.68715410E+01
 11
-2.58929267E+01
 21
7.28715410E+01
  0
LINE
  8
0
 62
4
 10
-2.58929267E+01
 20
7.68715410E+01
 11
-2.13929267E+01
 21
7.68715410E+01
  0
LINE
  8
0
 62
4
 10
-2.13929267E+01
 20
7.81215410E+01
 11
-1.88929267E+01
 21
7.81215410E+01
  0
LINE
  8
0
 62
4
 10
-2.68929267E+01
 20
7.58715410E+01
 11
-2.68929267E+01
 21
7.38715410E+01
  0
LINE
  8
0
 62
4
 10
-2.68929267E+01
 20
7.38715410E+01
 11
-2.58929267E+01
 21
7.28715410E+01
  0
LINE
  8
0
 62
4
 10
-2.58929267E+01
 20
7.28715410E+01
 11
-2.13929267E+01
 21
7.28715410E+01
  0
LINE
  8
0
 62
4
 10
-2.13929267E+01
 20
7.16215410E+01
 11
-1.88929267E+01
 21
7.16215410E+01
  0
CIRCLE
  8
0
 62
4
 10
-1.43938020E+01
 20
7.48690825E+01
 40
2.50000000E+00
  0
LINE
  8
0
 62
4
 10
-1.54554933E+01
 20
7.38089744E+01
 11
-1.33354933E+01
 21
7.59289744E+01
  0
LINE
  8
0
 62
4
 10
-1.33854933E+01
 20
7.38689744E+01
 11
-1.54554933E+01
 21
7.59289744E+01
  0
LINE
  8
0
 62
4
 10
-1.63929267E+01
 20
7.97965410E+01
 11
-1.63929267E+01
 21
8.06715410E+01
  0
LINE
  8
0
 62
4
 10
-9.89292674E+00
 20
7.16215410E+01
 11
-7.39292674E+00
 21
7.16215410E+01
  0
LINE
  8
0
 62
4
 10
-7.39292674E+00
 20
7.28715410E+01
 11
-1.89292674E+00
 21
7.28715410E+01
  0
LINE
  8
0
 62
4
 10
-7.39292674E+00
 20
7.68715410E+01
 11
-1.89292674E+00
 21
7.68715410E+01
  0
LINE
  8
0
 62
4
 10
-7.39292674E+00
 20
7.16215410E+01
 11
-7.39292674E+00
 21
7.81215410E+01
  0
LINE
  8
0
 62
4
 10
-9.89292674E+00
 20
7.81215410E+01
 11
-7.39292674E+00
 21
7.81215410E+01
  0
LINE
  8
0
 62
4
 10
-1.89292674E+00
 20
7.68715410E+01
 11
-1.89292674E+00
 21
7.28715410E+01
  0
LINE
  8
0
 62
4
 10
-1.89292674E+00
 20
7.68715410E+01
 11
1.10707326E+00
 21
7.61715410E+01
  0
LINE
  8
0
 62
4
 10
1.10707325E+00
 20
7.61715410E+01
 11
6.04407234E+00
 21
7.61715410E+01
  0
LINE
  8
0
 62
4
 10
1.10707326E+00
 20
7.61715410E+01
 11
1.10707326E+00
 21
7.35715410E+01
  0
LINE
  8
0
 62
4
 10
-1.89292674E+00
 20
7.28715410E+01
 11
1.10707325E+00
 21
7.35715410E+01
  0
LINE
  8
0
 62
4
 10
1.10707325E+00
 20
7.35715410E+01
 11
3.44407234E+00
 21
7.35715410E+01
  0
LINE
  8
0
 62
6
 10
6.04407234E+00
 20
7.61715410E+01
 11
3.44407234E+00
 21
7.35715410E+01
  0
LINE
  8
0
 62
4
 10
-1.88929267E+01
 20
7.05715410E+01
 11
-9.89292674E+00
 21
7.05715410E+01
  0
LINE
  8
0
 62
4
 10
-1.23929267E+01
 20
8.06715410E+01
 11
-1.23929267E+01
 21
7.97965410E+01
  0
LINE
  8
0
 62
4
 10
-1.88929267E+01
 20
8.35215410E+01
 11
-9.89292674E+00
 21
8.35215410E+01
  0
LINE
  8
0
 62
4
 10
-1.63929267E+01
 20
7.98715410E+01
 11
-1.23929267E+01
 21
7.98715410E+01
  0
LINE
  8
0
 62
4
 10
-1.63929267E+01
 20
8.06715410E+01
 11
-1.23929267E+01
 21
8.06715410E+01
  0
LINE
  8
0
 62
4
 10
-1.88929267E+01
 20
8.22465410E+01
 11
-9.89292674E+00
 21
8.22465410E+01
  0
LINE
  8
0
 62
4
 10
-1.88929267E+01
 20
7.92965410E+01
 11
-9.89292671E+00
 21
7.92965410E+01
  0
LINE
  8
0
 62
4
 10
-1.88929267E+01
 20
7.97965410E+01
 11
-9.89292671E+00
 21
7.97965410E+01
  0
LINE
  8
0
 62
4
 10
-1.88929267E+01
 20
7.91715410E+01
 11
-9.89292671E+00
 21
7.91715410E+01
  0
LINE
  8
0
  6
CENTER
 62
6
 10
-2.86191315E+01
 20
7.48715410E+01
 11
7.85012360E+00
 21
7.48715410E+01
  0
LINE
  8
0
 62
4
 10
-9.89292674E+00
 20
6.62215410E+01
 11
-9.89292674E+00
 21
8.35215410E+01
  0
LINE
  8
0
 62
4
 10
-1.88929267E+01
 20
6.62215410E+01
 11
-1.88929267E+01
 21
8.35215410E+01
  0
LINE
  8
0
  6
CENTER
 62
6
 10
-8.92261717E+01
 20
-5.24135345E+01
 11
-8.92261717E+01
 21
-5.87276730E+01
  0
LINE
  8
0
  6
CENTER
 62
6
 10
-1.18426172E+02
 20
-5.24135345E+01
 11
-1.18426172E+02
 21
-5.87276730E+01
  0
LINE
  8
0
 62
4
 10
-1.24826172E+02
 20
-5.69681146E+01
 11
-8.28261717E+01
 21
-5.69681146E+01
  0
LINE
  8
0
 62
4
 10
-8.28261717E+01
 20
-5.46681146E+01
 11
-8.28261717E+01
 21
-5.69681146E+01
  0
LINE
  8
0
 62
4
 10
-1.24826172E+02
 20
-5.46681146E+01
 11
-1.24826172E+02
 21
-5.69681146E+01
  0
LINE
  8
0
  6
CENTER
 62
6
 10
-1.03826172E+02
 20
-3.45694057E+01
 11
-1.03826172E+02
 21
-5.12438515E+01
  0
LINE
  8
0
  6
CENTER
 62
6
 10
-1.11326172E+02
 20
-4.29681146E+01
 11
-9.63261717E+01
 21
-4.29681146E+01
  0
CIRCLE
  8
0
 62
4
 10
-1.03826172E+02
 20
-4.29681146E+01
 40
5.00000000E+00
  0
LINE
  8
0
 62
4
 10
-1.24826172E+02
 20
-5.46681146E+01
 11
-8.28261717E+01
 21
-5.46681146E+01
  0
LINE
  8
0
 62
4
 10
-8.28261717E+01
 20
-5.46681146E+01
 11
-9.83974808E+01
 21
-3.55526218E+01
  0
LINE
  8
0
 62
4
 10
-1.24826172E+02
 20
-5.46681146E+01
 11
-1.09254863E+02
 21
-3.55526218E+01
  0
ARC
  8
0
 62
4
 10
-1.03826172E+02
 20
-3.99617614E+01
 40
6.99364672E+00
 50
3.91659515E+01
 51
1.40834049E+02
  0
LINE
  8
0
  6
CENTER
 62
6
 10
-7.09261717E+01
 20
-5.24135345E+01
 11
-7.09261717E+01
 21
-5.87276730E+01
  0
LINE
  8
0
 62
4
 10
-7.35261717E+01
 20
-5.46681146E+01
 11
-7.35261717E+01
 21
-5.69681146E+01
  0
LINE
  8
0
 62
4
 10
-6.83261717E+01
 20
-5.46681146E+01
 11
-6.83261717E+01
 21
-5.69681146E+01
  0
LINE
  8
0
 62
4
 10
-6.19261717E+01
 20
-3.29681146E+01
 11
-6.19261717E+01
 21
-5.43699293E+01
  0
LINE
  8
0
 62
4
 10
-6.42261717E+01
 20
-3.29681146E+01
 11
-6.19261717E+01
 21
-3.29681146E+01
  0
LINE
  8
0
 62
4
 10
-7.69261717E+01
 20
-5.69681146E+01
 11
-6.45261717E+01
 21
-5.69681146E+01
  0
LINE
  8
0
 62
4
 10
-7.69261717E+01
 20
-5.46681146E+01
 11
-7.69261717E+01
 21
-5.69681146E+01
  0
ARC
  8
0
 62
4
 10
-6.45243570E+01
 20
-5.43699293E+01
 40
2.59818600E+00
 50
2.69959983E+02
 51
4.00167584E-02
  0
LINE
  8
0
  6
CENTER
 62
6
 10
-6.67743385E+01
 20
-4.29681146E+01
 11
-5.94261717E+01
 21
-4.29681146E+01
  0
LINE
  8
0
 62
4
 10
-6.42261717E+01
 20
-3.29681146E+01
 11
-6.42261717E+01
 21
-5.34699297E+01
  0
LINE
  8
0
 62
4
 10
-7.69261717E+01
 20
-5.46681146E+01
 11
-6.54243566E+01
 21
-5.46681146E+01
  0
ARC
  8
0
 62
4
 10
-6.54243566E+01
 20
-5.34699297E+01
 40
1.19818493E+00
 50
2.69895815E+02
 51
1.04185117E-01
  0
LINE
  8
0
 62
4
 10
-1.24826172E+02
 20
-5.36811464E+00
 11
-8.28261717E+01
 21
-5.36811464E+00
  0
LINE
  8
0
 62
4
 10
-8.28261717E+01
 20
-3.06811464E+00
 11
-8.28261717E+01
 21
-9.46811464E+00
  0
LINE
  8
0
 62
4
 10
-1.24826172E+02
 20
-3.06811464E+00
 11
-8.28261717E+01
 21
-3.06811464E+00
  0
LINE
  8
0
 62
4
 10
-1.24826172E+02
 20
-1.80681146E+01
 11
-8.28261717E+01
 21
-1.80681146E+01
  0
LINE
  8
0
  6
CENTER
 62
6
 10
-1.03826172E+02
 20
-1.67811464E+00
 11
-1.03826172E+02
 21
-1.93081146E+01
  0
LINE
  8
0
  6
CENTER
 62
6
 10
-1.21729136E+02
 20
-1.20681146E+01
 11
-8.63915487E+01
 21
-1.20681146E+01
  0
LINE
  8
0
 62
4
 10
-8.28261717E+01
 20
-1.46681146E+01
 11
-8.28261717E+01
 21
-1.80681146E+01
  0
ARC
  8
0
 62
4
 10
-8.92261717E+01
 20
-1.20681146E+01
 40
2.60000000E+00
 50
9.00000002E+01
 51
2.70000000E+02
  0
LINE
  8
0
  6
CENTER
 62
6
 10
-8.92261717E+01
 20
-1.57410843E+01
 11
-8.92261717E+01
 21
-8.52157025E+00
  0
LINE
  8
0
 62
4
 10
-8.92261717E+01
 20
-1.46681146E+01
 11
-8.28261717E+01
 21
-1.46681146E+01
  0
LINE
  8
0
 62
4
 10
-8.92261717E+01
 20
-9.46811464E+00
 11
-8.28261717E+01
 21
-9.46811464E+00
  0
ARC
  8
0
 62
4
 10
-1.18426172E+02
 20
-1.20681146E+01
 40
2.60000000E+00
 50
2.70000000E+02
 51
9.00000002E+01
  0
LINE
  8
0
  6
CENTER
 62
6
 10
-1.18426172E+02
 20
-1.59015180E+01
 11
-1.18426172E+02
 21
-8.41461449E+00
  0
LINE
  8
0
 62
4
 10
-1.18426172E+02
 20
-1.46681146E+01
 11
-1.24826172E+02
 21
-1.46681146E+01
  0
LINE
  8
0
 62
4
 10
-1.18426172E+02
 20
-9.46811464E+00
 11
-1.24826172E+02
 21
-9.46811464E+00
  0
LINE
  8
0
 62
4
 10
-1.24826172E+02
 20
-1.46681146E+01
 11
-1.24826172E+02
 21
-1.80681146E+01
  0
LINE
  8
0
 62
4
 10
-1.24826172E+02
 20
-3.06811464E+00
 11
-1.24826172E+02
 21
-9.46811464E+00
  0
LINE
  8
0
  6
CENTER
 62
6
 10
-8.82617171E+00
 20
-4.02681146E+01
 11
-8.82617171E+00
 21
-5.47781146E+01
  0
ARC
  8
0
 62
4
 10
5.77382829E+00
 20
-4.74681146E+01
 40
2.60000000E+00
 50
9.00000002E+01
 51
2.70000000E+02
  0
ARC
  8
0
 62
4
 10
-2.34261717E+01
 20
-4.74681146E+01
 40
2.60000000E+00
 50
2.70000000E+02
 51
9.00000002E+01
  0
CIRCLE
  8
0
 62
4
 10
-8.82617171E+00
 20
-4.74681146E+01
 40
5.00000000E+00
  0
LINE
  8
0
  6
CENTER
 62
6
 10
-2.34261717E+01
 20
-4.37080694E+01
 11
-2.34261717E+01
 21
-5.14110376E+01
  0
LINE
  8
0
  6
CENTER
 62
6
 10
5.77382829E+00
 20
-4.37080694E+01
 11
5.77382829E+00
 21
-5.14110376E+01
  0
LINE
  8
0
  6
CENTER
 62
6
 10
-2.64661717E+01
 20
-4.74681146E+01
 11
8.44392495E+00
 21
-4.74681146E+01
  0
LINE
  8
0
 62
4
 10
-2.98261717E+01
 20
-5.00681146E+01
 11
-2.34261717E+01
 21
-5.00681146E+01
  0
LINE
  8
0
 62
4
 10
5.77382829E+00
 20
-5.00681146E+01
 11
1.21738283E+01
 21
-5.00681146E+01
  0
LINE
  8
0
 62
4
 10
-2.98261717E+01
 20
-5.74681146E+01
 11
1.21738283E+01
 21
-5.74681146E+01
  0
LINE
  8
0
 62
4
 10
1.21738283E+01
 20
-5.00681146E+01
 11
1.21738283E+01
 21
-5.74681146E+01
  0
LINE
  8
0
 62
4
 10
-2.98261717E+01
 20
-5.00681146E+01
 11
-2.98261717E+01
 21
-5.74681146E+01
  0
LINE
  8
0
 62
4
 10
1.21738283E+01
 20
-3.74681146E+01
 11
1.21738283E+01
 21
-4.48681146E+01
  0
LINE
  8
0
 62
4
 10
-2.98261717E+01
 20
-3.74681146E+01
 11
-2.98261717E+01
 21
-4.48681146E+01
  0
LINE
  8
0
 62
4
 10
-2.98261717E+01
 20
-4.48681146E+01
 11
-2.34261717E+01
 21
-4.48681146E+01
  0
LINE
  8
0
 62
4
 10
5.77382829E+00
 20
-4.48681146E+01
 11
1.21738283E+01
 21
-4.48681146E+01
  0
LINE
  8
0
 62
4
 10
-2.98261717E+01
 20
-3.74681146E+01
 11
1.21738283E+01
 21
-3.74681146E+01
  0
LINE
  8
0
 62
4
 10
2.21738283E+01
 20
-3.74681146E+01
 11
2.21738283E+01
 21
-5.74681146E+01
  0
LINE
  8
0
 62
4
 10
2.44738283E+01
 20
-3.74681146E+01
 11
2.44738283E+01
 21
-5.74681146E+01
  0
LINE
  8
0
 62
4
 10
2.21738283E+01
 20
-5.00681146E+01
 11
2.44738283E+01
 21
-5.00681146E+01
  0
LINE
  8
0
 62
4
 10
2.21738283E+01
 20
-5.74681146E+01
 11
2.44738283E+01
 21
-5.74681146E+01
  0
LINE
  8
0
 62
4
 10
2.21738283E+01
 20
-4.48681146E+01
 11
2.44738283E+01
 21
-4.48681146E+01
  0
LINE
  8
0
 62
4
 10
2.21738283E+01
 20
-3.74681146E+01
 11
2.44738283E+01
 21
-3.74681146E+01
  0
LINE
  8
0
  6
CENTER
 62
6
 10
1.97710990E+01
 20
-4.74681146E+01
 11
2.67101479E+01
 21
-4.74681146E+01
  0
LINE
  8
0
  6
CENTER
 62
6
 10
5.77382832E+00
 20
-1.20317005E+01
 11
5.77382832E+00
 21
-1.82331780E+01
  0
LINE
  8
0
  6
CENTER
 62
6
 10
-2.34261717E+01
 20
-1.20317005E+01
 11
-2.34261717E+01
 21
-1.82331780E+01
  0
LINE
  8
0
 62
4
 10
-2.98261717E+01
 20
-1.62681146E+01
 11
1.21738283E+01
 21
-1.62681146E+01
  0
LINE
  8
0
 62
4
 10
-2.98261717E+01
 20
-1.39681146E+01
 11
1.21738283E+01
 21
-1.39681146E+01
  0
LINE
  8
0
 62
4
 10
-2.98261717E+01
 20
-1.39681146E+01
 11
-2.98261717E+01
 21
-1.62681146E+01
  0
LINE
  8
0
 62
4
 10
1.21738283E+01
 20
-1.39681146E+01
 11
1.21738283E+01
 21
-1.62681146E+01
  0
LINE
  8
0
  6
CENTER
 62
6
 10
-8.82617168E+00
 20
-1.20317005E+01
 11
-8.82617168E+00
 21
-1.82331780E+01
  0
TEXT
  8
0
 62
7
 10
-1.02049994E+02
 20
-8.34000031E+01
 40
3.20000005E+00
  1
-25
 41
1.00000000E+00
  7
MONOTXT
  0
TEXT
  8
0
 62
7
 10
-9.24499940E+01
 20
-8.34000031E+01
 40
3.20000005E+00
  1
-20
 41
1.00000000E+00
  7
MONOTXT
  0
TEXT
  8
0
 62
7
 10
-8.28499940E+01
 20
-8.34000031E+01
 40
3.20000005E+00
  1
-15
 41
1.00000000E+00
  7
MONOTXT
  0
TEXT
  8
0
 62
7
 10
-7.32499940E+01
 20
-8.34000031E+01
 40
3.20000005E+00
  1
-10
 41
1.00000000E+00
  7
MONOTXT
  0
TEXT
  8
0
 62
7
 10
-6.20499939E+01
 20
-8.34000031E+01
 40
3.20000005E+00
  1
-5
 41
1.00000000E+00
  7
MONOTXT
  0
TEXT
  8
0
 62
7
 10
-5.08499939E+01
 20
-8.34000031E+01
 40
3.20000005E+00
  1
0
 41
1.00000000E+00
  7
MONOTXT
  0
TEXT
  8
0
 62
7
 10
-4.12499939E+01
 20
-8.34000031E+01
 40
3.20000005E+00
  1
5
 41
1.00000000E+00
  7
MONOTXT
  0
TEXT
  8
0
 62
7
 10
-3.32499939E+01
 20
-8.34000031E+01
 40
3.20000005E+00
  1
10
 41
1.00000000E+00
  7
MONOTXT
  0
TEXT
  8
0
 62
7
 10
-2.36499939E+01
 20
-8.34000031E+01
 40
3.20000005E+00
  1
15
 41
1.00000000E+00
  7
MONOTXT
  0
TEXT
  8
0
 62
7
 10
-1.40499939E+01
 20
-8.34000031E+01
 40
3.20000005E+00
  1
20
 41
1.00000000E+00
  7
MONOTXT
  0
TEXT
  8
0
 62
7
 10
-4.44999392E+00
 20
-8.34000031E+01
 40
3.20000005E+00
  1
35
 41
1.00000000E+00
  7
MONOTXT
  0
TEXT
  8
0
 62
7
 10
5.15000609E+00
 20
-8.34000031E+01
 40
3.20000005E+00
  1
60
 41
1.00000000E+00
  7
MONOTXT
  0
TEXT
  8
0
 62
7
 10
1.47500061E+01
 20
-8.34000031E+01
 40
3.20000005E+00
  1
85
 41
1.00000000E+00
  7
MONOTXT
  0
TEXT
  8
0
 62
7
 10
2.27500060E+01
 20
-8.34000031E+01
 40
3.20000005E+00
  1
110
 41
1.00000000E+00
  7
MONOTXT
  0
TEXT
  8
0
 62
7
 10
3.23500060E+01
 20
-8.34000031E+01
 40
3.20000005E+00
  1
135
 41
1.00000000E+00
  7
MONOTXT
  0
TEXT
  8
0
 62
7
 10
4.19500060E+01
 20
-8.34000031E+01
 40
3.20000005E+00
  1
160
 41
1.00000000E+00
  7
MONOTXT
  0
LINE
  8
0
 62
7
 10
5.12000061E+01
 20
-8.48000031E+01
 11
5.12000061E+01
 21
-7.28000031E+01
  0
LINE
  8
0
 62
7
 10
-1.28399994E+02
 20
-7.88000031E+01
 11
5.12000061E+01
 21
-7.88000031E+01
  0
LINE
  8
0
 62
7
 10
-1.28399994E+02
 20
-8.48000031E+01
 11
-1.28399994E+02
 21
-7.28000031E+01
  0
LINE
  8
0
 62
7
 10
-1.02399994E+02
 20
-8.48000031E+01
 11
-1.02399994E+02
 21
-7.28000031E+01
  0
LINE
  8
0
 62
7
 10
-9.27999939E+01
 20
-8.48000031E+01
 11
-9.27999939E+01
 21
-7.28000031E+01
  0
TEXT
  8
0
 62
7
 10
-1.00449994E+02
 20
-7.74000031E+01
 40
3.20000005E+00
  1
15
 41
1.00000000E+00
  7
MONOTXT
  0
LINE
  8
0
 62
7
 10
-8.31999939E+01
 20
-8.48000031E+01
 11
-8.31999939E+01
 21
-7.28000031E+01
  0
TEXT
  8
0
 62
7
 10
-9.08499939E+01
 20
-7.74000031E+01
 40
3.20000005E+00
  1
20
 41
1.00000000E+00
  7
MONOTXT
  0
LINE
  8
0
 62
7
 10
-7.35999939E+01
 20
-8.48000031E+01
 11
-7.35999939E+01
 21
-7.28000031E+01
  0
TEXT
  8
0
 62
7
 10
-8.12499939E+01
 20
-7.74000031E+01
 40
3.20000005E+00
  1
25
 41
1.00000000E+00
  7
MONOTXT
  0
LINE
  8
0
 62
7
 10
-6.39999939E+01
 20
-8.48000031E+01
 11
-6.39999939E+01
 21
-7.28000031E+01
  0
TEXT
  8
0
 62
7
 10
-7.16499939E+01
 20
-7.74000031E+01
 40
3.20000005E+00
  1
30
 41
1.00000000E+00
  7
MONOTXT
  0
LINE
  8
0
 62
7
 10
-5.43999939E+01
 20
-8.48000031E+01
 11
-5.43999939E+01
 21
-7.28000031E+01
  0
TEXT
  8
0
 62
7
 10
-6.20499939E+01
 20
-7.74000031E+01
 40
3.20000005E+00
  1
35
 41
1.00000000E+00
  7
MONOTXT
  0
LINE
  8
0
 62
7
 10
-4.47999939E+01
 20
-8.48000031E+01
 11
-4.47999939E+01
 21
-7.28000031E+01
  0
TEXT
  8
0
 62
7
 10
-5.24499939E+01
 20
-7.74000031E+01
 40
3.20000005E+00
  1
40
 41
1.00000000E+00
  7
MONOTXT
  0
LINE
  8
0
 62
7
 10
-3.51999939E+01
 20
-8.48000031E+01
 11
-3.51999939E+01
 21
-7.28000031E+01
  0
TEXT
  8
0
 62
7
 10
-4.28499939E+01
 20
-7.74000031E+01
 40
3.20000005E+00
  1
45
 41
1.00000000E+00
  7
MONOTXT
  0
LINE
  8
0
 62
7
 10
-2.55999939E+01
 20
-8.48000031E+01
 11
-2.55999939E+01
 21
-7.28000031E+01
  0
TEXT
  8
0
 62
7
 10
-3.32499939E+01
 20
-7.74000031E+01
 40
3.20000005E+00
  1
50
 41
1.00000000E+00
  7
MONOTXT
  0
LINE
  8
0
 62
7
 10
-1.59999939E+01
 20
-8.48000031E+01
 11
-1.59999939E+01
 21
-7.28000031E+01
  0
TEXT
  8
0
 62
7
 10
-2.36499939E+01
 20
-7.74000031E+01
 40
3.20000005E+00
  1
55
 41
1.00000000E+00
  7
MONOTXT
  0
LINE
  8
0
 62
7
 10
-6.39999390E+00
 20
-8.48000031E+01
 11
-6.39999390E+00
 21
-7.28000031E+01
  0
TEXT
  8
0
 62
7
 10
-1.40499939E+01
 20
-7.74000031E+01
 40
3.20000005E+00
  1
60
 41
1.00000000E+00
  7
MONOTXT
  0
TEXT
  8
0
 62
7
 10
-6.46034098E+01
 20
-7.09181426E+01
 40
3.20000005E+00
  1
STRETCH LIST
 41
1.05263158E+00
  7
MONOTXT
  0
TEXT
  8
0
 62
7
 10
-1.26249994E+02
 20
-8.34000031E+01
 40
3.20000005E+00
  1
STRETCH
 41
1.00000000E+00
  7
MONOTXT
  0
TEXT
  8
0
 62
7
 10
-1.24649994E+02
 20
-7.74000031E+01
 40
3.20000005E+00
  1
STROKE
 41
1.00000000E+00
  7
MONOTXT
  0
TEXT
  8
0
 62
7
 10
-4.44999392E+00
 20
-7.74000031E+01
 40
3.20000005E+00
  1
75
 41
1.00000000E+00
  7
MONOTXT
  0
TEXT
  8
0
 62
7
 10
3.55000605E+00
 20
-7.74000031E+01
 40
3.20000005E+00
  1
100
 41
1.00000000E+00
  7
MONOTXT
  0
TEXT
  8
0
 62
7
 10
1.31500060E+01
 20
-7.74000031E+01
 40
3.20000005E+00
  1
125
 41
1.00000000E+00
  7
MONOTXT
  0
TEXT
  8
0
 62
7
 10
2.27500060E+01
 20
-7.74000031E+01
 40
3.20000005E+00
  1
150
 41
1.00000000E+00
  7
MONOTXT
  0
TEXT
  8
0
 62
7
 10
3.23500060E+01
 20
-7.74000031E+01
 40
3.20000005E+00
  1
175
 41
1.00000000E+00
  7
MONOTXT
  0
LINE
  8
0
 62
7
 10
4.16000061E+01
 20
-8.48000031E+01
 11
4.16000061E+01
 21
-7.28000031E+01
  0
LINE
  8
0
 62
7
 10
3.20000061E+01
 20
-8.48000031E+01
 11
3.20000061E+01
 21
-7.28000031E+01
  0
LINE
  8
0
 62
7
 10
2.24000061E+01
 20
-8.48000031E+01
 11
2.24000061E+01
 21
-7.28000031E+01
  0
LINE
  8
0
 62
7
 10
1.28000061E+01
 20
-8.48000031E+01
 11
1.28000061E+01
 21
-7.28000031E+01
  0
LINE
  8
0
 62
7
 10
3.20000610E+00
 20
-8.48000031E+01
 11
3.20000610E+00
 21
-7.28000031E+01
  0
TEXT
  8
0
 62
7
 10
4.19500060E+01
 20
-7.74000031E+01
 40
3.20000005E+00
  1
200
 41
1.00000000E+00
  7
MONOTXT
  0
TEXT
  8
0
 62
7
 10
4.10932279E+01
 20
-7.09181426E+01
 40
3.20000005E+00
  1
(mm)
 41
1.00000000E+00
  7
MONOTXT
  0
LINE
  8
0
 62
7
 10
-1.28399994E+02
 20
-7.28000031E+01
 11
5.12000061E+01
 21
-7.28000031E+01
  0
LINE
  8
0
 62
7
 10
-1.28399994E+02
 20
-8.48000031E+01
 11
5.12000061E+01
 21
-8.48000031E+01
  0
TEXT
  8
0
 10
-9.14863696E+00
 20
5.73699653E+01
 40
3.20000005E+00
  1
STRETCH LINE
 41
1.05263158E+00
  7
MONOTXT
  0
LINE
  8
0
 62
7
 10
-1.38399994E+02
 20
9.45000000E+01
 11
1.38350006E+02
 21
9.45000000E+01
  0
LINE
  8
0
 62
7
 10
1.38350006E+02
 20
9.45000000E+01
 11
1.38350006E+02
 21
-9.48000031E+01
  0
LINE
  8
0
 62
7
 10
-1.38399994E+02
 20
-9.48000031E+01
 11
1.38350006E+02
 21
-9.48000031E+01
  0
LINE
  8
0
 62
7
 10
-1.38399994E+02
 20
9.45000000E+01
 11
-1.38399994E+02
 21
-9.48000031E+01
  0
LINE
  8
0
 62
7
 10
7.33500061E+01
 20
-8.48000031E+01
 11
1.38350006E+02
 21
-8.48000031E+01
  0
LINE
  8
0
 62
7
 10
-1.38399994E+02
 20
8.45000000E+01
 11
-7.33999939E+01
 21
8.45000000E+01
  0
LINE
  8
0
 62
7
 10
7.33500061E+01
 20
8.45000000E+01
 11
1.38350006E+02
 21
8.45000000E+01
  0
LINE
  8
0
 62
7
 10
7.33500061E+01
 20
-8.48000031E+01
 11
7.33500061E+01
 21
-9.48000031E+01
  0
LINE
  8
0
 62
7
 10
7.33500061E+01
 20
9.45000000E+01
 11
7.33500061E+01
 21
8.45000000E+01
  0
LINE
  8
0
 62
7
 10
-7.33999939E+01
 20
9.45000000E+01
 11
-7.33999939E+01
 21
8.45000000E+01
  0
TEXT
  8
0
 62
7
 10
7.72426624E+01
 20
-9.20500031E+01
 40
4.50000000E+00
  1
KOGANEI CORP.
 41
1.04838710E+00
  7
MONOTXT
  0
TEXT
  8
0
 62
7
 10
9.35071483E+01
 20
8.79000000E+01
 40
3.20000005E+00
  1
Ver. 1.1
 41
1.08108108E+00
  7
MONOTXT
  0
TEXT
  8
0
 62
7
 10
-1.31042852E+02
 20
8.79000000E+01
 40
3.20000005E+00
  1
NEW PEN CYLINDER
 41
1.08108108E+00
  7
MONOTXT
  0
TEXT
  8
0
 62
7
 10
-1.29085994E+02
 20
7.29000000E+01
 40
3.20000005E+00
  1
MODEL:PBDAES16*ST(40)-A-ZC230
 41
1.00000000E+00
  7
MONOTXT
  0
ENDSEC
  0
EOF
