  0
SECTION
  2
HEADER
  9
$ACADVER
  1
AC1003
  9
$EXTMIN
 10
-1.38399994E+02
 20
-9.48000031E+01
  9
$EXTMAX
 10
1.38350006E+02
 20
9.45000000E+01
  9
$LIMMIN
 10
-1.38400994E+02
 20
-9.48010031E+01
  9
$LIMMAX
 10
1.38351006E+02
 20
9.45010000E+01
  9
$SNAPUNIT
 10
1
 20
1
  9
$SNAPBASE
 10
0
 20
0
  9
$GRIDMODE
 70
0
  9
$GRIDUNIT
 10
0
 20
0
  9
$LTSCALE
 40
4.61250000E+00
  9
$TEXTSIZE
 40
3.2
  9
$DIMTAD
 70
0
  9
$LUNITS
 70
2
  9
$LUPREC
 70
4
  9
$FILLETRAD
 40
0
  9
$AUNITS
 70
0
  9
$AUPREC
 70
0
  0
ENDSEC
  0
SECTION
  2
TABLES
  0
TABLE
  2
LTYPE
 70
2
  0
LTYPE
  2
CONTINUOUS
 70
64
  3
Solid-Line
 72
65
 73
0
 40
0
  0
LTYPE
  2
DASHED
 70
64
  3
DASHED
 72
65
 73
2
 40
.75
 49
.5
 49
-.25
  0
LTYPE
  2
HIDDEN
 70
64
  3
HIDDEN
 72
65
 73
2
 40
.375
 49
.25
 49
-.125
  0
LTYPE
  2
CENTER
 70
64
  3
CENTER
 72
65
 73
4
 40
2
 49
1.25
 49
-.25
 49
.25
 49
-.25
  0
LTYPE
  2
PHANTOM
 70
64
  3
PHANTOM
 72
65
 73
6
 40
2.5
 49
1.25
 49
-.25
 49
.25
 49
-.25
 49
.25
 49
-.25
  0
ENDTAB
  0
TABLE
  2
LAYER
 70
1
  0
LAYER
  2
1
 70
0
 62
7
  6
CONTINUOUS
 0
ENDTAB
  0
TABLE
  2
STYLE
 70
2
  0
STYLE
  2
MONOTXT
 70
0
 40
0
 41
1
 50
0
 71
0
 42
.2
  3
monotxt
  0
STYLE
  2
BIGFONT
 70
0
 40
0
 41
1
 50
0
 71
0
 42
.2
  3
txt
  4
bigfont
  0
ENDTAB
  0
ENDSEC
  0
SECTION
  2
ENTITIES
  0
ARC
  8
0
 62
4
 10
-7.54617981E+01
 20
-2.00000000E+01
 40
1.19980040E+01
 50
1.49994497E+02
 51
2.10005503E+02
  0
CIRCLE
  8
0
 62
4
 10
-8.04617981E+01
 20
-2.00000000E+01
 40
1.64999962E+00
  0
LINE
  8
0
  6
DASHED
 62
6
 10
-6.74617981E+01
 20
-2.20000000E+01
 11
-5.94617981E+01
 21
-2.20000000E+01
  0
LINE
  8
0
  6
DASHED
 62
4
 10
-6.74617981E+01
 20
-2.18000000E+01
 11
-5.94617981E+01
 21
-2.18000000E+01
  0
LINE
  8
0
  6
DASHED
 62
4
 10
-6.74617981E+01
 20
-1.82000000E+01
 11
-5.94617981E+01
 21
-1.82000000E+01
  0
LINE
  8
0
  6
DASHED
 62
6
 10
-6.74617981E+01
 20
-1.80000000E+01
 11
-5.94617981E+01
 21
-1.80000000E+01
  0
LINE
  8
0
 62
4
 10
-7.14617981E+01
 20
-1.40000000E+01
 11
-7.14617981E+01
 21
-2.60000000E+01
  0
LINE
  8
0
 62
4
 10
-8.58517981E+01
 20
-2.60000000E+01
 11
-5.94617981E+01
 21
-2.60000000E+01
  0
LINE
  8
0
 62
4
 10
-8.58517981E+01
 20
-1.40000000E+01
 11
-5.94617981E+01
 21
-1.40000000E+01
  0
LINE
  8
0
 62
4
 10
-5.94617981E+01
 20
-1.40000000E+01
 11
-5.94617981E+01
 21
-2.60000000E+01
  0
LINE
  8
0
  6
CENTER
 62
6
 10
-8.04617981E+01
 20
-1.10000000E+01
 11
-8.04617981E+01
 21
-2.90000000E+01
  0
LINE
  8
0
  6
CENTER
 62
6
 10
-9.04617981E+01
 20
-2.00000000E+01
 11
-5.64617981E+01
 21
-2.00000000E+01
  0
LINE
  8
0
 62
4
 10
-1.17011798E+02
 20
-1.40000000E+01
 11
-1.17011798E+02
 21
-2.60000000E+01
  0
LINE
  8
0
 62
4
 10
-1.13911798E+02
 20
-1.40000000E+01
 11
-1.13911798E+02
 21
-2.60000000E+01
  0
LINE
  8
0
 62
4
 10
-1.09461798E+02
 20
-1.40000000E+01
 11
-1.09461798E+02
 21
-2.60000000E+01
  0
LINE
  8
0
 62
4
 10
-1.21461798E+02
 20
-1.40000000E+01
 11
-1.21461798E+02
 21
-2.60000000E+01
  0
LINE
  8
0
 62
4
 10
-1.21461798E+02
 20
-2.60000000E+01
 11
-1.09461798E+02
 21
-2.60000000E+01
  0
LINE
  8
0
 62
4
 10
-1.21461798E+02
 20
-1.40000000E+01
 11
-1.09461798E+02
 21
-1.40000000E+01
  0
LINE
  8
0
  6
CENTER
 62
6
 10
-1.15461798E+02
 20
-1.10000000E+01
 11
-1.15461798E+02
 21
-2.90000000E+01
  0
LINE
  8
0
  6
CENTER
 62
6
 10
-1.24461798E+02
 20
-2.00000000E+01
 11
-1.06461798E+02
 21
-2.00000000E+01
  0
CIRCLE
  8
0
 62
4
 10
-3.05617981E+01
 20
-2.00000000E+01
 40
1.79999924E+00
  0
CIRCLE
  8
0
 62
6
 10
-3.05617981E+01
 20
-2.00000000E+01
 40
2.00000000E+00
  0
LINE
  8
0
  6
CENTER
 62
6
 10
-3.95617981E+01
 20
-2.00000000E+01
 11
-2.15617981E+01
 21
-2.00000000E+01
  0
LINE
  8
0
  6
CENTER
 62
6
 10
-3.05617981E+01
 20
-1.10000000E+01
 11
-3.05617981E+01
 21
-2.90000000E+01
  0
LINE
  8
0
 62
4
 10
-3.65617981E+01
 20
-2.60000000E+01
 11
-2.45617981E+01
 21
-2.60000000E+01
  0
LINE
  8
0
 62
4
 10
-2.45617981E+01
 20
-1.40000000E+01
 11
-2.45617981E+01
 21
-2.60000000E+01
  0
LINE
  8
0
 62
4
 10
-3.65617981E+01
 20
-1.40000000E+01
 11
-2.45617981E+01
 21
-1.40000000E+01
  0
LINE
  8
0
 62
4
 10
-3.65617981E+01
 20
-1.40000000E+01
 11
-3.65617981E+01
 21
-2.60000000E+01
  0
ARC
  8
0
 62
4
 10
-7.54617723E+01
 20
2.00250000E+01
 40
1.19938876E+01
 50
1.72695178E+02
 51
1.87545697E+02
  0
LINE
  8
0
 62
4
 10
-7.14617981E+01
 20
1.84500000E+01
 11
-7.14617981E+01
 21
1.40000000E+01
  0
LINE
  8
0
 62
4
 10
-8.73517981E+01
 20
2.15500000E+01
 11
-7.14617981E+01
 21
2.15500000E+01
  0
LINE
  8
0
 62
4
 10
-7.14617981E+01
 20
2.60000000E+01
 11
-7.14617981E+01
 21
2.15500000E+01
  0
LINE
  8
0
 62
4
 10
-8.73517981E+01
 20
1.84500000E+01
 11
-7.14617981E+01
 21
1.84500000E+01
  0
LINE
  8
0
 62
4
 10
-7.14617981E+01
 20
1.40000000E+01
 11
-5.94617981E+01
 21
1.40000000E+01
  0
LINE
  8
0
 62
4
 10
-7.14617981E+01
 20
2.60000000E+01
 11
-5.94617981E+01
 21
2.60000000E+01
  0
LINE
  8
0
 62
4
 10
-5.94617981E+01
 20
2.60000000E+01
 11
-5.94617981E+01
 21
1.40000000E+01
  0
LINE
  8
0
  6
CENTER
 62
6
 10
-8.04617981E+01
 20
2.61000000E+01
 11
-8.04617981E+01
 21
1.39000000E+01
  0
LINE
  8
0
  6
CENTER
 62
6
 10
-9.04617981E+01
 20
2.00000000E+01
 11
-5.64617981E+01
 21
2.00000000E+01
  0
ARC
  8
0
 62
4
 10
6.09617981E+01
 20
-2.00000000E+01
 40
1.19980040E+01
 50
1.49994497E+02
 51
2.10005503E+02
  0
CIRCLE
  8
0
 62
4
 10
5.59617981E+01
 20
-2.00000000E+01
 40
2.54999924E+00
  0
LINE
  8
0
  6
DASHED
 62
6
 10
7.29617981E+01
 20
-2.25000000E+01
 11
8.09617981E+01
 21
-2.25000000E+01
  0
LINE
  8
0
  6
DASHED
 62
4
 10
7.29617981E+01
 20
-2.21000000E+01
 11
8.09617981E+01
 21
-2.21000000E+01
  0
LINE
  8
0
  6
DASHED
 62
4
 10
7.29617981E+01
 20
-1.79000000E+01
 11
8.09617981E+01
 21
-1.79000000E+01
  0
LINE
  8
0
  6
DASHED
 62
6
 10
7.29617981E+01
 20
-1.75000000E+01
 11
8.09617981E+01
 21
-1.75000000E+01
  0
LINE
  8
0
 62
4
 10
6.99617981E+01
 20
-1.40000000E+01
 11
6.99617981E+01
 21
-2.60000000E+01
  0
LINE
  8
0
 62
4
 10
5.05717981E+01
 20
-2.60000000E+01
 11
8.09617981E+01
 21
-2.60000000E+01
  0
LINE
  8
0
 62
4
 10
5.05717981E+01
 20
-1.40000000E+01
 11
8.09617981E+01
 21
-1.40000000E+01
  0
LINE
  8
0
 62
4
 10
8.09617981E+01
 20
-1.40000000E+01
 11
8.09617981E+01
 21
-2.60000000E+01
  0
LINE
  8
0
  6
CENTER
 62
6
 10
5.59617981E+01
 20
-1.10000000E+01
 11
5.59617981E+01
 21
-2.90000000E+01
  0
LINE
  8
0
  6
CENTER
 62
6
 10
4.59617981E+01
 20
-2.00000000E+01
 11
8.39617981E+01
 21
-2.00000000E+01
  0
LINE
  8
0
 62
4
 10
2.41617981E+01
 20
-1.40000000E+01
 11
2.41617981E+01
 21
-2.60000000E+01
  0
LINE
  8
0
 62
4
 10
2.69617981E+01
 20
-1.40000000E+01
 11
2.69617981E+01
 21
-2.60000000E+01
  0
LINE
  8
0
 62
4
 10
1.77617981E+01
 20
-1.40000000E+01
 11
1.77617981E+01
 21
-2.60000000E+01
  0
LINE
  8
0
 62
4
 10
1.49617981E+01
 20
-1.40000000E+01
 11
1.49617981E+01
 21
-2.60000000E+01
  0
LINE
  8
0
 62
4
 10
1.49617981E+01
 20
-2.60000000E+01
 11
2.69617981E+01
 21
-2.60000000E+01
  0
LINE
  8
0
 62
4
 10
1.49617981E+01
 20
-1.40000000E+01
 11
2.69617981E+01
 21
-1.40000000E+01
  0
LINE
  8
0
  6
CENTER
 62
6
 10
2.09617981E+01
 20
-1.10000000E+01
 11
2.09617981E+01
 21
-2.90000000E+01
  0
LINE
  8
0
  6
CENTER
 62
6
 10
1.19617981E+01
 20
-2.00000000E+01
 11
2.99617981E+01
 21
-2.00000000E+01
  0
LINE
  8
0
  6
CENTER
 62
6
 10
1.00561798E+02
 20
-2.00000000E+01
 11
1.18561798E+02
 21
-2.00000000E+01
  0
CIRCLE
  8
0
 62
4
 10
1.09561798E+02
 20
-2.00000000E+01
 40
2.09999943E+00
  0
CIRCLE
  8
0
 62
6
 10
1.09561798E+02
 20
-2.00000000E+01
 40
2.50000000E+00
  0
LINE
  8
0
  6
CENTER
 62
6
 10
1.09561798E+02
 20
-1.10000000E+01
 11
1.09561798E+02
 21
-2.90000000E+01
  0
LINE
  8
0
 62
4
 10
1.03561798E+02
 20
-2.60000000E+01
 11
1.15561798E+02
 21
-2.60000000E+01
  0
LINE
  8
0
 62
4
 10
1.15561798E+02
 20
-1.40000000E+01
 11
1.15561798E+02
 21
-2.60000000E+01
  0
LINE
  8
0
 62
4
 10
1.03561798E+02
 20
-1.40000000E+01
 11
1.15561798E+02
 21
-1.40000000E+01
  0
LINE
  8
0
 62
4
 10
1.03561798E+02
 20
-1.40000000E+01
 11
1.03561798E+02
 21
-2.60000000E+01
  0
ARC
  8
0
 62
4
 10
6.09618111E+01
 20
2.00070853E+01
 40
1.19966369E+01
 50
1.64564654E+02
 51
1.95505568E+02
  0
LINE
  8
0
 62
4
 10
6.99617981E+01
 20
1.68000000E+01
 11
6.99617981E+01
 21
1.40000000E+01
  0
LINE
  8
0
 62
4
 10
6.99617981E+01
 20
2.60000000E+01
 11
6.99617981E+01
 21
2.32000000E+01
  0
LINE
  8
0
 62
4
 10
4.94117981E+01
 20
1.68000000E+01
 11
6.99617981E+01
 21
1.68000000E+01
  0
LINE
  8
0
 62
4
 10
4.94117981E+01
 20
2.32000000E+01
 11
6.99617981E+01
 21
2.32000000E+01
  0
LINE
  8
0
 62
4
 10
6.99617981E+01
 20
1.40000000E+01
 11
8.09617981E+01
 21
1.40000000E+01
  0
LINE
  8
0
 62
4
 10
6.99617981E+01
 20
2.60000000E+01
 11
8.09617981E+01
 21
2.60000000E+01
  0
LINE
  8
0
 62
4
 10
8.09617981E+01
 20
2.60000000E+01
 11
8.09617981E+01
 21
1.40000000E+01
  0
LINE
  8
0
  6
CENTER
 62
6
 10
5.59617981E+01
 20
2.90000000E+01
 11
5.59617981E+01
 21
1.10000000E+01
  0
LINE
  8
0
  6
CENTER
 62
6
 10
4.59617981E+01
 20
2.00000000E+01
 11
8.39617981E+01
 21
2.00000000E+01
  0
TEXT
  8
0
 62
7
 10
7.28900612E+00
 20
7.29000000E+01
 40
3.20000005E+00
  1
BORE:16
 41
1.00000000E+00
  7
MONOTXT
  0
LINE
  8
0
 62
7
 10
-2.02499390E+00
 20
9.45000000E+01
 11
-2.02499390E+00
 21
-9.48000031E+01
  0
TEXT
  8
0
 62
7
 10
-1.19949994E+02
 20
8.59000000E+01
 40
3.20000005E+00
  1
I-KNUCKLE
 41
1.00000000E+00
  7
MONOTXT
  0
LINE
  8
0
 62
7
 10
-1.38399994E+02
 20
9.45000000E+01
 11
1.38350006E+02
 21
9.45000000E+01
  0
LINE
  8
0
 62
7
 10
1.38350006E+02
 20
9.45000000E+01
 11
1.38350006E+02
 21
-9.48000031E+01
  0
LINE
  8
0
 62
7
 10
-1.38399994E+02
 20
-9.48000031E+01
 11
1.38350006E+02
 21
-9.48000031E+01
  0
LINE
  8
0
 62
7
 10
-1.38399994E+02
 20
9.45000000E+01
 11
-1.38399994E+02
 21
-9.48000031E+01
  0
LINE
  8
0
 62
7
 10
7.33500061E+01
 20
-8.48000031E+01
 11
1.38350006E+02
 21
-8.48000031E+01
  0
LINE
  8
0
 62
7
 10
-1.38399994E+02
 20
8.45000000E+01
 11
-7.33999939E+01
 21
8.45000000E+01
  0
LINE
  8
0
 62
7
 10
7.33500061E+01
 20
8.45000000E+01
 11
1.38350006E+02
 21
8.45000000E+01
  0
LINE
  8
0
 62
7
 10
7.33500061E+01
 20
-8.48000031E+01
 11
7.33500061E+01
 21
-9.48000031E+01
  0
LINE
  8
0
 62
7
 10
7.33500061E+01
 20
9.45000000E+01
 11
7.33500061E+01
 21
8.45000000E+01
  0
LINE
  8
0
 62
7
 10
-7.33999939E+01
 20
9.45000000E+01
 11
-7.33999939E+01
 21
8.45000000E+01
  0
TEXT
  8
0
 62
7
 10
7.72426624E+01
 20
-9.20500031E+01
 40
4.50000000E+00
  1
KOGANEI CORP.
 41
1.04838710E+00
  7
MONOTXT
  0
TEXT
  8
0
 62
7
 10
9.35071483E+01
 20
8.79000000E+01
 40
3.20000005E+00
  1
Ver. 1.0
 41
1.08108108E+00
  7
MONOTXT
  0
TEXT
  8
0
 62
7
 10
-1.31042852E+02
 20
8.99000000E+01
 40
3.20000005E+00
  1
NEW PEN CYLINDER
 41
1.08108108E+00
  7
MONOTXT
  0
TEXT
  8
0
 62
7
 10
-1.29085994E+02
 20
7.29000000E+01
 40
3.20000005E+00
  1
BORE:10
 41
1.00000000E+00
  7
MONOTXT
  0
ENDSEC
  0
EOF
