  0
SECTION
  2
HEADER
  9
$ACADVER
  1
AC1003
  9
$EXTMIN
 10
-1.38399994E+02
 20
-9.48000031E+01
  9
$EXTMAX
 10
1.38350006E+02
 20
9.45000000E+01
  9
$LIMMIN
 10
-1.38400994E+02
 20
-9.48010031E+01
  9
$LIMMAX
 10
1.38351006E+02
 20
9.45010000E+01
  9
$SNAPUNIT
 10
1
 20
1
  9
$SNAPBASE
 10
0
 20
0
  9
$GRIDMODE
 70
0
  9
$GRIDUNIT
 10
0
 20
0
  9
$LTSCALE
 40
4.61250000E+00
  9
$TEXTSIZE
 40
3.2
  9
$DIMTAD
 70
0
  9
$LUNITS
 70
2
  9
$LUPREC
 70
4
  9
$FILLETRAD
 40
0
  9
$AUNITS
 70
0
  9
$AUPREC
 70
0
  0
ENDSEC
  0
SECTION
  2
TABLES
  0
TABLE
  2
LTYPE
 70
2
  0
LTYPE
  2
CONTINUOUS
 70
64
  3
Solid-Line
 72
65
 73
0
 40
0
  0
LTYPE
  2
DASHED
 70
64
  3
DASHED
 72
65
 73
2
 40
.75
 49
.5
 49
-.25
  0
LTYPE
  2
HIDDEN
 70
64
  3
HIDDEN
 72
65
 73
2
 40
.375
 49
.25
 49
-.125
  0
LTYPE
  2
CENTER
 70
64
  3
CENTER
 72
65
 73
4
 40
2
 49
1.25
 49
-.25
 49
.25
 49
-.25
  0
LTYPE
  2
PHANTOM
 70
64
  3
PHANTOM
 72
65
 73
6
 40
2.5
 49
1.25
 49
-.25
 49
.25
 49
-.25
 49
.25
 49
-.25
  0
ENDTAB
  0
TABLE
  2
LAYER
 70
1
  0
LAYER
  2
0
 70
0
 62
3
  6
CONTINUOUS
 0
ENDTAB
  0
TABLE
  2
STYLE
 70
2
  0
STYLE
  2
MONOTXT
 70
0
 40
0
 41
1
 50
0
 71
0
 42
.2
  3
monotxt
  0
STYLE
  2
BIGFONT
 70
0
 40
0
 41
1
 50
0
 71
0
 42
.2
  3
txt
  4
bigfont
  0
ENDTAB
  0
ENDSEC
  0
SECTION
  2
ENTITIES
  0
LINE
  8
0
  6
CENTER
 62
2
 10
-7.83799433E+01
 20
1.67654441E+01
 11
6.56189071E+01
 21
1.67654466E+01
  0
LINE
  8
0
 62
7
 10
-7.52698436E+01
 20
1.92654442E+01
 11
-7.18028941E+01
 21
1.92654442E+01
  0
LINE
  8
0
 62
7
 10
-7.52698435E+01
 20
1.42654423E+01
 11
-7.18028940E+01
 21
1.42654423E+01
  0
LINE
  8
0
 62
2
 10
-7.56698450E+01
 20
1.46654419E+01
 11
-7.18028940E+01
 21
1.46654420E+01
  0
LINE
  8
0
 62
2
 10
-7.56698451E+01
 20
1.88654426E+01
 11
-7.18028941E+01
 21
1.88654427E+01
  0
LINE
  8
0
  6
CENTER
 62
6
 10
-2.07698439E+01
 20
4.00754451E+01
 11
-2.07698433E+01
 21
5.86176712E+00
  0
LINE
  8
0
  6
CENTER
 62
6
 10
2.12301532E+01
 20
4.00658083E+01
 11
2.12301538E+01
 21
5.86176783E+00
  0
LINE
  8
0
  6
PHANTOM
 10
4.13612299E+00
 20
2.61459160E+00
 11
4.13613392E+00
 21
3.69690540E+01
  0
TEXT
  8
0
 62
7
 10
-1.34027978E+01
 20
9.51544360E+00
 40
1.50000000E+00
  1
PBDALS16-7
 50
3.59999999E+02
 41
1.00000000E+00
  7
MONOTXT
  0
LINE
  8
0
 62
7
 10
2.82301535E+01
 20
2.52654479E+01
 11
3.47301535E+01
 21
2.52654480E+01
  0
LINE
  8
0
 62
7
 10
2.57301537E+01
 20
8.26544400E+00
 11
3.47301537E+01
 21
8.26544415E+00
  0
LINE
  8
0
 62
7
 10
-1.62698434E+01
 20
8.26544328E+00
 11
1.67301537E+01
 21
8.26544385E+00
  0
LINE
  8
0
 62
7
 10
-1.37698437E+01
 20
2.52654471E+01
 11
1.42301535E+01
 21
2.52654476E+01
  0
LINE
  8
0
 62
7
 10
3.64801537E+01
 20
1.25154461E+01
 11
3.64801537E+01
 21
8.26544609E+00
  0
ARC
  8
0
 62
7
 10
4.07541652E+01
 20
1.67606274E+01
 40
6.02401354E+00
 50
1.35193899E+02
 51
2.24806103E+02
  0
LINE
  8
0
 62
7
 10
3.64801535E+01
 20
2.10054461E+01
 11
3.64801535E+01
 21
2.52654461E+01
  0
LINE
  8
0
 62
4
 10
1.67301534E+01
 20
2.79558083E+01
 11
1.67301533E+01
 21
3.47558083E+01
  0
LINE
  8
0
 62
4
 10
2.57301534E+01
 20
2.79558084E+01
 11
2.57301533E+01
 21
3.47558084E+01
  0
LINE
  8
0
 62
4
 10
-2.52698437E+01
 20
2.79654450E+01
 11
-2.52698438E+01
 21
3.47654450E+01
  0
LINE
  8
0
 62
4
 10
-1.62698437E+01
 20
2.79654452E+01
 11
-1.62698438E+01
 21
3.47654452E+01
  0
LINE
  8
0
 62
4
 10
-1.37698438E+01
 20
3.00654452E+01
 11
-8.26984376E+00
 21
3.00654453E+01
  0
LINE
  8
0
 62
4
 10
-1.37698437E+01
 20
2.60654452E+01
 11
-8.26984369E+00
 21
2.60654453E+01
  0
LINE
  8
0
 62
4
 10
-2.77698437E+01
 20
2.78654450E+01
 11
-2.77698437E+01
 21
2.47973272E+01
  0
LINE
  8
0
 62
4
 10
-1.37698437E+01
 20
2.78654452E+01
 11
-1.37698437E+01
 21
2.47973274E+01
  0
LINE
  8
0
 62
4
 10
-2.52698437E+01
 20
2.82654450E+01
 11
-1.62698437E+01
 21
2.82654452E+01
  0
LINE
  8
0
 62
4
 10
-2.77698436E+01
 20
2.47973272E+01
 11
-2.52698436E+01
 21
2.47973272E+01
  0
LINE
  8
0
 62
4
 10
-1.37698437E+01
 20
2.47973274E+01
 11
-1.62698437E+01
 21
2.47973274E+01
  0
LINE
  8
0
 62
4
 10
-1.62698437E+01
 20
2.78654452E+01
 11
-1.37698437E+01
 21
2.78654452E+01
  0
LINE
  8
0
 62
4
 10
-1.62698437E+01
 20
2.82654452E+01
 11
-1.37698437E+01
 21
2.82654452E+01
  0
LINE
  8
0
 62
4
 10
-1.62698438E+01
 20
3.10654452E+01
 11
-1.37698438E+01
 21
3.10654452E+01
  0
LINE
  8
0
 62
4
 10
-2.77698437E+01
 20
2.78654450E+01
 11
-2.52698437E+01
 21
2.78654450E+01
  0
LINE
  8
0
 62
4
 10
-2.77698437E+01
 20
2.82654450E+01
 11
-2.52698437E+01
 21
2.82654450E+01
  0
LINE
  8
0
 62
4
 10
-2.77698438E+01
 20
3.10654450E+01
 11
-2.52698438E+01
 21
3.10654450E+01
  0
LINE
  8
0
 62
4
 10
-2.52698434E+01
 20
8.11546039E+00
 11
-1.62698434E+01
 21
8.11546054E+00
  0
LINE
  8
0
 62
4
 10
-1.37698438E+01
 20
3.10654452E+01
 11
-1.37698437E+01
 21
2.82654452E+01
  0
LINE
  8
0
 62
4
 10
-2.77698438E+01
 20
3.10654450E+01
 11
-2.77698437E+01
 21
2.82654450E+01
  0
LINE
  8
0
 62
4
 10
-3.32698437E+01
 20
2.90654449E+01
 11
-3.22698438E+01
 21
3.00654449E+01
  0
LINE
  8
0
 62
4
 10
-3.32698437E+01
 20
2.90654449E+01
 11
-3.32698437E+01
 21
2.70654449E+01
  0
LINE
  8
0
 62
4
 10
-3.22698437E+01
 20
2.60654449E+01
 11
-2.77698437E+01
 21
2.60654450E+01
  0
LINE
  8
0
 62
4
 10
-3.22698438E+01
 20
3.00654449E+01
 11
-2.77698438E+01
 21
3.00654450E+01
  0
LINE
  8
0
 62
4
 10
-3.32698437E+01
 20
2.70654449E+01
 11
-3.22698437E+01
 21
2.60654449E+01
  0
LINE
  8
0
 62
4
 10
-3.22698438E+01
 20
3.00654449E+01
 11
-3.22698437E+01
 21
2.60654449E+01
  0
LINE
  8
0
 62
4
 10
-1.62698437E+01
 20
2.79654452E+01
 11
-1.62698434E+01
 21
8.11546054E+00
  0
LINE
  8
0
 62
4
 10
-2.52698437E+01
 20
2.79654450E+01
 11
-2.52698434E+01
 21
8.11546039E+00
  0
LINE
  8
0
 62
4
 10
-8.26984376E+00
 20
3.00654453E+01
 11
-5.26984375E+00
 21
2.93654454E+01
  0
LINE
  8
0
 62
4
 10
-8.26984369E+00
 20
2.60654453E+01
 11
-5.26984371E+00
 21
2.67654454E+01
  0
LINE
  8
0
 62
4
 10
-8.26984376E+00
 20
3.00654453E+01
 11
-8.26984369E+00
 21
2.60654453E+01
  0
LINE
  8
0
 62
6
 10
-3.32844672E-01
 20
2.93654455E+01
 11
-2.93284463E+00
 21
2.67654454E+01
  0
LINE
  8
0
 62
4
 10
-5.26984371E+00
 20
2.67654454E+01
 11
-2.93284463E+00
 21
2.67654454E+01
  0
LINE
  8
0
 62
4
 10
-5.26984375E+00
 20
2.93654454E+01
 11
-5.26984371E+00
 21
2.67654454E+01
  0
LINE
  8
0
 62
4
 10
-5.26984376E+00
 20
2.93654454E+01
 11
-3.32844672E-01
 21
2.93654455E+01
  0
LINE
  8
0
 62
4
 10
2.82301534E+01
 20
3.00558085E+01
 11
3.37301534E+01
 21
3.00558085E+01
  0
LINE
  8
0
 62
4
 10
2.82301534E+01
 20
2.60558085E+01
 11
3.37301534E+01
 21
2.60558085E+01
  0
LINE
  8
0
 62
4
 10
1.42301534E+01
 20
2.78558082E+01
 11
1.42301535E+01
 21
2.47876904E+01
  0
LINE
  8
0
 62
4
 10
2.82301534E+01
 20
2.78558085E+01
 11
2.82301535E+01
 21
2.47876906E+01
  0
LINE
  8
0
 62
4
 10
1.67301534E+01
 20
2.82558083E+01
 11
2.57301534E+01
 21
2.82558084E+01
  0
LINE
  8
0
 62
4
 10
1.42301535E+01
 20
2.47876904E+01
 11
1.67301535E+01
 21
2.47876904E+01
  0
LINE
  8
0
 62
4
 10
2.82301534E+01
 20
2.47876906E+01
 11
2.57301534E+01
 21
2.47876906E+01
  0
LINE
  8
0
 62
4
 10
2.57301534E+01
 20
2.78558084E+01
 11
2.82301534E+01
 21
2.78558085E+01
  0
LINE
  8
0
 62
4
 10
2.57301534E+01
 20
2.82558084E+01
 11
2.82301534E+01
 21
2.82558085E+01
  0
LINE
  8
0
 62
4
 10
2.57301534E+01
 20
3.10558084E+01
 11
2.82301534E+01
 21
3.10558085E+01
  0
LINE
  8
0
 62
4
 10
1.42301534E+01
 20
2.78558082E+01
 11
1.67301534E+01
 21
2.78558083E+01
  0
LINE
  8
0
 62
4
 10
1.42301534E+01
 20
2.82558082E+01
 11
1.67301534E+01
 21
2.82558083E+01
  0
LINE
  8
0
 62
4
 10
1.42301534E+01
 20
3.10558082E+01
 11
1.67301534E+01
 21
3.10558083E+01
  0
LINE
  8
0
 62
4
 10
1.67301537E+01
 20
8.10582361E+00
 11
2.57301538E+01
 21
8.10582376E+00
  0
LINE
  8
0
 62
4
 10
2.82301534E+01
 20
3.10558085E+01
 11
2.82301534E+01
 21
2.82558085E+01
  0
LINE
  8
0
 62
4
 10
1.42301534E+01
 20
3.10558082E+01
 11
1.42301534E+01
 21
2.82558082E+01
  0
LINE
  8
0
 62
4
 10
8.73015339E+00
 20
2.90558081E+01
 11
9.73015338E+00
 21
3.00558081E+01
  0
LINE
  8
0
 62
4
 10
8.73015339E+00
 20
2.90558081E+01
 11
8.73015343E+00
 21
2.70558081E+01
  0
LINE
  8
0
 62
4
 10
9.73015345E+00
 20
2.60558081E+01
 11
1.42301534E+01
 21
2.60558082E+01
  0
LINE
  8
0
 62
4
 10
9.73015338E+00
 20
3.00558081E+01
 11
1.42301534E+01
 21
3.00558082E+01
  0
LINE
  8
0
 62
4
 10
8.73015343E+00
 20
2.70558081E+01
 11
9.73015345E+00
 21
2.60558081E+01
  0
LINE
  8
0
 62
4
 10
9.73015338E+00
 20
3.00558081E+01
 11
9.73015345E+00
 21
2.60558081E+01
  0
LINE
  8
0
 62
4
 10
2.57301534E+01
 20
2.79558084E+01
 11
2.57301538E+01
 21
8.10582376E+00
  0
LINE
  8
0
 62
4
 10
1.67301534E+01
 20
2.79558083E+01
 11
1.67301538E+01
 21
8.10582361E+00
  0
LINE
  8
0
 62
4
 10
3.37301534E+01
 20
3.00558085E+01
 11
3.67301534E+01
 21
2.93558086E+01
  0
LINE
  8
0
 62
4
 10
3.37301534E+01
 20
2.60558085E+01
 11
3.67301534E+01
 21
2.67558086E+01
  0
LINE
  8
0
 62
4
 10
3.37301534E+01
 20
3.00558085E+01
 11
3.37301534E+01
 21
2.60558085E+01
  0
LINE
  8
0
 62
6
 10
4.16671525E+01
 20
2.93558087E+01
 11
3.90671525E+01
 21
2.67558086E+01
  0
LINE
  8
0
 62
4
 10
3.67301534E+01
 20
2.67558086E+01
 11
3.90671525E+01
 21
2.67558086E+01
  0
LINE
  8
0
 62
4
 10
3.67301534E+01
 20
2.93558086E+01
 11
3.67301534E+01
 21
2.67558086E+01
  0
LINE
  8
0
 62
4
 10
3.67301534E+01
 20
2.93558086E+01
 11
4.16671525E+01
 21
2.93558087E+01
  0
ARC
  8
0
 62
4
 10
-1.92715095E+01
 20
3.62637795E+01
 40
1.00166704E+00
 50
9.52772732E-02
 51
8.99047248E+01
  0
ARC
  8
0
 62
4
 10
-2.22690524E+01
 20
3.62646536E+01
 40
1.00079180E+00
 50
9.00000002E+01
 51
1.79954688E+02
  0
LINE
  8
0
 62
6
 10
-2.19998439E+01
 20
3.57654451E+01
 11
-2.19998438E+01
 21
3.47654451E+01
  0
LINE
  8
0
 62
6
 10
-1.95398439E+01
 20
3.57654451E+01
 11
-1.95398438E+01
 21
3.47654451E+01
  0
LINE
  8
0
 62
4
 10
-2.22698439E+01
 20
3.57654451E+01
 11
-2.22698438E+01
 21
3.47654451E+01
  0
LINE
  8
0
 62
4
 10
-1.92698439E+01
 20
3.57654451E+01
 11
-1.92698438E+01
 21
3.47654451E+01
  0
LINE
  8
0
 62
4
 10
-2.22698439E+01
 20
3.72654451E+01
 11
-1.92698439E+01
 21
3.72654451E+01
  0
LINE
  8
0
 62
4
 10
-2.32698439E+01
 20
3.57654451E+01
 11
-1.82698439E+01
 21
3.57654452E+01
  0
LINE
  8
0
 62
4
 10
-2.52698438E+01
 20
3.47654450E+01
 11
-1.62698438E+01
 21
3.47654452E+01
  0
LINE
  8
0
 62
4
 10
-1.82698439E+01
 20
3.62654452E+01
 11
-1.82698439E+01
 21
3.57654452E+01
  0
LINE
  8
0
 62
4
 10
-2.32698439E+01
 20
3.62654451E+01
 11
-2.32698439E+01
 21
3.57654451E+01
  0
ARC
  8
0
 62
4
 10
2.27284876E+01
 20
3.62541427E+01
 40
1.00166704E+00
 50
9.52772732E-02
 51
8.99047248E+01
  0
ARC
  8
0
 62
4
 10
1.97309448E+01
 20
3.62550168E+01
 40
1.00079180E+00
 50
9.00000002E+01
 51
1.79954688E+02
  0
LINE
  8
0
 62
6
 10
2.00001533E+01
 20
3.57558083E+01
 11
2.00001533E+01
 21
3.47558083E+01
  0
LINE
  8
0
 62
6
 10
2.24601533E+01
 20
3.57558084E+01
 11
2.24601533E+01
 21
3.47558084E+01
  0
LINE
  8
0
 62
4
 10
1.97301533E+01
 20
3.57558083E+01
 11
1.97301533E+01
 21
3.47558083E+01
  0
LINE
  8
0
 62
4
 10
2.27301533E+01
 20
3.57558084E+01
 11
2.27301533E+01
 21
3.47558084E+01
  0
LINE
  8
0
 62
4
 10
1.97301533E+01
 20
3.72558083E+01
 11
2.27301533E+01
 21
3.72558084E+01
  0
LINE
  8
0
 62
4
 10
1.87301533E+01
 20
3.57558083E+01
 11
2.37301533E+01
 21
3.57558084E+01
  0
LINE
  8
0
 62
4
 10
1.67301533E+01
 20
3.47558083E+01
 11
2.57301533E+01
 21
3.47558084E+01
  0
LINE
  8
0
 62
4
 10
2.37301533E+01
 20
3.62558084E+01
 11
2.37301533E+01
 21
3.57558084E+01
  0
LINE
  8
0
 62
4
 10
1.87301533E+01
 20
3.62558083E+01
 11
1.87301533E+01
 21
3.57558083E+01
  0
LINE
  8
0
 62
4
 10
-7.13028941E+01
 20
1.90370049E+01
 11
-6.83028941E+01
 21
1.90370050E+01
  0
LINE
  8
0
 62
7
 10
-3.80198435E+01
 20
1.25228034E+01
 11
-3.80198434E+01
 21
8.26544291E+00
  0
LINE
  8
0
 62
7
 10
-4.92698435E+01
 20
1.67654446E+01
 11
-4.92698436E+01
 21
2.27654465E+01
  0
LINE
  8
0
 62
4
 10
-7.13028941E+01
 20
2.12654462E+01
 11
-6.83029018E+01
 21
2.12654462E+01
  0
LINE
  8
0
 62
7
 10
-3.62698434E+01
 20
8.26544294E+00
 11
-2.52698434E+01
 21
8.26544313E+00
  0
LINE
  8
0
 62
7
 10
-5.57698290E+01
 20
1.17654540E+01
 11
-5.47698279E+01
 21
1.07654530E+01
  0
LINE
  8
0
 62
4
 10
-6.78028941E+01
 20
2.01512246E+01
 11
-6.78028940E+01
 21
1.33796602E+01
  0
LINE
  8
0
 62
7
 10
-4.77698434E+01
 20
8.26544274E+00
 11
-3.62698434E+01
 21
8.26544294E+00
  0
LINE
  8
0
 62
7
 10
-4.60198435E+01
 20
1.25228032E+01
 11
-3.80198435E+01
 21
1.25228034E+01
  0
LINE
  8
0
 62
7
 10
-5.47698206E+01
 20
1.67654445E+01
 11
-5.47698207E+01
 21
2.27654445E+01
  0
LINE
  8
0
 62
7
 10
-5.88999705E+01
 20
1.97676665E+01
 11
-5.57698436E+01
 21
1.97676666E+01
  0
LINE
  8
0
 62
2
 10
-5.53698421E+01
 20
2.21654460E+01
 11
-4.92698436E+01
 21
2.21654462E+01
  0
LINE
  8
0
 62
4
 10
-7.13028940E+01
 20
1.22654443E+01
 11
-6.83028940E+01
 21
1.22654443E+01
  0
LINE
  8
0
 62
7
 10
-5.47698434E+01
 20
1.07654426E+01
 11
-4.77698434E+01
 21
1.07654427E+01
  0
LINE
  8
0
 62
7
 10
-5.88999761E+01
 20
1.37632233E+01
 11
-5.97698469E+01
 21
1.42654434E+01
  0
LINE
  8
0
 62
7
 10
-6.07698436E+01
 20
1.92654444E+01
 11
-6.07698435E+01
 21
1.42654425E+01
  0
LINE
  8
0
 62
7
 10
-5.47698436E+01
 20
2.27654464E+01
 11
-4.77698436E+01
 21
2.27654466E+01
  0
LINE
  8
0
 62
7
 10
-5.47698206E+01
 20
1.67654445E+01
 11
-5.47698205E+01
 21
1.07654445E+01
  0
LINE
  8
0
 62
7
 10
-6.78028940E+01
 20
1.42654424E+01
 11
-5.97698435E+01
 21
1.42654425E+01
  0
LINE
  8
0
 62
7
 10
-5.57698434E+01
 20
1.17654684E+01
 11
-5.57698436E+01
 21
2.17654388E+01
  0
LINE
  8
0
 62
4
 10
-7.18028941E+01
 20
2.01512246E+01
 11
-7.18028940E+01
 21
1.33796601E+01
  0
LINE
  8
0
 62
2
 10
-5.53698419E+01
 20
1.13654430E+01
 11
-4.92698434E+01
 21
1.13654431E+01
  0
LINE
  8
0
 62
7
 10
-5.57698372E+01
 20
2.17654350E+01
 11
-5.47698362E+01
 21
2.27654361E+01
  0
LINE
  8
0
 62
7
 10
-4.92698435E+01
 20
1.67654446E+01
 11
-4.92698434E+01
 21
1.07654427E+01
  0
LINE
  8
0
 62
2
 10
-6.78028940E+01
 20
1.46654420E+01
 11
-6.07698435E+01
 21
1.46654421E+01
  0
LINE
  8
0
 62
4
 10
-7.13028940E+01
 20
1.44938798E+01
 11
-6.83028940E+01
 21
1.44938798E+01
  0
LINE
  8
0
 62
7
 10
-5.97698435E+01
 20
1.42654444E+01
 11
-5.97698436E+01
 21
1.92654464E+01
  0
LINE
  8
0
 62
7
 10
-4.60198435E+01
 20
1.25228032E+01
 11
-4.60198434E+01
 21
8.26544277E+00
  0
LINE
  8
0
 62
7
 10
-5.88999704E+01
 20
1.37632224E+01
 11
-5.57698435E+01
 21
1.37632225E+01
  0
LINE
  8
0
 62
7
 10
-3.80198436E+01
 20
2.10080863E+01
 11
-3.80198437E+01
 21
2.52654467E+01
  0
LINE
  8
0
 62
7
 10
-4.60198436E+01
 20
2.10080861E+01
 11
-4.60198437E+01
 21
2.52654466E+01
  0
LINE
  8
0
 62
7
 10
-6.78028941E+01
 20
1.92654462E+01
 11
-5.97698436E+01
 21
1.92654464E+01
  0
LINE
  8
0
 62
2
 10
-6.78028941E+01
 20
1.88654466E+01
 11
-6.07698436E+01
 21
1.88654467E+01
  0
LINE
  8
0
 62
7
 10
-5.88999705E+01
 20
1.82665545E+01
 11
-5.57698436E+01
 21
1.82665546E+01
  0
LINE
  8
0
 62
7
 10
-3.62698434E+01
 20
8.26544294E+00
 11
-3.62698437E+01
 21
2.52654468E+01
  0
LINE
  8
0
 62
7
 10
-4.77698437E+01
 20
2.52654466E+01
 11
-3.62698437E+01
 21
2.52654468E+01
  0
LINE
  8
0
 62
7
 10
-3.62698437E+01
 20
2.52654468E+01
 11
-2.77698437E+01
 21
2.52654469E+01
  0
LINE
  8
0
 62
7
 10
-4.60198436E+01
 20
2.10080861E+01
 11
-3.80198436E+01
 21
2.10080863E+01
  0
LINE
  8
0
 62
7
 10
-5.88999705E+01
 20
1.52643344E+01
 11
-5.57698435E+01
 21
1.52643344E+01
  0
LINE
  8
0
 62
7
 10
-4.77698434E+01
 20
8.26544274E+00
 11
-4.77698437E+01
 21
2.52654466E+01
  0
LINE
  8
0
 62
7
 10
-5.88999737E+01
 20
1.97676640E+01
 11
-5.97698445E+01
 21
1.92654438E+01
  0
LINE
  8
0
  6
CENTER
 62
2
 10
5.37301535E+01
 20
2.52654464E+01
 11
5.37301537E+01
 21
8.26544639E+00
  0
LINE
  8
0
 62
7
 10
6.17301544E+01
 20
2.52654465E+01
 11
6.17301547E+01
 21
8.26544652E+00
  0
LINE
  8
0
 62
7
 10
5.99801544E+01
 20
2.52654465E+01
 11
5.99801545E+01
 21
2.10080879E+01
  0
LINE
  8
0
 62
7
 10
3.47301535E+01
 20
2.52654461E+01
 11
3.47301537E+01
 21
8.26544606E+00
  0
LINE
  8
0
 62
7
 10
3.47301537E+01
 20
8.26544606E+00
 11
6.17301547E+01
 21
8.26544652E+00
  0
LINE
  8
0
 62
7
 10
3.64801537E+01
 20
1.25228066E+01
 11
5.99801546E+01
 21
1.25228070E+01
  0
LINE
  8
0
 62
7
 10
3.64801535E+01
 20
2.10080875E+01
 11
5.99801545E+01
 21
2.10080879E+01
  0
LINE
  8
0
 62
7
 10
3.47301535E+01
 20
2.52654461E+01
 11
6.17301544E+01
 21
2.52654465E+01
  0
LINE
  8
0
 62
7
 10
5.99801546E+01
 20
1.25228070E+01
 11
5.99801547E+01
 21
8.26544649E+00
  0
ARC
  8
0
 62
7
 10
-4.17519831E+01
 20
1.67654448E+01
 40
6.01785851E+00
 50
1.35169813E+02
 51
1.80000033E+02
  0
ARC
  8
0
 62
4
 10
-6.92943797E+01
 20
2.01512246E+01
 40
1.49148333E+00
 50
9.78926605E-07
 51
4.83357744E+01
  0
ARC
  8
0
 62
4
 10
-6.63928980E+01
 20
1.67654443E+01
 40
5.40999651E+00
 50
1.79999979E+02
 51
2.04827088E+02
  0
ARC
  8
0
 62
4
 10
-6.92943796E+01
 20
1.33796601E+01
 40
1.49148333E+00
 50
9.78926537E-07
 51
4.83357744E+01
  0
ARC
  8
0
 62
4
 10
-7.32128901E+01
 20
1.67654442E+01
 40
5.40999651E+00
 50
9.78926531E-07
 51
2.48271102E+01
  0
ARC
  8
0
 62
4
 10
-6.92943797E+01
 20
2.01512246E+01
 40
1.49148333E+00
 50
3.11664227E+02
 51
9.78926468E-07
  0
ARC
  8
0
 62
4
 10
-7.03114085E+01
 20
2.01512246E+01
 40
1.49148333E+00
 50
1.31664192E+02
 51
1.79999965E+02
  0
ARC
  8
0
 62
4
 10
-6.92943796E+01
 20
1.33796601E+01
 40
1.49148333E+00
 50
3.11664227E+02
 51
9.78926537E-07
  0
ARC
  8
0
 62
4
 10
-7.03114085E+01
 20
2.01512246E+01
 40
1.49148333E+00
 50
1.79999979E+02
 51
2.28335752E+02
  0
ARC
  8
0
 62
4
 10
-7.32128901E+01
 20
1.67654442E+01
 40
5.40999651E+00
 50
3.35172891E+02
 51
9.78926531E-07
  0
ARC
  8
0
 62
4
 10
-7.03114084E+01
 20
1.33796601E+01
 40
1.49148333E+00
 50
1.79999979E+02
 51
2.28335752E+02
  0
ARC
  8
0
 62
4
 10
-7.03114084E+01
 20
1.33796601E+01
 40
1.49148333E+00
 50
1.31664192E+02
 51
1.79999965E+02
  0
ARC
  8
0
 62
4
 10
-6.63928980E+01
 20
1.67654443E+01
 40
5.40999651E+00
 50
1.55172856E+02
 51
1.79999965E+02
  0
ARC
  8
0
 62
7
 10
-4.22877039E+01
 20
1.67654447E+01
 40
6.01785851E+00
 50
9.78926554E-07
 51
4.48302208E+01
  0
ARC
  8
0
 62
7
 10
-4.17519831E+01
 20
1.67654448E+01
 40
6.01785851E+00
 50
1.79999965E+02
 51
2.24830185E+02
  0
ARC
  8
0
 62
7
 10
-4.22877039E+01
 20
1.67654447E+01
 40
6.01785851E+00
 50
3.15169781E+02
 51
9.78926519E-07
  0
ARC
  8
0
 62
7
 10
-5.90465541E+01
 20
1.90171115E+01
 40
7.64734566E-01
 50
1.98949509E+02
 51
2.81050507E+02
  0
ARC
  8
0
 62
7
 10
-5.80396952E+01
 20
1.67654445E+01
 40
1.73014796E+00
 50
1.19816791E+02
 51
2.40183221E+02
  0
ARC
  8
0
 62
7
 10
-5.90465540E+01
 20
1.45137793E+01
 40
7.64734566E-01
 50
7.89495018E+01
 51
1.61050493E+02
  0
CIRCLE
  8
0
 62
7
 10
5.37301536E+01
 20
1.67654464E+01
 40
2.50000000E+00
  0
ARC
  8
0
 62
7
 10
5.57122970E+01
 20
1.67654483E+01
 40
6.01785660E+00
 50
3.15169754E+02
 51
4.48302379E+01
  0
LINE
  8
0
 62
7
 10
-7.52698436E+01
 20
1.92654404E+01
 11
-7.52698435E+01
 21
1.42654404E+01
  0
LINE
  8
0
 62
7
 10
-7.57698314E+01
 20
1.87654261E+01
 11
-7.52698363E+01
 21
1.92654212E+01
  0
LINE
  8
0
 62
7
 10
-7.57698436E+01
 20
1.87654442E+01
 11
-7.57698435E+01
 21
1.47654442E+01
  0
LINE
  8
0
 62
7
 10
-7.57698314E+01
 20
1.47654434E+01
 11
-7.52698308E+01
 21
1.42654429E+01
  0
LINE
  8
0
 62
4
 10
-1.05564718E+02
 20
2.72876843E+01
 11
-1.05422116E+02
 21
2.72411582E+01
  0
LINE
  8
0
 62
4
 10
-9.88490073E+01
 20
2.70654484E+01
 11
-9.78490073E+01
 21
2.60654484E+01
  0
LINE
  8
0
 62
4
 10
-1.01949007E+02
 20
2.60654484E+01
 11
-1.00949007E+02
 21
2.70654484E+01
  0
LINE
  8
0
 62
4
 10
-9.78490073E+01
 20
3.00654484E+01
 11
-9.88490073E+01
 21
2.90654484E+01
  0
LINE
  8
0
 62
4
 10
-1.01949007E+02
 20
3.00654484E+01
 11
-1.00949007E+02
 21
2.90654484E+01
  0
LINE
  8
0
 62
4
 10
-9.88490073E+01
 20
2.90654484E+01
 11
-9.88490073E+01
 21
2.70654484E+01
  0
LINE
  8
0
 62
4
 10
-9.88490073E+01
 20
2.70654484E+01
 11
-1.00949007E+02
 21
2.70654484E+01
  0
LINE
  8
0
 62
4
 10
-1.00949007E+02
 20
2.90654484E+01
 11
-1.00949007E+02
 21
2.70654484E+01
  0
LINE
  8
0
 62
4
 10
-9.88490073E+01
 20
2.90654484E+01
 11
-1.00949007E+02
 21
2.90654484E+01
  0
ARC
  8
0
 62
4
 10
-9.98990073E+01
 20
1.67654484E+01
 40
8.65000000E+00
 50
2.59314255E+02
 51
2.80685745E+02
  0
ARC
  8
0
 62
4
 10
-9.98990073E+01
 20
1.67654484E+01
 40
8.65000000E+00
 50
3.49314255E+02
 51
1.06857449E+01
  0
LINE
  8
0
 62
4
 10
-9.83990073E+01
 20
3.20654484E+01
 11
-9.86990073E+01
 21
3.17654484E+01
  0
LINE
  8
0
 62
4
 10
-1.01399007E+02
 20
3.20654484E+01
 11
-1.01099007E+02
 21
3.17654484E+01
  0
LINE
  8
0
 62
4
 10
-9.88990073E+01
 20
2.57654484E+01
 11
-1.00899007E+02
 21
2.57654484E+01
  0
LINE
  8
0
 62
4
 10
-1.06805399E+02
 20
2.34850099E+01
 11
-1.07280739E+02
 21
2.36400968E+01
  0
LINE
  8
0
 62
4
 10
-1.04824007E+02
 20
3.11699525E+01
 11
-1.07280739E+02
 21
2.36400968E+01
  0
LINE
  8
0
 62
4
 10
-1.05422116E+02
 20
2.72411582E+01
 11
-1.06663061E+02
 21
2.34376744E+01
  0
LINE
  8
0
 62
4
 10
-1.04324007E+02
 20
3.10904484E+01
 11
-1.06903068E+02
 21
2.31856563E+01
  0
LINE
  8
0
 62
4
 10
-9.63990073E+01
 20
2.82654484E+01
 11
-9.42539935E+01
 21
2.44104677E+01
  0
LINE
  8
0
 62
4
 10
-9.65490073E+01
 20
2.82654484E+01
 11
-9.45202702E+01
 21
2.46000950E+01
  0
ARC
  8
0
 62
4
 10
-9.98990073E+01
 20
1.67654484E+01
 40
8.65000000E+00
 50
1.69314255E+02
 51
1.90685745E+02
  0
LINE
  8
0
 62
4
 10
-9.63990073E+01
 20
3.47654484E+01
 11
-1.03399007E+02
 21
3.47654484E+01
  0
LINE
  8
0
 62
4
 10
-1.03399007E+02
 20
3.34654484E+01
 11
-1.03399007E+02
 21
2.75654484E+01
  0
LINE
  8
0
 62
4
 10
-9.63990073E+01
 20
3.34654484E+01
 11
-9.63990073E+01
 21
2.82654484E+01
  0
LINE
  8
0
 62
4
 10
-1.04199007E+02
 20
2.97632262E+01
 11
-1.04668526E+02
 21
3.00345035E+01
  0
LINE
  8
0
 62
4
 10
-1.04899007E+02
 20
3.30654484E+01
 11
-1.04899007E+02
 21
3.13804484E+01
  0
LINE
  8
0
 62
4
 10
-1.04899007E+02
 20
3.30654484E+01
 11
-1.05699007E+02
 21
3.30654484E+01
  0
LINE
  8
0
 62
4
 10
-1.02184007E+02
 20
3.39654484E+01
 11
-1.02044007E+02
 21
3.31654484E+01
  0
LINE
  8
0
 62
4
 10
-9.76140073E+01
 20
3.39654484E+01
 11
-9.77540073E+01
 21
3.31654484E+01
  0
LINE
  8
0
 62
4
 10
-9.77540073E+01
 20
3.31654484E+01
 11
-1.02044007E+02
 21
3.31654484E+01
  0
LINE
  8
0
 62
6
 10
-1.01129007E+02
 20
3.52654484E+01
 11
-1.01129007E+02
 21
3.47654484E+01
  0
LINE
  8
0
 62
6
 10
-9.86690073E+01
 20
3.52654484E+01
 11
-9.86690073E+01
 21
3.47654484E+01
  0
LINE
  8
0
 62
4
 10
-9.55990073E+01
 20
3.39654484E+01
 11
-9.55990073E+01
 21
2.82654484E+01
  0
LINE
  8
0
 62
4
 10
-1.04199007E+02
 20
2.75654484E+01
 11
-1.04199007E+02
 21
3.39654484E+01
  0
LINE
  8
0
 62
4
 10
-9.68990073E+01
 20
3.39654484E+01
 11
-1.02899007E+02
 21
3.39654484E+01
  0
LINE
  8
0
 62
4
 10
-1.05699007E+02
 20
3.30654484E+01
 11
-1.05699007E+02
 21
3.09204484E+01
  0
LINE
  8
0
 62
4
 10
-1.04199007E+02
 20
3.06894484E+01
 11
-1.04413112E+02
 21
3.08136292E+01
  0
LINE
  8
0
 62
4
 10
-9.65490073E+01
 20
3.34654484E+01
 11
-9.65490073E+01
 21
2.82654484E+01
  0
LINE
  8
0
 62
4
 10
-9.63990073E+01
 20
3.34654484E+01
 11
-9.65490073E+01
 21
3.34654484E+01
  0
LINE
  8
0
 62
4
 10
-9.66490073E+01
 20
3.17654484E+01
 11
-1.03149007E+02
 21
3.17654484E+01
  0
LINE
  8
0
 62
4
 10
-9.66490073E+01
 20
3.10654484E+01
 11
-1.03149007E+02
 21
3.10654484E+01
  0
LINE
  8
0
 62
4
 10
-1.04324007E+02
 20
3.35904484E+01
 11
-1.04324007E+02
 21
3.10904484E+01
  0
LINE
  8
0
 62
4
 10
-1.04824007E+02
 20
3.35904484E+01
 11
-1.04824007E+02
 21
3.11699525E+01
  0
LINE
  8
0
 62
4
 10
-1.04324007E+02
 20
3.35904484E+01
 11
-1.04824007E+02
 21
3.35904484E+01
  0
LINE
  8
0
 62
4
 10
-1.01399007E+02
 20
3.57654484E+01
 11
-1.01399007E+02
 21
3.47654484E+01
  0
LINE
  8
0
 62
4
 10
-9.83990073E+01
 20
3.57654484E+01
 11
-9.83990073E+01
 21
3.47654484E+01
  0
LINE
  8
0
 62
4
 10
-9.55990073E+01
 20
2.82654484E+01
 11
-9.63990073E+01
 21
2.82654484E+01
  0
LINE
  8
0
 62
4
 10
-1.03399007E+02
 20
2.75654484E+01
 11
-1.04199007E+02
 21
2.75654484E+01
  0
LINE
  8
0
 62
4
 10
-9.73990073E+01
 20
3.57654484E+01
 11
-1.02399007E+02
 21
3.57654484E+01
  0
LINE
  8
0
 62
4
 10
-9.83990073E+01
 20
3.72654484E+01
 11
-1.01399007E+02
 21
3.72654484E+01
  0
LINE
  8
0
 62
4
 10
-9.73990073E+01
 20
3.62654484E+01
 11
-9.73990073E+01
 21
3.57654484E+01
  0
LINE
  8
0
 62
4
 10
-1.02399007E+02
 20
3.62654484E+01
 11
-1.02399007E+02
 21
3.57654484E+01
  0
LINE
  8
0
 62
4
 10
-9.83990073E+01
 20
3.52654484E+01
 11
-1.01399007E+02
 21
3.52654484E+01
  0
ARC
  8
0
 62
4
 10
-9.63990105E+01
 20
3.39654452E+01
 40
8.00003254E-01
 50
2.33015759E-04
 51
9.00000002E+01
  0
ARC
  8
0
 62
4
 10
-1.03400670E+02
 20
3.39671110E+01
 40
7.98339134E-01
 50
8.98806771E+01
 51
1.80119323E+02
  0
ARC
  8
0
 62
4
 10
-9.68990116E+01
 20
3.34654441E+01
 40
5.00004290E-01
 50
4.91607912E-04
 51
9.00000002E+01
  0
ARC
  8
0
 62
4
 10
-1.02900670E+02
 20
3.34671110E+01
 40
4.98340176E-01
 50
8.98088454E+01
 51
1.80191155E+02
  0
ARC
  8
0
 62
4
 10
-1.05198804E+02
 20
3.09185827E+01
 40
5.00207143E-01
 50
1.79786293E+02
 51
2.39986760E+02
  0
ARC
  8
0
 62
4
 10
-1.04400155E+02
 20
3.13828041E+01
 40
4.98857363E-01
 50
1.80270562E+02
 51
2.09445368E+02
  0
ARC
  8
0
 62
4
 10
-1.01400420E+02
 20
3.62668608E+01
 40
9.98588677E-01
 50
8.99189656E+01
 51
1.80081034E+02
  0
ARC
  8
0
 62
4
 10
-9.83992600E+01
 20
3.62651957E+01
 40
1.00025280E+00
 50
1.44788446E-02
 51
9.00000002E+01
  0
LINE
  8
0
 62
4
 10
-1.03149007E+02
 20
3.17654484E+01
 11
-1.03149007E+02
 21
2.52654484E+01
  0
LINE
  8
0
 62
4
 10
-9.66490073E+01
 20
2.78654484E+01
 11
-9.66490073E+01
 21
2.52654484E+01
  0
LINE
  8
0
 62
4
 10
-9.66490073E+01
 20
2.78654484E+01
 11
-9.78490073E+01
 21
2.78654484E+01
  0
LINE
  8
0
 62
4
 10
-9.66490073E+01
 20
2.82654484E+01
 11
-9.78490073E+01
 21
2.82654484E+01
  0
LINE
  8
0
 62
4
 10
-9.66490073E+01
 20
3.17654484E+01
 11
-9.66490073E+01
 21
2.82654484E+01
  0
LINE
  8
0
 62
4
 10
-9.78490073E+01
 20
2.60654484E+01
 11
-1.01949007E+02
 21
2.60654484E+01
  0
LINE
  8
0
 62
4
 10
-9.78490073E+01
 20
3.00654484E+01
 11
-1.01949007E+02
 21
3.00654484E+01
  0
LINE
  8
0
 62
4
 10
-9.88990073E+01
 20
3.03654484E+01
 11
-1.00899007E+02
 21
3.03654484E+01
  0
LINE
  8
0
 62
4
 10
-9.88990073E+01
 20
3.03654484E+01
 11
-9.88990073E+01
 21
3.00654484E+01
  0
LINE
  8
0
 62
4
 10
-9.88990073E+01
 20
2.60654484E+01
 11
-9.88990073E+01
 21
2.57654484E+01
  0
LINE
  8
0
 62
4
 10
-9.78490073E+01
 20
3.00654484E+01
 11
-9.78490073E+01
 21
2.60654484E+01
  0
LINE
  8
0
 62
4
 10
-1.01949007E+02
 20
3.00654484E+01
 11
-1.01949007E+02
 21
2.60654484E+01
  0
LINE
  8
0
 62
4
 10
-1.00899007E+02
 20
3.03654484E+01
 11
-1.00899007E+02
 21
3.00654484E+01
  0
LINE
  8
0
 62
4
 10
-1.00899007E+02
 20
2.60654484E+01
 11
-1.00899007E+02
 21
2.57654484E+01
  0
LINE
  8
0
 62
4
 10
-9.83990073E+01
 20
3.31654484E+01
 11
-9.83990073E+01
 21
3.20654484E+01
  0
LINE
  8
0
 62
4
 10
-1.01399007E+02
 20
3.31654484E+01
 11
-1.01399007E+02
 21
3.20654484E+01
  0
LINE
  8
0
 62
6
 10
-9.86690073E+01
 20
3.31654484E+01
 11
-9.86690073E+01
 21
3.17954484E+01
  0
LINE
  8
0
 62
6
 10
-1.01129007E+02
 20
3.31654484E+01
 11
-1.01129007E+02
 21
3.17954484E+01
  0
LINE
  8
0
 62
4
 10
-1.05111046E+02
 20
3.02901819E+01
 11
-1.05449007E+02
 21
3.04854484E+01
  0
LINE
  8
0
 62
4
 10
-9.98989987E+01
 20
1.21466393E+01
 11
-9.58989966E+01
 21
1.44560423E+01
  0
LINE
  8
0
 62
4
 10
-1.03899002E+02
 20
1.90748315E+01
 11
-9.98990004E+01
 21
2.13842345E+01
  0
LINE
  8
0
 62
4
 10
-1.03899007E+02
 20
1.90748433E+01
 11
-1.03899007E+02
 21
1.44560460E+01
  0
LINE
  8
0
 62
4
 10
-9.58990073E+01
 20
1.90748490E+01
 11
-9.58990073E+01
 21
1.44560421E+01
  0
LINE
  8
0
 62
4
 10
-1.03898995E+02
 20
1.44560010E+01
 11
-9.98989926E+01
 21
1.21465987E+01
  0
LINE
  8
0
 62
4
 10
-9.98990172E+01
 20
2.13842127E+01
 11
-9.58990278E+01
 21
1.90748180E+01
  0
LINE
  8
0
 62
7
 10
-1.04141645E+02
 20
8.26544843E+00
 11
-9.56563696E+01
 21
8.26544843E+00
  0
LINE
  8
0
 62
7
 10
-1.04141645E+02
 20
2.52654484E+01
 11
-9.56563696E+01
 21
2.52654484E+01
  0
LINE
  8
0
  6
CENTER
 62
2
 10
-1.09262098E+02
 20
1.67654484E+01
 11
-9.01647467E+01
 21
1.67654484E+01
  0
LINE
  8
0
  6
CENTER
 62
2
 10
-9.98990073E+01
 20
3.83388294E+01
 11
-9.98990073E+01
 21
7.38904462E+00
  0
LINE
  8
0
 62
7
 10
-1.08399007E+02
 20
2.10080899E+01
 11
-1.08399007E+02
 21
1.25228079E+01
  0
LINE
  8
0
 62
7
 10
-9.13990073E+01
 20
2.10080899E+01
 11
-9.13990073E+01
 21
1.25228079E+01
  0
CIRCLE
  8
0
 62
7
 10
-9.98990073E+01
 20
1.67654484E+01
 40
2.50000000E+00
  0
CIRCLE
  8
0
 62
2
 10
-9.98990073E+01
 20
1.67654484E+01
 40
2.10000000E+00
  0
CIRCLE
  8
0
 62
4
 10
-9.98990073E+01
 20
1.67654484E+01
 40
4.00000000E+00
  0
CIRCLE
  8
0
 62
7
 10
-9.98990073E+01
 20
1.67654484E+01
 40
6.00000000E+00
  0
ARC
  8
0
 62
7
 10
-9.98990073E+01
 20
1.67654484E+01
 40
9.50000000E+00
 50
2.65253521E+01
 51
6.34746486E+01
  0
ARC
  8
0
 62
7
 10
-9.98990073E+01
 20
1.67654484E+01
 40
9.50000000E+00
 50
1.16525349E+02
 51
1.53474651E+02
  0
ARC
  8
0
 62
7
 10
-9.98990073E+01
 20
1.67654484E+01
 40
9.50000000E+00
 50
2.06525349E+02
 51
2.43474651E+02
  0
ARC
  8
0
 62
7
 10
-9.98990073E+01
 20
1.67654484E+01
 40
9.50000000E+00
 50
2.96525352E+02
 51
3.33474648E+02
  0
CIRCLE
  8
0
 62
2
 10
-9.98990073E+01
 20
1.67654484E+01
 40
5.50000000E+00
  0
CIRCLE
  8
0
 62
7
 10
-9.98990073E+01
 20
1.67654484E+01
 40
8.50000000E+00
  0
LINE
  8
0
  6
CENTER
 62
2
 10
9.35426546E+01
 20
6.42544843E+00
 11
9.35426546E+01
 21
3.96926677E+01
  0
ARC
  8
0
 62
4
 10
9.35426546E+01
 20
1.67654484E+01
 40
8.65000000E+00
 50
3.49314256E+02
 51
1.06857436E+01
  0
ARC
  8
0
 62
4
 10
9.35426546E+01
 20
1.67654484E+01
 40
8.65000000E+00
 50
2.59314255E+02
 51
2.80685745E+02
  0
LINE
  8
0
 62
4
 10
9.20426546E+01
 20
3.20654484E+01
 11
9.23426546E+01
 21
3.17654484E+01
  0
LINE
  8
0
 62
4
 10
9.50426546E+01
 20
3.20654484E+01
 11
9.47426546E+01
 21
3.17654484E+01
  0
LINE
  8
0
 62
4
 10
9.25426546E+01
 20
2.57654484E+01
 11
9.45426546E+01
 21
2.57654484E+01
  0
LINE
  8
0
 62
4
 10
9.22426546E+01
 20
2.67654484E+01
 11
9.48426546E+01
 21
2.67654484E+01
  0
LINE
  8
0
 62
4
 10
9.22426546E+01
 20
2.67654484E+01
 11
9.14926546E+01
 21
2.60654484E+01
  0
LINE
  8
0
 62
4
 10
1.00449046E+02
 20
2.34850099E+01
 11
1.00924386E+02
 21
2.36400968E+01
  0
LINE
  8
0
 62
4
 10
9.92083503E+01
 20
2.72877291E+01
 11
9.90657484E+01
 21
2.72412031E+01
  0
LINE
  8
0
 62
4
 10
9.84676546E+01
 20
3.11699525E+01
 11
1.00924386E+02
 21
2.36400968E+01
  0
LINE
  8
0
 62
4
 10
9.90657630E+01
 20
2.72411582E+01
 11
1.00309853E+02
 21
2.34280366E+01
  0
LINE
  8
0
 62
4
 10
9.79676546E+01
 20
3.10904484E+01
 11
1.00549782E+02
 21
2.31762556E+01
  0
LINE
  8
0
 62
4
 10
9.00426546E+01
 20
2.82654484E+01
 11
8.78935685E+01
 21
2.44031490E+01
  0
LINE
  8
0
 62
4
 10
9.01926546E+01
 20
2.82654484E+01
 11
8.81599312E+01
 21
2.45928930E+01
  0
ARC
  8
0
 62
4
 10
9.35426546E+01
 20
1.67654484E+01
 40
8.65000000E+00
 50
1.69314255E+02
 51
1.90685745E+02
  0
CIRCLE
  8
0
 62
4
 10
9.35426546E+01
 20
2.80654484E+01
 40
1.30000000E+00
  0
LINE
  8
0
 62
4
 10
9.00426546E+01
 20
3.47654484E+01
 11
9.70426546E+01
 21
3.47654484E+01
  0
LINE
  8
0
 62
4
 10
9.70426546E+01
 20
3.34654484E+01
 11
9.70426546E+01
 21
2.75654484E+01
  0
LINE
  8
0
 62
4
 10
9.00426546E+01
 20
3.34654484E+01
 11
9.00426546E+01
 21
2.82654484E+01
  0
LINE
  8
0
 62
4
 10
9.78426546E+01
 20
2.97632262E+01
 11
9.83121729E+01
 21
3.00345035E+01
  0
LINE
  8
0
 62
4
 10
9.85426546E+01
 20
3.30654484E+01
 11
9.85426546E+01
 21
3.13804484E+01
  0
LINE
  8
0
 62
4
 10
9.85426546E+01
 20
3.30654484E+01
 11
9.93426546E+01
 21
3.30654484E+01
  0
LINE
  8
0
 62
4
 10
9.58276546E+01
 20
3.39654484E+01
 11
9.56876546E+01
 21
3.31654484E+01
  0
LINE
  8
0
 62
4
 10
9.12576546E+01
 20
3.39654484E+01
 11
9.13976546E+01
 21
3.31654484E+01
  0
LINE
  8
0
 62
4
 10
9.13976546E+01
 20
3.31654484E+01
 11
9.56876546E+01
 21
3.31654484E+01
  0
LINE
  8
0
 62
6
 10
9.47726546E+01
 20
3.52654484E+01
 11
9.47726546E+01
 21
3.47654484E+01
  0
LINE
  8
0
 62
6
 10
9.23126546E+01
 20
3.52654484E+01
 11
9.23126546E+01
 21
3.47654484E+01
  0
LINE
  8
0
 62
4
 10
8.92426546E+01
 20
3.39654484E+01
 11
8.92426546E+01
 21
2.82654484E+01
  0
LINE
  8
0
 62
4
 10
9.78426546E+01
 20
2.75654484E+01
 11
9.78426546E+01
 21
3.39654484E+01
  0
LINE
  8
0
 62
4
 10
9.05426546E+01
 20
3.39654484E+01
 11
9.65426546E+01
 21
3.39654484E+01
  0
LINE
  8
0
 62
4
 10
9.93426546E+01
 20
3.30654484E+01
 11
9.93426546E+01
 21
3.09204484E+01
  0
LINE
  8
0
 62
4
 10
9.78426546E+01
 20
3.06894484E+01
 11
9.80567593E+01
 21
3.08136292E+01
  0
LINE
  8
0
 62
4
 10
9.01926546E+01
 20
3.34654484E+01
 11
9.01926546E+01
 21
2.82654484E+01
  0
LINE
  8
0
 62
4
 10
9.00426546E+01
 20
3.34654484E+01
 11
9.01926546E+01
 21
3.34654484E+01
  0
LINE
  8
0
 62
4
 10
9.02926546E+01
 20
3.17654484E+01
 11
9.67926546E+01
 21
3.17654484E+01
  0
LINE
  8
0
 62
4
 10
9.02926546E+01
 20
3.10654484E+01
 11
9.67926546E+01
 21
3.10654484E+01
  0
LINE
  8
0
 62
4
 10
9.79676546E+01
 20
3.35904484E+01
 11
9.79676546E+01
 21
3.10904484E+01
  0
LINE
  8
0
 62
4
 10
9.84676546E+01
 20
3.35904484E+01
 11
9.84676546E+01
 21
3.11699525E+01
  0
LINE
  8
0
 62
4
 10
9.79676546E+01
 20
3.35904484E+01
 11
9.84676546E+01
 21
3.35904484E+01
  0
LINE
  8
0
 62
4
 10
9.50426546E+01
 20
3.57654484E+01
 11
9.50426546E+01
 21
3.47654484E+01
  0
LINE
  8
0
 62
4
 10
9.20426546E+01
 20
3.57654484E+01
 11
9.20426546E+01
 21
3.47654484E+01
  0
LINE
  8
0
 62
4
 10
8.92426546E+01
 20
2.82654484E+01
 11
9.00426546E+01
 21
2.82654484E+01
  0
LINE
  8
0
 62
4
 10
9.70426546E+01
 20
2.75654484E+01
 11
9.78426546E+01
 21
2.75654484E+01
  0
LINE
  8
0
 62
4
 10
9.10426546E+01
 20
3.57654484E+01
 11
9.60426546E+01
 21
3.57654484E+01
  0
LINE
  8
0
 62
4
 10
9.20426546E+01
 20
3.72654484E+01
 11
9.50426546E+01
 21
3.72654484E+01
  0
LINE
  8
0
 62
4
 10
9.10426546E+01
 20
3.62654484E+01
 11
9.10426546E+01
 21
3.57654484E+01
  0
LINE
  8
0
 62
4
 10
9.60426546E+01
 20
3.62654484E+01
 11
9.60426546E+01
 21
3.57654484E+01
  0
LINE
  8
0
 62
4
 10
9.20426546E+01
 20
3.52654484E+01
 11
9.50426546E+01
 21
3.52654484E+01
  0
ARC
  8
0
 62
4
 10
9.00426578E+01
 20
3.39654452E+01
 40
8.00003254E-01
 50
9.00000002E+01
 51
1.79999767E+02
  0
ARC
  8
0
 62
4
 10
9.70443172E+01
 20
3.39671110E+01
 40
7.98339134E-01
 50
3.59880678E+02
 51
9.01193227E+01
  0
ARC
  8
0
 62
4
 10
9.05426588E+01
 20
3.34654441E+01
 40
5.00004290E-01
 50
9.00000002E+01
 51
1.79999508E+02
  0
ARC
  8
0
 62
4
 10
9.65443172E+01
 20
3.34671110E+01
 40
4.98340176E-01
 50
3.59808845E+02
 51
9.01911544E+01
  0
ARC
  8
0
 62
4
 10
9.88424509E+01
 20
3.09185827E+01
 40
5.00207143E-01
 50
3.00013240E+02
 51
2.13706628E-01
  0
ARC
  8
0
 62
4
 10
9.80438028E+01
 20
3.13828041E+01
 40
4.98857363E-01
 50
3.30554632E+02
 51
3.59729437E+02
  0
ARC
  8
0
 62
4
 10
9.50440669E+01
 20
3.62668608E+01
 40
9.98588677E-01
 50
3.59918966E+02
 51
9.00810348E+01
  0
ARC
  8
0
 62
4
 10
9.20429073E+01
 20
3.62651957E+01
 40
1.00025280E+00
 50
9.00000002E+01
 51
1.79985521E+02
  0
LINE
  8
0
 62
4
 10
9.67926546E+01
 20
3.17654484E+01
 11
9.67926546E+01
 21
2.52654484E+01
  0
LINE
  8
0
 62
4
 10
9.02926546E+01
 20
2.78654484E+01
 11
9.02926546E+01
 21
2.52654484E+01
  0
LINE
  8
0
 62
4
 10
9.02926546E+01
 20
2.78654484E+01
 11
9.14926546E+01
 21
2.78654484E+01
  0
LINE
  8
0
 62
4
 10
9.02926546E+01
 20
2.82654484E+01
 11
9.14926546E+01
 21
2.82654484E+01
  0
LINE
  8
0
 62
4
 10
9.02926546E+01
 20
3.17654484E+01
 11
9.02926546E+01
 21
2.82654484E+01
  0
LINE
  8
0
 62
4
 10
9.14926546E+01
 20
2.60654484E+01
 11
9.55926546E+01
 21
2.60654484E+01
  0
LINE
  8
0
 62
4
 10
9.14926546E+01
 20
3.00654484E+01
 11
9.55926546E+01
 21
3.00654484E+01
  0
LINE
  8
0
 62
4
 10
9.25426546E+01
 20
3.03654484E+01
 11
9.45426546E+01
 21
3.03654484E+01
  0
LINE
  8
0
 62
4
 10
9.22426546E+01
 20
2.93654484E+01
 11
9.48426546E+01
 21
2.93654484E+01
  0
LINE
  8
0
 62
4
 10
9.25426546E+01
 20
3.03654484E+01
 11
9.25426546E+01
 21
3.00654484E+01
  0
LINE
  8
0
 62
4
 10
9.25426546E+01
 20
2.60654484E+01
 11
9.25426546E+01
 21
2.57654484E+01
  0
LINE
  8
0
 62
4
 10
9.14926546E+01
 20
3.00654484E+01
 11
9.14926546E+01
 21
2.60654484E+01
  0
LINE
  8
0
 62
4
 10
9.22426546E+01
 20
2.93654484E+01
 11
9.22426546E+01
 21
2.67654484E+01
  0
LINE
  8
0
 62
4
 10
9.14926546E+01
 20
3.00654484E+01
 11
9.22426546E+01
 21
2.93654484E+01
  0
LINE
  8
0
 62
4
 10
9.55926546E+01
 20
3.00654484E+01
 11
9.55926546E+01
 21
2.60654484E+01
  0
LINE
  8
0
 62
4
 10
9.45426546E+01
 20
3.03654484E+01
 11
9.45426546E+01
 21
3.00654484E+01
  0
LINE
  8
0
 62
4
 10
9.45426546E+01
 20
2.60654484E+01
 11
9.45426546E+01
 21
2.57654484E+01
  0
LINE
  8
0
 62
4
 10
9.48426546E+01
 20
2.93654484E+01
 11
9.48426546E+01
 21
2.67654484E+01
  0
LINE
  8
0
 62
4
 10
9.48426546E+01
 20
2.93654484E+01
 11
9.55926546E+01
 21
3.00654484E+01
  0
LINE
  8
0
 62
4
 10
9.48426546E+01
 20
2.67654484E+01
 11
9.55926546E+01
 21
2.60654484E+01
  0
LINE
  8
0
 62
4
 10
9.20426546E+01
 20
3.31654484E+01
 11
9.20426546E+01
 21
3.20654484E+01
  0
LINE
  8
0
 62
4
 10
9.50426546E+01
 20
3.31654484E+01
 11
9.50426546E+01
 21
3.20654484E+01
  0
LINE
  8
0
 62
6
 10
9.23126546E+01
 20
3.31654484E+01
 11
9.23126546E+01
 21
3.17954484E+01
  0
LINE
  8
0
 62
6
 10
9.47726546E+01
 20
3.31654484E+01
 11
9.47726546E+01
 21
3.17954484E+01
  0
LINE
  8
0
 62
4
 10
9.87546933E+01
 20
3.02901819E+01
 11
9.90926546E+01
 21
3.04854484E+01
  0
LINE
  8
0
 62
7
 10
1.02042655E+02
 20
1.25254484E+01
 11
1.02042655E+02
 21
2.10154484E+01
  0
LINE
  8
0
 62
7
 10
8.50426546E+01
 20
1.25254484E+01
 11
8.50426546E+01
 21
2.10154484E+01
  0
LINE
  8
0
 62
7
 10
8.93026546E+01
 20
2.52654484E+01
 11
9.77826546E+01
 21
2.52654484E+01
  0
LINE
  8
0
 62
7
 10
8.93026546E+01
 20
8.26544843E+00
 11
9.77826546E+01
 21
8.26544843E+00
  0
LINE
  8
0
 62
7
 10
9.68426546E+01
 20
8.26544843E+00
 11
9.68426546E+01
 21
2.52654484E+01
  0
LINE
  8
0
 62
7
 10
9.02426546E+01
 20
8.26544843E+00
 11
9.02426546E+01
 21
2.52654484E+01
  0
LINE
  8
0
  6
CENTER
 62
2
 10
8.28618229E+01
 20
1.67654484E+01
 11
1.04112655E+02
 21
1.67654484E+01
  0
ARC
  8
0
 62
7
 10
9.35409859E+01
 20
1.67571327E+01
 40
9.50551887E+00
 50
1.16479727E+02
 51
1.53385619E+02
  0
ARC
  8
0
 62
7
 10
9.35459834E+01
 20
1.67687773E+01
 40
9.50328580E+00
 50
2.06520101E+02
 51
2.43479899E+02
  0
ARC
  8
0
 62
7
 10
9.35459822E+01
 20
1.67621208E+01
 40
9.49435798E+00
 50
2.96502094E+02
 51
3.33497906E+02
  0
ARC
  8
0
 62
7
 10
9.35576800E+01
 20
1.67534921E+01
 40
9.49428151E+00
 50
2.66589370E+01
 51
6.36021455E+01
  0
ARC
  8
0
 62
7
 10
9.35487774E+01
 20
1.67662516E+01
 40
8.49387723E+00
 50
3.59994582E+02
 51
6.71826762E+01
  0
ARC
  8
0
 62
7
 10
9.35493111E+01
 20
1.67654484E+01
 40
8.49958100E+00
 50
1.12894629E+02
 51
2.47105371E+02
  0
ARC
  8
0
 62
7
 10
9.35487777E+01
 20
1.67646451E+01
 40
8.49387688E+00
 50
2.92817322E+02
 51
5.41920565E-03
  0
LINE
  8
0
  6
PHANTOM
 10
4.13613617E+00
 20
3.69690569E+01
 11
4.13614587E+00
 21
6.59164296E+01
  0
TEXT
  8
0
 62
7
 10
-1.34028050E+01
 20
4.45154465E+01
 40
1.50000000E+00
  1
PBDALS16-7
 41
1.00000000E+00
  7
MONOTXT
  0
LINE
  8
0
 62
7
 10
-1.62698416E+01
 20
4.32654465E+01
 11
1.67301555E+01
 21
4.32654465E+01
  0
ARC
  8
0
 62
2
 10
3.92343354E+01
 20
5.17654892E+01
 40
2.50000000E+00
 50
3.13311568E+01
 51
1.48668843E+02
  0
ARC
  8
0
 62
7
 10
3.92301713E+01
 20
5.17654877E+01
 40
2.06700000E+00
 50
3.89698837E+01
 51
1.41030116E+02
  0
ARC
  8
0
 62
7
 10
4.07506583E+01
 20
5.17617581E+01
 40
6.02048817E+00
 50
1.96455556E+02
 51
2.24819820E+02
  0
LINE
  8
0
 62
7
 10
3.47301744E+01
 20
5.35321107E+01
 11
3.47301861E+01
 21
6.02654956E+01
  0
LINE
  8
0
 62
7
 10
2.57301555E+01
 20
4.32654465E+01
 11
3.47301565E+01
 21
4.32654465E+01
  0
LINE
  8
0
 62
7
 10
2.57301555E+01
 20
6.02654503E+01
 11
3.47301861E+01
 21
6.02654503E+01
  0
LINE
  8
0
 62
7
 10
-1.62698416E+01
 20
6.02654503E+01
 11
1.67301555E+01
 21
6.02654503E+01
  0
LINE
  8
0
 62
6
 10
4.16671546E+01
 20
5.30654484E+01
 11
3.90671546E+01
 21
5.04654484E+01
  0
LINE
  8
0
 62
4
 10
2.57301555E+01
 20
4.31154484E+01
 11
2.57301555E+01
 21
6.04154484E+01
  0
LINE
  8
0
 62
4
 10
1.67301555E+01
 20
5.60654484E+01
 11
2.57301555E+01
 21
5.60654484E+01
  0
LINE
  8
0
 62
4
 10
1.67301555E+01
 20
5.66904484E+01
 11
2.57301555E+01
 21
5.66904484E+01
  0
LINE
  8
0
 62
4
 10
1.67301555E+01
 20
5.61904484E+01
 11
2.57301555E+01
 21
5.61904484E+01
  0
LINE
  8
0
 62
4
 10
1.67301555E+01
 20
5.91404484E+01
 11
2.57301555E+01
 21
5.91404484E+01
  0
LINE
  8
0
 62
4
 10
1.92301555E+01
 20
5.75654484E+01
 11
2.32301555E+01
 21
5.75654484E+01
  0
LINE
  8
0
 62
4
 10
1.92301555E+01
 20
5.67654484E+01
 11
2.32301555E+01
 21
5.67654484E+01
  0
LINE
  8
0
 62
4
 10
1.67301555E+01
 20
6.04154484E+01
 11
2.57301555E+01
 21
6.04154484E+01
  0
LINE
  8
0
 62
4
 10
2.32301555E+01
 20
5.75654484E+01
 11
2.32301555E+01
 21
5.66904484E+01
  0
LINE
  8
0
 62
4
 10
1.67301555E+01
 20
4.74654484E+01
 11
2.57301555E+01
 21
4.74654484E+01
  0
LINE
  8
0
 62
4
 10
1.67301555E+01
 20
4.31154484E+01
 11
2.57301555E+01
 21
4.31154484E+01
  0
LINE
  8
0
 62
4
 10
3.37301555E+01
 20
4.97654484E+01
 11
3.67301555E+01
 21
5.04654484E+01
  0
LINE
  8
0
 62
4
 10
3.67301555E+01
 20
5.30654484E+01
 11
3.67301555E+01
 21
5.04654484E+01
  0
LINE
  8
0
 62
4
 10
3.37301555E+01
 20
5.37654484E+01
 11
3.67301555E+01
 21
5.30654484E+01
  0
LINE
  8
0
 62
4
 10
3.37301555E+01
 20
5.37654484E+01
 11
3.37301555E+01
 21
4.97654484E+01
  0
LINE
  8
0
 62
4
 10
2.57301555E+01
 20
5.50154484E+01
 11
2.82301555E+01
 21
5.50154484E+01
  0
LINE
  8
0
 62
4
 10
2.82301555E+01
 20
4.85154484E+01
 11
2.82301555E+01
 21
5.50154484E+01
  0
LINE
  8
0
 62
4
 10
2.82301555E+01
 20
5.37654484E+01
 11
3.37301555E+01
 21
5.37654484E+01
  0
LINE
  8
0
 62
4
 10
2.82301555E+01
 20
4.97654484E+01
 11
3.37301555E+01
 21
4.97654484E+01
  0
LINE
  8
0
 62
4
 10
2.57301555E+01
 20
4.85154484E+01
 11
2.82301555E+01
 21
4.85154484E+01
  0
LINE
  8
0
 62
4
 10
1.67301555E+01
 20
4.31154484E+01
 11
1.67301555E+01
 21
6.04154484E+01
  0
LINE
  8
0
 62
4
 10
1.92301555E+01
 20
5.66904484E+01
 11
1.92301555E+01
 21
5.75654484E+01
  0
LINE
  8
0
 62
4
 10
2.22375889E+01
 20
5.07628818E+01
 11
2.01675889E+01
 21
5.28228818E+01
  0
LINE
  8
0
 62
4
 10
2.01675889E+01
 20
5.07028818E+01
 11
2.22875889E+01
 21
5.28228818E+01
  0
CIRCLE
  8
0
 62
4
 10
2.12292803E+01
 20
5.17629899E+01
 40
2.50000000E+00
  0
LINE
  8
0
 62
4
 10
1.42301555E+01
 20
4.85154484E+01
 11
1.67301555E+01
 21
4.85154484E+01
  0
LINE
  8
0
 62
4
 10
9.73015551E+00
 20
4.97654484E+01
 11
1.42301555E+01
 21
4.97654484E+01
  0
LINE
  8
0
 62
4
 10
8.73015551E+00
 20
5.07654484E+01
 11
9.73015551E+00
 21
4.97654484E+01
  0
LINE
  8
0
 62
4
 10
8.73015551E+00
 20
5.27654484E+01
 11
8.73015551E+00
 21
5.07654484E+01
  0
LINE
  8
0
 62
4
 10
1.42301555E+01
 20
5.50154484E+01
 11
1.67301555E+01
 21
5.50154484E+01
  0
LINE
  8
0
 62
4
 10
9.73015551E+00
 20
5.37654484E+01
 11
1.42301555E+01
 21
5.37654484E+01
  0
LINE
  8
0
 62
4
 10
9.73015551E+00
 20
5.37654484E+01
 11
9.73015551E+00
 21
4.97654484E+01
  0
LINE
  8
0
 62
4
 10
1.42301555E+01
 20
4.85154484E+01
 11
1.42301555E+01
 21
5.50154484E+01
  0
LINE
  8
0
 62
4
 10
8.73015551E+00
 20
5.27654484E+01
 11
9.73015551E+00
 21
5.37654484E+01
  0
LINE
  8
0
  6
CENTER
 62
6
 10
2.12301555E+01
 20
6.17654471E+01
 11
2.12301555E+01
 21
4.17654484E+01
  0
LINE
  8
0
 62
4
 10
3.67301555E+01
 20
5.30654484E+01
 11
4.16671546E+01
 21
5.30654484E+01
  0
LINE
  8
0
 62
4
 10
3.67301555E+01
 20
5.04654484E+01
 11
3.90671546E+01
 21
5.04654484E+01
  0
LINE
  8
0
 62
6
 10
-3.32842550E-01
 20
5.30654484E+01
 11
-2.93284255E+00
 21
5.04654484E+01
  0
LINE
  8
0
 62
4
 10
-1.62698416E+01
 20
4.31154484E+01
 11
-1.62698416E+01
 21
6.04154484E+01
  0
LINE
  8
0
 62
4
 10
-2.52698416E+01
 20
5.60654484E+01
 11
-1.62698416E+01
 21
5.60654484E+01
  0
LINE
  8
0
 62
4
 10
-2.52698416E+01
 20
5.66904484E+01
 11
-1.62698416E+01
 21
5.66904484E+01
  0
LINE
  8
0
 62
4
 10
-2.52698416E+01
 20
5.61904484E+01
 11
-1.62698416E+01
 21
5.61904484E+01
  0
LINE
  8
0
 62
4
 10
-2.52698416E+01
 20
5.91404484E+01
 11
-1.62698416E+01
 21
5.91404484E+01
  0
LINE
  8
0
 62
4
 10
-2.27698416E+01
 20
5.75654484E+01
 11
-1.87698416E+01
 21
5.75654484E+01
  0
LINE
  8
0
 62
4
 10
-2.27698416E+01
 20
5.67654484E+01
 11
-1.87698416E+01
 21
5.67654484E+01
  0
LINE
  8
0
 62
4
 10
-2.52698416E+01
 20
6.04154484E+01
 11
-1.62698416E+01
 21
6.04154484E+01
  0
LINE
  8
0
 62
4
 10
-1.87698416E+01
 20
5.75654484E+01
 11
-1.87698416E+01
 21
5.66904484E+01
  0
LINE
  8
0
 62
4
 10
-2.52698416E+01
 20
4.74654484E+01
 11
-1.62698416E+01
 21
4.74654484E+01
  0
LINE
  8
0
 62
4
 10
-2.52698416E+01
 20
4.31154484E+01
 11
-1.62698416E+01
 21
4.31154484E+01
  0
LINE
  8
0
 62
4
 10
-8.26984163E+00
 20
4.97654484E+01
 11
-5.26984164E+00
 21
5.04654484E+01
  0
LINE
  8
0
 62
4
 10
-5.26984163E+00
 20
5.30654484E+01
 11
-5.26984163E+00
 21
5.04654484E+01
  0
LINE
  8
0
 62
4
 10
-8.26984163E+00
 20
5.37654484E+01
 11
-5.26984163E+00
 21
5.30654484E+01
  0
LINE
  8
0
 62
4
 10
-8.26984163E+00
 20
5.37654484E+01
 11
-8.26984163E+00
 21
4.97654484E+01
  0
LINE
  8
0
 62
4
 10
-1.62698416E+01
 20
5.50154484E+01
 11
-1.37698416E+01
 21
5.50154484E+01
  0
LINE
  8
0
 62
4
 10
-1.37698416E+01
 20
4.85154484E+01
 11
-1.37698416E+01
 21
5.50154484E+01
  0
LINE
  8
0
 62
4
 10
-1.37698416E+01
 20
5.37654484E+01
 11
-8.26984163E+00
 21
5.37654484E+01
  0
LINE
  8
0
 62
4
 10
-1.37698416E+01
 20
4.97654484E+01
 11
-8.26984163E+00
 21
4.97654484E+01
  0
LINE
  8
0
 62
4
 10
-1.62698416E+01
 20
4.85154484E+01
 11
-1.37698416E+01
 21
4.85154484E+01
  0
LINE
  8
0
 62
4
 10
-2.52698416E+01
 20
4.31154484E+01
 11
-2.52698416E+01
 21
6.04154484E+01
  0
LINE
  8
0
 62
4
 10
-2.27698416E+01
 20
5.66904484E+01
 11
-2.27698416E+01
 21
5.75654484E+01
  0
LINE
  8
0
 62
4
 10
-1.97624082E+01
 20
5.07628818E+01
 11
-2.18324082E+01
 21
5.28228818E+01
  0
LINE
  8
0
 62
4
 10
-2.18324082E+01
 20
5.07028818E+01
 11
-1.97124082E+01
 21
5.28228818E+01
  0
CIRCLE
  8
0
 62
4
 10
-2.07707169E+01
 20
5.17629899E+01
 40
2.50000000E+00
  0
LINE
  8
0
 62
4
 10
-2.77698416E+01
 20
4.85154484E+01
 11
-2.52698416E+01
 21
4.85154484E+01
  0
LINE
  8
0
 62
4
 10
-3.22698416E+01
 20
4.97654484E+01
 11
-2.77698416E+01
 21
4.97654484E+01
  0
LINE
  8
0
 62
4
 10
-3.32698416E+01
 20
5.07654484E+01
 11
-3.22698416E+01
 21
4.97654484E+01
  0
LINE
  8
0
 62
4
 10
-3.32698416E+01
 20
5.27654484E+01
 11
-3.32698416E+01
 21
5.07654484E+01
  0
LINE
  8
0
 62
4
 10
-2.77698416E+01
 20
5.50154484E+01
 11
-2.52698416E+01
 21
5.50154484E+01
  0
LINE
  8
0
 62
4
 10
-3.22698416E+01
 20
5.37654484E+01
 11
-2.77698416E+01
 21
5.37654484E+01
  0
LINE
  8
0
 62
4
 10
-3.22698416E+01
 20
5.37654484E+01
 11
-3.22698416E+01
 21
4.97654484E+01
  0
LINE
  8
0
 62
4
 10
-2.77698416E+01
 20
4.85154484E+01
 11
-2.77698416E+01
 21
5.50154484E+01
  0
LINE
  8
0
 62
4
 10
-3.32698416E+01
 20
5.27654484E+01
 11
-3.22698416E+01
 21
5.37654484E+01
  0
LINE
  8
0
  6
CENTER
 62
6
 10
-2.07698416E+01
 20
6.17654471E+01
 11
-2.07698416E+01
 21
4.17654484E+01
  0
LINE
  8
0
 62
4
 10
-5.26984164E+00
 20
5.30654484E+01
 11
-3.32842550E-01
 21
5.30654484E+01
  0
LINE
  8
0
 62
4
 10
-5.26984164E+00
 20
5.04654484E+01
 11
-2.93284255E+00
 21
5.04654484E+01
  0
LINE
  8
0
 62
7
 10
-4.77698416E+01
 20
4.32654465E+01
 11
-3.62698416E+01
 21
4.32654465E+01
  0
LINE
  8
0
 62
7
 10
-3.62698416E+01
 20
4.32654465E+01
 11
-2.52698416E+01
 21
4.32654465E+01
  0
LINE
  8
0
 62
2
 10
-5.53698401E+01
 20
4.63654469E+01
 11
-4.92698416E+01
 21
4.63654469E+01
  0
LINE
  8
0
 62
7
 10
-5.47698416E+01
 20
4.57654465E+01
 11
-4.77698416E+01
 21
4.57654465E+01
  0
LINE
  8
0
 62
7
 10
-5.57698271E+01
 20
4.67654580E+01
 11
-5.47698261E+01
 21
4.57654569E+01
  0
ARC
  8
0
 62
7
 10
-5.90465521E+01
 20
4.95137833E+01
 40
7.64734566E-01
 50
7.89495007E+01
 51
1.61050492E+02
  0
ARC
  8
0
 62
7
 10
-5.80396933E+01
 20
5.17654484E+01
 40
1.73014796E+00
 50
1.19816790E+02
 51
2.40183220E+02
  0
ARC
  8
0
 62
7
 10
-5.90465521E+01
 20
5.40171155E+01
 40
7.64734566E-01
 50
1.98949508E+02
 51
2.81050506E+02
  0
ARC
  8
0
 62
7
 10
-4.22877020E+01
 20
5.17654484E+01
 40
6.01785851E+00
 50
3.15169780E+02
 51
0.00000000E+00
  0
ARC
  8
0
 62
7
 10
-4.17519812E+01
 20
5.17654484E+01
 40
6.01785851E+00
 50
1.79999964E+02
 51
2.24830184E+02
  0
ARC
  8
0
 62
7
 10
-4.22877020E+01
 20
5.17654484E+01
 40
6.01785851E+00
 50
0.00000000E+00
 51
4.48302198E+01
  0
ARC
  8
0
 62
7
 10
-4.17519812E+01
 20
5.17654484E+01
 40
6.01785851E+00
 50
1.35169813E+02
 51
1.80000032E+02
  0
LINE
  8
0
 62
7
 10
-5.88999717E+01
 20
5.47676680E+01
 11
-5.97698425E+01
 21
5.42654478E+01
  0
LINE
  8
0
 62
7
 10
-5.88999686E+01
 20
5.02643384E+01
 11
-5.57698416E+01
 21
5.02643384E+01
  0
LINE
  8
0
 62
7
 10
-4.60198416E+01
 20
5.60080899E+01
 11
-3.80198416E+01
 21
5.60080899E+01
  0
LINE
  8
0
 62
7
 10
-4.77698416E+01
 20
6.02654503E+01
 11
-3.62698416E+01
 21
6.02654503E+01
  0
LINE
  8
0
 62
7
 10
-5.88999686E+01
 20
5.32665585E+01
 11
-5.57698416E+01
 21
5.32665585E+01
  0
LINE
  8
0
 62
2
 10
-6.78028922E+01
 20
4.96654500E+01
 11
-6.07698416E+01
 21
4.96654500E+01
  0
LINE
  8
0
 62
2
 10
-7.56698432E+01
 20
4.96654500E+01
 11
-7.18028922E+01
 21
4.96654500E+01
  0
LINE
  8
0
 62
7
 10
-6.07698416E+01
 20
4.92654484E+01
 11
-6.07698416E+01
 21
5.42654503E+01
  0
LINE
  8
0
 62
7
 10
-7.57698416E+01
 20
4.97654484E+01
 11
-7.57698416E+01
 21
5.37654484E+01
  0
LINE
  8
0
 62
7
 10
-7.52698416E+01
 20
5.42654503E+01
 11
-7.18028922E+01
 21
5.42654503E+01
  0
LINE
  8
0
 62
7
 10
-7.52698416E+01
 20
4.92654484E+01
 11
-7.18028922E+01
 21
4.92654484E+01
  0
LINE
  8
0
 62
2
 10
-6.78028922E+01
 20
5.38654507E+01
 11
-6.07698416E+01
 21
5.38654507E+01
  0
LINE
  8
0
 62
7
 10
-6.78028922E+01
 20
5.42654503E+01
 11
-5.97698416E+01
 21
5.42654503E+01
  0
LINE
  8
0
 62
7
 10
-7.52698416E+01
 20
4.92654522E+01
 11
-7.52698416E+01
 21
5.42654522E+01
  0
LINE
  8
0
 62
7
 10
-4.60198416E+01
 20
5.60080899E+01
 11
-4.60198416E+01
 21
6.02654503E+01
  0
LINE
  8
0
 62
7
 10
-3.80198416E+01
 20
5.60080899E+01
 11
-3.80198416E+01
 21
6.02654503E+01
  0
LINE
  8
0
 62
7
 10
-5.88999686E+01
 20
4.87632264E+01
 11
-5.57698416E+01
 21
4.87632264E+01
  0
LINE
  8
0
 62
7
 10
-7.57698322E+01
 20
4.97654773E+01
 11
-7.52698370E+01
 21
4.92654822E+01
  0
LINE
  8
0
 62
7
 10
-5.97698416E+01
 20
4.92654484E+01
 11
-5.97698416E+01
 21
5.42654503E+01
  0
LINE
  8
0
 62
7
 10
-5.57698352E+01
 20
5.67654389E+01
 11
-5.47698342E+01
 21
5.77654400E+01
  0
LINE
  8
0
 62
7
 10
-7.57698268E+01
 20
5.37654438E+01
 11
-7.52698263E+01
 21
5.42654443E+01
  0
LINE
  8
0
 62
7
 10
-6.78028922E+01
 20
4.92654465E+01
 11
-5.97698416E+01
 21
4.92654465E+01
  0
LINE
  8
0
 62
7
 10
-5.47698416E+01
 20
5.77654503E+01
 11
-4.77698416E+01
 21
5.77654503E+01
  0
LINE
  8
0
 62
7
 10
-5.88999743E+01
 20
4.87632272E+01
 11
-5.97698451E+01
 21
4.92654474E+01
  0
LINE
  8
0
 62
2
 10
-5.53698401E+01
 20
5.71654500E+01
 11
-4.92698416E+01
 21
5.71654500E+01
  0
LINE
  8
0
 62
7
 10
-5.88999686E+01
 20
5.47676705E+01
 11
-5.57698416E+01
 21
5.47676705E+01
  0
LINE
  8
0
 62
2
 10
-7.56698432E+01
 20
5.38654507E+01
 11
-7.18028922E+01
 21
5.38654507E+01
  0
LINE
  8
0
 62
7
 10
-5.47698187E+01
 20
5.17654484E+01
 11
-5.47698187E+01
 21
5.77654484E+01
  0
LINE
  8
0
 62
7
 10
-4.60198416E+01
 20
4.75228070E+01
 11
-3.80198416E+01
 21
4.75228070E+01
  0
LINE
  8
0
 62
7
 10
-4.92698416E+01
 20
5.17654484E+01
 11
-4.92698416E+01
 21
5.77654503E+01
  0
LINE
  8
0
 62
7
 10
-3.80198416E+01
 20
4.75228070E+01
 11
-3.80198416E+01
 21
4.32654465E+01
  0
LINE
  8
0
 62
7
 10
-5.47698187E+01
 20
5.17654484E+01
 11
-5.47698187E+01
 21
4.57654484E+01
  0
LINE
  8
0
 62
7
 10
-5.57698416E+01
 20
4.67654723E+01
 11
-5.57698416E+01
 21
5.67654427E+01
  0
LINE
  8
0
 62
7
 10
-4.92698416E+01
 20
5.17654484E+01
 11
-4.92698416E+01
 21
4.57654465E+01
  0
LINE
  8
0
 62
7
 10
-4.60198416E+01
 20
4.75228070E+01
 11
-4.60198416E+01
 21
4.32654465E+01
  0
LINE
  8
0
  6
CENTER
 62
2
 10
-7.83799414E+01
 20
5.17654484E+01
 11
6.56189090E+01
 21
5.17654484E+01
  0
LINE
  8
0
 62
7
 10
-3.62698416E+01
 20
4.32654465E+01
 11
-3.62698416E+01
 21
6.02654503E+01
  0
LINE
  8
0
 62
7
 10
-3.62698416E+01
 20
6.02654503E+01
 11
-2.52698416E+01
 21
6.02654503E+01
  0
LINE
  8
0
 62
7
 10
-4.77698416E+01
 20
4.32654465E+01
 11
-4.77698416E+01
 21
6.02654503E+01
  0
LINE
  8
0
  6
CENTER
 62
2
 10
5.37301880E+01
 20
6.13266954E+01
 11
5.37301541E+01
 21
4.19087024E+01
  0
ARC
  8
0
 62
2
 10
3.92343354E+01
 20
5.17654892E+01
 40
2.50000000E+00
 50
2.11333346E+02
 51
2.63116018E+01
  0
ARC
  8
0
 62
7
 10
3.92301713E+01
 20
5.17654877E+01
 40
2.06700000E+00
 50
2.18972685E+02
 51
2.21097142E+01
  0
LINE
  8
0
 62
7
 10
6.17301861E+01
 20
6.02654484E+01
 11
6.17301771E+01
 21
5.50654484E+01
  0
LINE
  8
0
  6
CENTER
 62
2
 10
3.92301787E+01
 20
5.60054877E+01
 11
3.92301639E+01
 21
4.75154877E+01
  0
LINE
  8
0
 62
7
 10
3.47301565E+01
 20
4.32654956E+01
 11
6.17301565E+01
 21
4.32654484E+01
  0
LINE
  8
0
 62
7
 10
3.64801639E+01
 20
4.75154925E+01
 11
5.99801639E+01
 21
4.75154515E+01
  0
LINE
  8
0
 62
7
 10
3.64801787E+01
 20
5.60054925E+01
 11
5.99801787E+01
 21
5.60054515E+01
  0
LINE
  8
0
 62
7
 10
3.47301861E+01
 20
6.02654956E+01
 11
6.17301861E+01
 21
6.02654484E+01
  0
LINE
  8
0
 62
7
 10
5.99801861E+01
 20
6.02654515E+01
 11
5.99801787E+01
 21
5.60054515E+01
  0
LINE
  8
0
 62
7
 10
5.99801639E+01
 20
4.75154515E+01
 11
5.99801565E+01
 21
4.32654515E+01
  0
LINE
  8
0
 62
7
 10
4.37301771E+01
 20
5.50654799E+01
 11
4.37301655E+01
 21
4.84654799E+01
  0
LINE
  8
0
 62
7
 10
4.37301655E+01
 20
4.84654799E+01
 11
6.17301655E+01
 21
4.84654484E+01
  0
LINE
  8
0
 62
7
 10
4.37301771E+01
 20
5.50654799E+01
 11
6.17301771E+01
 21
5.50654484E+01
  0
LINE
  8
0
 62
7
 10
6.17301655E+01
 20
4.84654484E+01
 11
6.17301565E+01
 21
4.32654484E+01
  0
LINE
  8
0
 62
7
 10
3.47301565E+01
 20
4.32654956E+01
 11
3.47301682E+01
 21
4.99987847E+01
  0
LINE
  8
0
 62
7
 10
3.64801787E+01
 20
5.60054925E+01
 11
3.64801861E+01
 21
6.02654925E+01
  0
LINE
  8
0
 62
7
 10
3.64801639E+01
 20
4.75154925E+01
 11
3.64801565E+01
 21
4.32654925E+01
  0
ARC
  8
0
 62
7
 10
5.56870425E+01
 20
5.17289620E+01
 40
6.01536046E+00
 50
3.15536198E+02
 51
3.27143986E+02
  0
ARC
  8
0
 62
7
 10
5.57088779E+01
 20
5.17748387E+01
 40
6.01182959E+00
 50
3.31858170E+01
 51
4.47257987E+01
  0
ARC
  8
0
 62
7
 10
4.07541829E+01
 20
5.17606663E+01
 40
6.02401354E+00
 50
1.99341809E+02
 51
2.24806002E+02
  0
ARC
  8
0
 62
7
 10
4.07506583E+01
 20
5.17617581E+01
 40
6.02048817E+00
 50
1.35179979E+02
 51
1.63475924E+02
  0
LINE
  8
0
 62
4
 10
-6.78028922E+01
 20
4.77654485E+01
 11
-6.78028922E+01
 21
5.57654485E+01
  0
LINE
  8
0
 62
4
 10
-7.18028922E+01
 20
4.77654485E+01
 11
-7.18028922E+01
 21
5.57654485E+01
  0
LINE
  8
0
 62
4
 10
-7.13028922E+01
 20
5.17654484E+01
 11
-6.83028922E+01
 21
5.17654484E+01
  0
LINE
  8
0
 62
4
 10
-7.18028922E+01
 20
5.57654484E+01
 11
-6.78028922E+01
 21
5.57654484E+01
  0
LINE
  8
0
 62
4
 10
-7.18028922E+01
 20
4.77654484E+01
 11
-6.78028922E+01
 21
4.77654484E+01
  0
ARC
  8
0
 62
4
 10
-6.75528922E+01
 20
5.37654484E+01
 40
4.25000000E+00
 50
1.51927513E+02
 51
2.08072487E+02
  0
ARC
  8
0
 62
4
 10
-7.20528922E+01
 20
5.37654484E+01
 40
4.25000000E+00
 50
3.31927513E+02
 51
2.80724869E+01
  0
ARC
  8
0
 62
4
 10
-6.75528922E+01
 20
4.97654484E+01
 40
4.25000000E+00
 50
1.51927513E+02
 51
2.08072487E+02
  0
ARC
  8
0
 62
4
 10
-7.20528922E+01
 20
4.97654484E+01
 40
4.25000000E+00
 50
3.31927513E+02
 51
2.80724869E+01
  0
LINE
  8
0
  6
CENTER
 62
6
 10
-1.06609613E+02
 20
-3.88823672E+01
 11
-7.91727383E+01
 21
-3.88823672E+01
  0
LINE
  8
0
 62
4
 10
-1.04851196E+02
 20
-2.92623672E+01
 11
-9.88511965E+01
 21
-2.92623672E+01
  0
LINE
  8
0
 62
4
 10
-1.04851196E+02
 20
-4.87801653E+01
 11
-9.88511965E+01
 21
-4.87801653E+01
  0
LINE
  8
0
 62
4
 10
-1.04851196E+02
 20
-4.87801653E+01
 11
-1.04851196E+02
 21
-2.92623671E+01
  0
LINE
  8
0
 62
4
 10
-9.88511965E+01
 20
-4.87801653E+01
 11
-9.88511965E+01
 21
-2.92623671E+01
  0
LINE
  8
0
 62
4
 10
-1.04851196E+02
 20
-2.95523672E+01
 11
-9.88511965E+01
 21
-2.95523672E+01
  0
LINE
  8
0
 62
4
 10
-1.04851196E+02
 20
-3.22280662E+01
 11
-9.88511965E+01
 21
-3.22280662E+01
  0
LINE
  8
0
 62
4
 10
-9.08511965E+01
 20
-3.48823672E+01
 11
-8.48511965E+01
 21
-3.48823672E+01
  0
LINE
  8
0
 62
4
 10
-9.08511965E+01
 20
-4.28823672E+01
 11
-8.48511965E+01
 21
-4.28823672E+01
  0
CIRCLE
  8
0
 62
4
 10
-8.58511965E+01
 20
-3.88823672E+01
 40
2.00000000E+00
  0
CIRCLE
  8
0
 62
4
 10
-8.58511965E+01
 20
-3.88823672E+01
 40
2.50000000E+00
  0
LINE
  8
0
  6
CENTER
 62
6
 10
-8.58511965E+01
 20
-3.48823672E+01
 11
-8.58511965E+01
 21
-4.28823672E+01
  0
LINE
  8
0
 62
4
 10
-9.08511965E+01
 20
-4.28823672E+01
 11
-9.08511965E+01
 21
-4.13823672E+01
  0
LINE
  8
0
 62
4
 10
-9.88511965E+01
 20
-3.63823672E+01
 11
-9.08511965E+01
 21
-3.63823672E+01
  0
LINE
  8
0
 62
4
 10
-9.88511965E+01
 20
-4.13823672E+01
 11
-9.08511965E+01
 21
-4.13823672E+01
  0
LINE
  8
0
 62
4
 10
-9.08511965E+01
 20
-3.63823672E+01
 11
-9.08511965E+01
 21
-3.48823672E+01
  0
ARC
  8
0
 62
4
 10
-8.48511965E+01
 20
-3.88823672E+01
 40
4.00000000E+00
 50
2.70000000E+02
 51
9.00000002E+01
  0
LINE
  8
0
  6
CENTER
 62
6
 10
-4.13511965E+01
 20
-2.92183115E+01
 11
-4.13511965E+01
 21
-5.11002741E+01
  0
ARC
  8
0
 62
4
 10
-4.13494361E+01
 20
-3.88889779E+01
 40
9.89118734E+00
 50
1.94600742E+02
 51
3.48373449E+02
  0
ARC
  8
0
 62
4
 10
-4.99852310E+01
 20
-3.22280662E+01
 40
1.00392057E+00
 50
3.22272848E+02
 51
4.46636107E+01
  0
ARC
  8
0
 62
4
 10
-4.99850519E+01
 20
-3.22310969E+01
 40
1.40190405E+00
 50
3.22610924E+02
 51
4.48518702E+01
  0
ARC
  8
0
 62
4
 10
-3.27173362E+01
 20
-3.22310972E+01
 40
1.40190777E+00
 50
1.35148263E+02
 51
2.17388943E+02
  0
ARC
  8
0
 62
4
 10
-3.27171570E+01
 20
-3.22280665E+01
 40
1.00392430E+00
 50
1.35336575E+02
 51
2.17726966E+02
  0
ARC
  8
0
 62
4
 10
-4.13422940E+01
 20
-3.88708562E+01
 40
9.89686572E+00
 50
1.42473295E+02
 51
1.65437133E+02
  0
ARC
  8
0
 62
4
 10
-4.13561152E+01
 20
-3.88782953E+01
 40
9.89824120E+00
 50
1.16331547E+01
 51
3.75749018E+01
  0
ARC
  8
0
 62
4
 10
-4.13478683E+01
 20
-3.88856954E+01
 40
9.49435721E+00
 50
1.95245994E+02
 51
3.33497907E+02
  0
ARC
  8
0
 62
4
 10
-4.13420951E+01
 20
-3.88651297E+01
 40
9.49929101E+00
 50
1.53606440E+02
 51
1.64849050E+02
  0
ARC
  8
0
 62
4
 10
-4.13428802E+01
 20
-3.88806991E+01
 40
9.50551964E+00
 50
1.41899873E+02
 51
1.53520272E+02
  0
ARC
  8
0
 62
4
 10
-4.13545248E+01
 20
-3.88856954E+01
 40
9.50328503E+00
 50
2.65200996E+01
 51
3.80087786E+01
  0
LINE
  8
0
 62
4
 10
-3.28511965E+01
 20
-4.28823672E+01
 11
-3.24511965E+01
 21
-4.28823672E+01
  0
LINE
  8
0
 62
4
 10
-5.13511965E+01
 20
-3.63823672E+01
 11
-5.13511965E+01
 21
-4.13823672E+01
  0
LINE
  8
0
 62
4
 10
-5.18511965E+01
 20
-4.08823672E+01
 11
-5.13511965E+01
 21
-4.13823672E+01
  0
LINE
  8
0
 62
4
 10
-5.13511965E+01
 20
-3.63823672E+01
 11
-5.18511965E+01
 21
-3.68823672E+01
  0
LINE
  8
0
 62
4
 10
-5.18511965E+01
 20
-4.08823672E+01
 11
-5.18511965E+01
 21
-3.68823672E+01
  0
LINE
  8
0
 62
4
 10
-5.09611965E+01
 20
-2.92623672E+01
 11
-5.12511965E+01
 21
-2.95523672E+01
  0
LINE
  8
0
 62
4
 10
-4.92711965E+01
 20
-3.15223672E+01
 11
-5.12511965E+01
 21
-2.95523672E+01
  0
LINE
  8
0
 62
4
 10
-4.89911965E+01
 20
-3.12423672E+01
 11
-5.09611965E+01
 21
-2.92623672E+01
  0
LINE
  8
0
 62
4
 10
-3.17411965E+01
 20
-2.92623672E+01
 11
-3.14511965E+01
 21
-2.95523672E+01
  0
LINE
  8
0
 62
4
 10
-3.37111965E+01
 20
-3.12423672E+01
 11
-3.17411965E+01
 21
-2.92723672E+01
  0
LINE
  8
0
 62
4
 10
-3.28511965E+01
 20
-3.48823672E+01
 11
-3.24511965E+01
 21
-3.48823672E+01
  0
LINE
  8
0
 62
4
 10
-3.34311965E+01
 20
-3.15223672E+01
 11
-3.14511965E+01
 21
-2.95523672E+01
  0
LINE
  8
0
 62
4
 10
-3.14511965E+01
 20
-4.08823672E+01
 11
-3.14511965E+01
 21
-3.68823672E+01
  0
LINE
  8
0
 62
4
 10
-3.24511965E+01
 20
-3.68823672E+01
 11
-3.14511965E+01
 21
-3.68823672E+01
  0
LINE
  8
0
 62
4
 10
-3.24511965E+01
 20
-4.08823672E+01
 11
-3.14511965E+01
 21
-4.08823672E+01
  0
LINE
  8
0
 62
4
 10
-3.24511965E+01
 20
-4.28823672E+01
 11
-3.24511965E+01
 21
-3.48823672E+01
  0
LINE
  8
0
 62
4
 10
-5.13511965E+01
 20
-4.13823672E+01
 11
-3.28511965E+01
 21
-4.13823672E+01
  0
LINE
  8
0
 62
4
 10
-5.13511965E+01
 20
-3.63823672E+01
 11
-3.28511965E+01
 21
-3.63823672E+01
  0
LINE
  8
0
 62
4
 10
-3.28511965E+01
 20
-3.46423672E+01
 11
-3.28511965E+01
 21
-4.31223672E+01
  0
LINE
  8
0
  6
CENTER
 62
6
 10
-5.40975864E+01
 20
-3.88823672E+01
 11
-2.95811965E+01
 21
-3.88823672E+01
  0
LINE
  8
0
  6
CENTER
 62
6
 10
7.13234426E+01
 20
-3.63460724E+01
 11
7.13234426E+01
 21
-8.32702324E+01
  0
LINE
  8
0
  6
CENTER
 62
6
 10
8.89234426E+01
 20
-7.52702324E+01
 11
8.89234426E+01
 21
-8.32702324E+01
  0
LINE
  8
0
  6
CENTER
 62
6
 10
5.37234426E+01
 20
-7.52702324E+01
 11
5.37234426E+01
 21
-8.32702324E+01
  0
ARC
  8
0
 62
4
 10
6.43234426E+01
 20
-7.32702324E+01
 40
3.00000000E+00
 50
9.00000002E+01
 51
1.80000000E+02
  0
ARC
  8
0
 62
4
 10
7.83234426E+01
 20
-7.32702324E+01
 40
3.00000000E+00
 50
0.00000000E+00
 51
9.00000002E+01
  0
ARC
  8
0
 62
4
 10
6.03234426E+01
 20
-7.72702324E+01
 40
3.00000000E+00
 50
2.70000000E+02
 51
0.00000000E+00
  0
ARC
  8
0
 62
4
 10
8.23234426E+01
 20
-7.72702324E+01
 40
3.00000000E+00
 50
1.80000000E+02
 51
2.70000000E+02
  0
ARC
  8
0
 62
4
 10
7.83234426E+01
 20
-7.32702324E+01
 40
1.00000000E+00
 50
0.00000000E+00
 51
9.00000002E+01
  0
ARC
  8
0
 62
4
 10
8.23234426E+01
 20
-7.72702324E+01
 40
1.00000000E+00
 50
1.80000000E+02
 51
2.70000000E+02
  0
ARC
  8
0
 62
4
 10
6.43234426E+01
 20
-7.32702324E+01
 40
1.00000000E+00
 50
9.00000002E+01
 51
1.80000000E+02
  0
ARC
  8
0
 62
4
 10
6.03234426E+01
 20
-7.72702324E+01
 40
1.00000000E+00
 50
2.70000000E+02
 51
0.00000000E+00
  0
LINE
  8
0
 62
4
 10
8.23234426E+01
 20
-7.82702324E+01
 11
9.53234426E+01
 21
-7.82702324E+01
  0
LINE
  8
0
 62
4
 10
8.23234426E+01
 20
-8.02702324E+01
 11
9.53234426E+01
 21
-8.02702324E+01
  0
LINE
  8
0
 62
4
 10
9.53234426E+01
 20
-7.82702324E+01
 11
9.53234426E+01
 21
-8.02702324E+01
  0
LINE
  8
0
 62
4
 10
4.73234426E+01
 20
-7.82702324E+01
 11
4.73234426E+01
 21
-8.02702324E+01
  0
LINE
  8
0
 62
4
 10
8.13234426E+01
 20
-7.32702324E+01
 11
8.13234426E+01
 21
-7.72702324E+01
  0
LINE
  8
0
 62
4
 10
7.93234426E+01
 20
-7.32702324E+01
 11
7.93234426E+01
 21
-7.72702324E+01
  0
LINE
  8
0
 62
4
 10
6.33234426E+01
 20
-7.32702324E+01
 11
6.33234426E+01
 21
-7.72702324E+01
  0
LINE
  8
0
 62
4
 10
6.13234426E+01
 20
-7.32702324E+01
 11
6.13234426E+01
 21
-7.72702324E+01
  0
LINE
  8
0
 62
4
 10
4.73234426E+01
 20
-7.82702324E+01
 11
6.03234426E+01
 21
-7.82702324E+01
  0
LINE
  8
0
 62
4
 10
4.73234426E+01
 20
-8.02702324E+01
 11
6.03234426E+01
 21
-8.02702324E+01
  0
LINE
  8
0
 62
4
 10
6.43234426E+01
 20
-7.22702324E+01
 11
7.83234426E+01
 21
-7.22702324E+01
  0
LINE
  8
0
 62
4
 10
6.81234426E+01
 20
-3.98802324E+01
 11
7.45234426E+01
 21
-3.98802324E+01
  0
LINE
  8
0
 62
4
 10
6.72234426E+01
 20
-7.32702324E+01
 11
7.54234426E+01
 21
-7.32702324E+01
  0
LINE
  8
0
 62
4
 10
7.54234426E+01
 20
-7.22702324E+01
 11
7.54234426E+01
 21
-7.82702324E+01
  0
LINE
  8
0
 62
4
 10
6.72234426E+01
 20
-7.22702324E+01
 11
6.72234426E+01
 21
-7.82702324E+01
  0
LINE
  8
0
 62
4
 10
6.72234426E+01
 20
-7.82702324E+01
 11
7.54234426E+01
 21
-7.82702324E+01
  0
LINE
  8
0
 62
4
 10
6.53234426E+01
 20
-5.92702324E+01
 11
6.53234426E+01
 21
-7.02702324E+01
  0
LINE
  8
0
 62
4
 10
6.81234426E+01
 20
-5.92702324E+01
 11
6.53234426E+01
 21
-5.92702324E+01
  0
LINE
  8
0
 62
4
 10
6.81234426E+01
 20
-3.82702324E+01
 11
6.81234426E+01
 21
-5.92702324E+01
  0
LINE
  8
0
 62
4
 10
6.43234426E+01
 20
-7.02702324E+01
 11
7.83234426E+01
 21
-7.02702324E+01
  0
LINE
  8
0
 62
4
 10
7.45234426E+01
 20
-3.82702324E+01
 11
7.45234426E+01
 21
-5.92702324E+01
  0
LINE
  8
0
 62
4
 10
7.73234426E+01
 20
-5.92702324E+01
 11
7.73234426E+01
 21
-7.02702324E+01
  0
LINE
  8
0
 62
4
 10
6.81234426E+01
 20
-3.82702324E+01
 11
7.45234426E+01
 21
-3.82702324E+01
  0
LINE
  8
0
  6
CENTER
 62
6
 10
6.67734426E+01
 20
-4.52702324E+01
 11
7.58734426E+01
 21
-4.52702324E+01
  0
LINE
  8
0
 62
4
 10
7.45234426E+01
 20
-5.92702324E+01
 11
7.73234426E+01
 21
-5.92702324E+01
  0
LINE
  8
0
  6
CENTER
 62
6
 10
1.83234426E+01
 20
-3.63460724E+01
 11
1.83234426E+01
 21
-8.32702324E+01
  0
LINE
  8
0
 62
4
 10
3.23234426E+01
 20
-7.02702324E+01
 11
3.23234426E+01
 21
-8.02702324E+01
  0
LINE
  8
0
 62
4
 10
4.32344262E+00
 20
-7.02702324E+01
 11
4.32344262E+00
 21
-8.02702324E+01
  0
LINE
  8
0
  6
CENTER
 62
6
 10
9.32344262E+00
 20
-4.52702324E+01
 11
2.73234426E+01
 21
-4.52702324E+01
  0
ARC
  8
0
 62
4
 10
1.83234426E+01
 20
-5.02702343E+01
 40
1.19980057E+01
 50
5.99945013E+01
 51
1.20005499E+02
  0
CIRCLE
  8
0
 62
4
 10
1.83234426E+01
 20
-4.52702324E+01
 40
2.54999924E+00
  0
LINE
  8
0
 62
4
 10
1.23234426E+01
 20
-3.98802324E+01
 11
1.23234426E+01
 21
-7.02702324E+01
  0
LINE
  8
0
 62
4
 10
2.43234426E+01
 20
-3.98802324E+01
 11
2.43234426E+01
 21
-7.02702324E+01
  0
LINE
  8
0
 62
4
 10
1.23234426E+01
 20
-5.92702324E+01
 11
2.43234426E+01
 21
-5.92702324E+01
  0
LINE
  8
0
 62
4
 10
4.32344262E+00
 20
-7.02702324E+01
 11
3.23234426E+01
 21
-7.02702324E+01
  0
LINE
  8
0
 62
4
 10
2.89234426E+01
 20
-7.82702324E+01
 11
2.89234426E+01
 21
-8.02702324E+01
  0
LINE
  8
0
 62
4
 10
7.72344262E+00
 20
-7.82702324E+01
 11
7.72344262E+00
 21
-8.02702324E+01
  0
LINE
  8
0
 62
4
 10
1.29234426E+01
 20
-7.82702324E+01
 11
1.29234426E+01
 21
-8.02702324E+01
  0
LINE
  8
0
 62
4
 10
2.37234426E+01
 20
-7.82702324E+01
 11
2.37234426E+01
 21
-8.02702324E+01
  0
LINE
  8
0
  6
CENTER
 62
6
 10
1.03234426E+01
 20
-7.52702324E+01
 11
1.03234426E+01
 21
-8.32702324E+01
  0
LINE
  8
0
  6
CENTER
 62
6
 10
2.63234426E+01
 20
-7.52702324E+01
 11
2.63234426E+01
 21
-8.32702324E+01
  0
LINE
  8
0
 62
4
 10
4.32344262E+00
 20
-7.82702324E+01
 11
3.23234426E+01
 21
-7.82702324E+01
  0
LINE
  8
0
 62
4
 10
4.32344262E+00
 20
-8.02702324E+01
 11
3.23234426E+01
 21
-8.02702324E+01
  0
LINE
  8
0
  6
CENTER
 62
6
 10
7.13234426E+01
 20
-3.35295128E+00
 11
7.13234426E+01
 21
-3.50187629E+01
  0
ARC
  8
0
 62
4
 10
8.89234426E+01
 20
-2.72702381E+01
 40
2.60000000E+00
 50
9.00000002E+01
 51
2.70000000E+02
  0
ARC
  8
0
 62
4
 10
5.37234426E+01
 20
-1.12702381E+01
 40
2.60000000E+00
 50
2.70000000E+02
 51
9.00000002E+01
  0
ARC
  8
0
 62
4
 10
8.89234426E+01
 20
-1.12702381E+01
 40
2.60000000E+00
 50
9.00000002E+01
 51
2.70000000E+02
  0
ARC
  8
0
 62
4
 10
5.37234426E+01
 20
-2.72702381E+01
 40
2.60000000E+00
 50
2.70000000E+02
 51
9.00000002E+01
  0
LINE
  8
0
 62
4
 10
9.53234426E+01
 20
-1.38702381E+01
 11
9.53234426E+01
 21
-2.46702381E+01
  0
LINE
  8
0
 62
4
 10
9.53234426E+01
 20
-2.98702381E+01
 11
9.53234426E+01
 21
-3.32702381E+01
  0
LINE
  8
0
 62
4
 10
4.73234426E+01
 20
-2.98702381E+01
 11
4.73234426E+01
 21
-3.32702381E+01
  0
LINE
  8
0
 62
4
 10
4.73234426E+01
 20
-1.38702381E+01
 11
4.73234426E+01
 21
-2.46702381E+01
  0
LINE
  8
0
 62
4
 10
4.73234426E+01
 20
-5.27023810E+00
 11
4.73234426E+01
 21
-8.67023810E+00
  0
LINE
  8
0
  6
CENTER
 62
6
 10
5.37234426E+01
 20
-1.68702381E+01
 11
5.37234426E+01
 21
-5.67023810E+00
  0
LINE
  8
0
 62
4
 10
4.73234426E+01
 20
-8.67023810E+00
 11
5.37234426E+01
 21
-8.67023810E+00
  0
LINE
  8
0
  6
CENTER
 62
6
 10
4.70722258E+01
 20
-1.12702381E+01
 11
5.93234426E+01
 21
-1.12702381E+01
  0
LINE
  8
0
 62
4
 10
4.73234426E+01
 20
-1.38702381E+01
 11
5.37234426E+01
 21
-1.38702381E+01
  0
LINE
  8
0
  6
CENTER
 62
6
 10
5.37234426E+01
 20
-2.16702381E+01
 11
5.37234426E+01
 21
-3.28702381E+01
  0
LINE
  8
0
 62
4
 10
4.73234426E+01
 20
-2.98702381E+01
 11
5.37234426E+01
 21
-2.98702381E+01
  0
LINE
  8
0
  6
CENTER
 62
6
 10
4.70722258E+01
 20
-2.72702381E+01
 11
5.93234426E+01
 21
-2.72702381E+01
  0
LINE
  8
0
 62
4
 10
4.73234426E+01
 20
-2.46702381E+01
 11
5.37234426E+01
 21
-2.46702381E+01
  0
LINE
  8
0
  6
CENTER
 62
6
 10
8.89234426E+01
 20
-1.68702381E+01
 11
8.89234426E+01
 21
-5.67023810E+00
  0
LINE
  8
0
 62
4
 10
9.53234426E+01
 20
-8.67023810E+00
 11
8.89234426E+01
 21
-8.67023810E+00
  0
LINE
  8
0
  6
CENTER
 62
6
 10
9.58502912E+01
 20
-1.12702381E+01
 11
8.33234426E+01
 21
-1.12702381E+01
  0
LINE
  8
0
 62
4
 10
9.53234426E+01
 20
-1.38702381E+01
 11
8.89234426E+01
 21
-1.38702381E+01
  0
LINE
  8
0
 62
4
 10
9.53234426E+01
 20
-5.27023810E+00
 11
9.53234426E+01
 21
-8.67023810E+00
  0
LINE
  8
0
 62
4
 10
9.53234426E+01
 20
-2.98702381E+01
 11
8.89234426E+01
 21
-2.98702381E+01
  0
LINE
  8
0
 62
4
 10
9.53234426E+01
 20
-2.46702381E+01
 11
8.89234426E+01
 21
-2.46702381E+01
  0
LINE
  8
0
  6
CENTER
 62
6
 10
8.89234426E+01
 20
-2.16702381E+01
 11
8.89234426E+01
 21
-3.28702381E+01
  0
LINE
  8
0
  6
CENTER
 62
6
 10
9.58502912E+01
 20
-2.72702381E+01
 11
8.33234426E+01
 21
-2.72702381E+01
  0
LINE
  8
0
 62
4
 10
6.81234426E+01
 20
-1.32702381E+01
 11
6.81234426E+01
 21
-2.52702381E+01
  0
LINE
  8
0
 62
4
 10
7.45234426E+01
 20
-1.32702381E+01
 11
7.45234426E+01
 21
-2.52702381E+01
  0
LINE
  8
0
 62
4
 10
9.53234426E+01
 20
-5.27023810E+00
 11
4.73234426E+01
 21
-5.27023810E+00
  0
LINE
  8
0
 62
4
 10
7.73234426E+01
 20
-1.32702381E+01
 11
6.53234426E+01
 21
-1.32702381E+01
  0
LINE
  8
0
 62
4
 10
9.53234426E+01
 20
-3.32702381E+01
 11
4.73234426E+01
 21
-3.32702381E+01
  0
LINE
  8
0
 62
4
 10
7.73234426E+01
 20
-2.52702381E+01
 11
6.53234426E+01
 21
-2.52702381E+01
  0
LINE
  8
0
 62
4
 10
8.13234426E+01
 20
-5.27023810E+00
 11
8.13234426E+01
 21
-3.32702381E+01
  0
LINE
  8
0
 62
4
 10
7.73234426E+01
 20
-1.32702381E+01
 11
7.73234426E+01
 21
-2.52702381E+01
  0
LINE
  8
0
 62
4
 10
6.53234426E+01
 20
-1.32702381E+01
 11
6.53234426E+01
 21
-2.52702381E+01
  0
LINE
  8
0
 62
4
 10
6.13234426E+01
 20
-5.27023810E+00
 11
6.13234426E+01
 21
-3.32702381E+01
  0
LINE
  8
0
  6
CENTER
 62
6
 10
9.83234426E+01
 20
-1.92702381E+01
 11
4.43234426E+01
 21
-1.92702381E+01
  0
TEXT
  8
0
 62
7
 10
-6.10769909E+01
 20
-7.62734489E+01
 40
3.20000005E+00
  1
(mm)
 41
1.00000000E+00
  7
MONOTXT
  0
TEXT
  8
0
 62
7
 10
-5.74499939E+01
 20
-8.24000031E+01
 40
3.20000005E+00
  1
60
 41
1.00000000E+00
  7
MONOTXT
  0
TEXT
  8
0
 62
7
 10
-6.70499939E+01
 20
-8.24000031E+01
 40
3.20000005E+00
  1
45
 41
1.00000000E+00
  7
MONOTXT
  0
TEXT
  8
0
 62
7
 10
-7.66499939E+01
 20
-8.24000031E+01
 40
3.20000005E+00
  1
30
 41
1.00000000E+00
  7
MONOTXT
  0
TEXT
  8
0
 62
7
 10
-8.62499939E+01
 20
-8.24000031E+01
 40
3.20000005E+00
  1
15
 41
1.00000000E+00
  7
MONOTXT
  0
TEXT
  8
0
 62
7
 10
-9.58499939E+01
 20
-8.24000031E+01
 40
3.20000005E+00
  1
10
 41
1.00000000E+00
  7
MONOTXT
  0
TEXT
  8
0
 62
7
 10
-1.03849994E+02
 20
-8.24000031E+01
 40
3.20000005E+00
  1
5
 41
1.00000000E+00
  7
MONOTXT
  0
TEXT
  8
0
 62
7
 10
-1.31249994E+02
 20
-8.84000031E+01
 40
3.20000005E+00
  1
STRETCH
 41
1.00000000E+00
  7
MONOTXT
  0
TEXT
  8
0
 62
7
 10
-1.29649994E+02
 20
-8.24000031E+01
 40
3.20000005E+00
  1
STROKE
 41
1.00000000E+00
  7
MONOTXT
  0
TEXT
  8
0
 10
-1.67138756E+01
 20
6.72601794E+01
 40
3.20000005E+00
  1
STRETCH LINE
 41
1.05263158E+00
  7
MONOTXT
  0
TEXT
  8
0
 62
7
 10
-1.11138715E+02
 20
-7.60976860E+01
 40
3.20000005E+00
  1
STRETCH LIST
 41
1.05263158E+00
  7
MONOTXT
  0
LINE
  8
0
 62
7
 10
-4.97999939E+01
 20
-8.98000031E+01
 11
-4.97999939E+01
 21
-7.78000031E+01
  0
TEXT
  8
0
 62
7
 10
-5.74499939E+01
 20
-8.84000031E+01
 40
3.20000005E+00
  1
15
 41
1.00000000E+00
  7
MONOTXT
  0
LINE
  8
0
 62
7
 10
-5.93999939E+01
 20
-8.98000031E+01
 11
-5.93999939E+01
 21
-7.78000031E+01
  0
TEXT
  8
0
 62
7
 10
-6.54499939E+01
 20
-8.84000031E+01
 40
3.20000005E+00
  1
0
 41
1.00000000E+00
  7
MONOTXT
  0
LINE
  8
0
 62
7
 10
-6.89999939E+01
 20
-8.98000031E+01
 11
-6.89999939E+01
 21
-7.78000031E+01
  0
TEXT
  8
0
 62
7
 10
-7.82499940E+01
 20
-8.84000031E+01
 40
3.20000005E+00
  1
-15
 41
1.00000000E+00
  7
MONOTXT
  0
LINE
  8
0
 62
7
 10
-7.85999939E+01
 20
-8.98000031E+01
 11
-7.85999939E+01
 21
-7.78000031E+01
  0
TEXT
  8
0
 62
7
 10
-8.78499940E+01
 20
-8.84000031E+01
 40
3.20000005E+00
  1
-30
 41
1.00000000E+00
  7
MONOTXT
  0
LINE
  8
0
 62
7
 10
-8.81999939E+01
 20
-8.98000031E+01
 11
-8.81999939E+01
 21
-7.78000031E+01
  0
TEXT
  8
0
 62
7
 10
-9.74499940E+01
 20
-8.84000031E+01
 40
3.20000005E+00
  1
-35
 41
1.00000000E+00
  7
MONOTXT
  0
TEXT
  8
0
 62
7
 10
-1.07049994E+02
 20
-8.84000031E+01
 40
3.20000005E+00
  1
-40
 41
1.00000000E+00
  7
MONOTXT
  0
LINE
  8
0
 62
7
 10
-1.33399994E+02
 20
-7.78000031E+01
 11
-4.97999939E+01
 21
-7.78000031E+01
  0
LINE
  8
0
 62
7
 10
-9.77999939E+01
 20
-8.98000031E+01
 11
-9.77999939E+01
 21
-7.78000031E+01
  0
LINE
  8
0
 62
7
 10
-1.07399994E+02
 20
-8.98000031E+01
 11
-1.07399994E+02
 21
-7.78000031E+01
  0
LINE
  8
0
 62
7
 10
-1.33399994E+02
 20
-8.38000031E+01
 11
-4.97999939E+01
 21
-8.38000031E+01
  0
LINE
  8
0
 62
7
 10
-1.33399994E+02
 20
-8.98000031E+01
 11
-1.33399994E+02
 21
-7.78000031E+01
  0
LINE
  8
0
 62
7
 10
-1.33399994E+02
 20
-8.98000031E+01
 11
-4.97999939E+01
 21
-8.98000031E+01
  0
LINE
  8
0
 62
7
 10
-1.38399994E+02
 20
9.45000000E+01
 11
1.38350006E+02
 21
9.45000000E+01
  0
LINE
  8
0
 62
7
 10
1.38350006E+02
 20
9.45000000E+01
 11
1.38350006E+02
 21
-9.48000031E+01
  0
LINE
  8
0
 62
7
 10
-1.38399994E+02
 20
-9.48000031E+01
 11
1.38350006E+02
 21
-9.48000031E+01
  0
LINE
  8
0
 62
7
 10
-1.38399994E+02
 20
9.45000000E+01
 11
-1.38399994E+02
 21
-9.48000031E+01
  0
LINE
  8
0
 62
7
 10
7.33500061E+01
 20
-8.48000031E+01
 11
1.38350006E+02
 21
-8.48000031E+01
  0
LINE
  8
0
 62
7
 10
-1.38399994E+02
 20
8.45000000E+01
 11
-7.33999939E+01
 21
8.45000000E+01
  0
LINE
  8
0
 62
7
 10
7.33500061E+01
 20
8.45000000E+01
 11
1.38350006E+02
 21
8.45000000E+01
  0
LINE
  8
0
 62
7
 10
7.33500061E+01
 20
-8.48000031E+01
 11
7.33500061E+01
 21
-9.48000031E+01
  0
LINE
  8
0
 62
7
 10
7.33500061E+01
 20
9.45000000E+01
 11
7.33500061E+01
 21
8.45000000E+01
  0
LINE
  8
0
 62
7
 10
-7.33999939E+01
 20
9.45000000E+01
 11
-7.33999939E+01
 21
8.45000000E+01
  0
TEXT
  8
0
 62
7
 10
7.72426624E+01
 20
-9.20500031E+01
 40
4.50000000E+00
  1
KOGANEI CORP.
 41
1.04838710E+00
  7
MONOTXT
  0
TEXT
  8
0
 62
7
 10
9.35071493E+01
 20
8.79000001E+01
 40
3.19999981E+00
  1
Ver. 1.0
 41
1.08108108E+00
  7
MONOTXT
  0
TEXT
  8
0
 62
7
 10
-1.31042850E+02
 20
8.79000001E+01
 40
3.19999981E+00
  1
NEW PEN CYLINDER
 41
1.08108108E+00
  7
MONOTXT
  0
TEXT
  8
0
 62
7
 10
-1.29085994E+02
 20
7.29000000E+01
 40
3.20000005E+00
  1
MODEL:PBDALS16*ST(45)-7-ZC230
 41
1.00000000E+00
  7
MONOTXT
  0
ENDSEC
  0
EOF
