  0
SECTION
  2
HEADER
  9
$ACADVER
  1
AC1003
  9
$EXTMIN
 10
-1.38399994E+02
 20
-9.48000031E+01
  9
$EXTMAX
 10
1.38350006E+02
 20
9.45000000E+01
  9
$LIMMIN
 10
-1.38400994E+02
 20
-9.48010031E+01
  9
$LIMMAX
 10
1.38351006E+02
 20
9.45010000E+01
  9
$SNAPUNIT
 10
1
 20
1
  9
$SNAPBASE
 10
0
 20
0
  9
$GRIDMODE
 70
0
  9
$GRIDUNIT
 10
0
 20
0
  9
$LTSCALE
 40
4.61250000E+00
  9
$TEXTSIZE
 40
3.2
  9
$DIMTAD
 70
0
  9
$LUNITS
 70
2
  9
$LUPREC
 70
4
  9
$FILLETRAD
 40
0
  9
$AUNITS
 70
0
  9
$AUPREC
 70
0
  0
ENDSEC
  0
SECTION
  2
TABLES
  0
TABLE
  2
LTYPE
 70
2
  0
LTYPE
  2
CONTINUOUS
 70
64
  3
Solid-Line
 72
65
 73
0
 40
0
  0
LTYPE
  2
DASHED
 70
64
  3
DASHED
 72
65
 73
2
 40
.75
 49
.5
 49
-.25
  0
LTYPE
  2
HIDDEN
 70
64
  3
HIDDEN
 72
65
 73
2
 40
.375
 49
.25
 49
-.125
  0
LTYPE
  2
CENTER
 70
64
  3
CENTER
 72
65
 73
4
 40
2
 49
1.25
 49
-.25
 49
.25
 49
-.25
  0
LTYPE
  2
PHANTOM
 70
64
  3
PHANTOM
 72
65
 73
6
 40
2.5
 49
1.25
 49
-.25
 49
.25
 49
-.25
 49
.25
 49
-.25
  0
ENDTAB
  0
TABLE
  2
LAYER
 70
1
  0
LAYER
  2
1
 70
0
 62
7
  6
CONTINUOUS
 0
ENDTAB
  0
TABLE
  2
STYLE
 70
2
  0
STYLE
  2
MONOTXT
 70
0
 40
0
 41
1
 50
0
 71
0
 42
.2
  3
monotxt
  0
STYLE
  2
BIGFONT
 70
0
 40
0
 41
1
 50
0
 71
0
 42
.2
  3
txt
  4
bigfont
  0
ENDTAB
  0
ENDSEC
  0
SECTION
  2
ENTITIES
  0
LINE
  8
0
  6
CENTER
 62
2
 10
-9.58077401E+01
 20
3.16589246E+01
 11
9.11610016E+01
 21
3.16589246E+01
  0
ARC
  8
0
 62
4
 10
-3.68094058E+01
 20
4.81572590E+01
 40
1.00166704E+00
 50
9.52762946E-02
 51
8.99047236E+01
  0
ARC
  8
0
 62
4
 10
-3.98069486E+01
 20
4.81581332E+01
 40
1.00079180E+00
 50
9.00000002E+01
 51
1.79954687E+02
  0
LINE
  8
0
  6
CENTER
 62
6
 10
-3.83077401E+01
 20
5.16689246E+01
 11
-3.83077401E+01
 21
2.42389246E+01
  0
ARC
  8
0
 62
4
 10
3.19059421E+00
 20
4.81572590E+01
 40
1.00166704E+00
 50
9.52762946E-02
 51
8.99047236E+01
  0
ARC
  8
0
 62
4
 10
1.93051353E-01
 20
4.81581332E+01
 40
1.00079180E+00
 50
9.00000002E+01
 51
1.79954687E+02
  0
LINE
  8
0
  6
CENTER
 62
6
 10
1.69225987E+00
 20
5.16689246E+01
 11
1.69225987E+00
 21
2.42389246E+01
  0
LINE
  8
0
  6
PHANTOM
 10
-1.44998125E+01
 20
1.43693171E+01
 11
-1.44998125E+01
 21
5.28419274E+01
  0
LINE
  8
0
  6
PHANTOM
 10
4.75001875E+01
 20
1.43693171E+01
 11
4.75001875E+01
 21
5.28419274E+01
  0
TEXT
  8
0
 62
7
 10
-3.16436776E+01
 20
2.72589246E+01
 40
1.50000000E+00
  1
PBDAPS10
 41
1.00000000E+00
  7
MONOTXT
  0
LINE
  8
0
 62
7
 10
-3.38077401E+01
 20
2.61589246E+01
 11
1.11922599E+01
 21
2.61589246E+01
  0
LINE
  8
0
 62
7
 10
-3.13077401E+01
 20
3.71589246E+01
 11
-5.30774013E+00
 21
3.71589246E+01
  0
ARC
  8
0
 62
7
 10
-6.11889213E+01
 20
3.16589246E+01
 40
4.62356726E+00
 50
1.82596938E+02
 51
2.31332268E+02
  0
LINE
  8
0
 62
4
 10
8.69225987E+00
 20
4.19589246E+01
 11
1.41922599E+01
 21
4.19589246E+01
  0
LINE
  8
0
 62
4
 10
8.69225987E+00
 20
3.79589246E+01
 11
1.41922599E+01
 21
3.79589246E+01
  0
LINE
  8
0
 62
4
 10
-5.30774013E+00
 20
3.97589246E+01
 11
-5.30774013E+00
 21
3.66589246E+01
  0
LINE
  8
0
 62
4
 10
8.69225987E+00
 20
3.97589246E+01
 11
8.69225987E+00
 21
3.66589246E+01
  0
LINE
  8
0
 62
4
 10
-2.80774013E+00
 20
4.01589246E+01
 11
6.19225987E+00
 21
4.01589246E+01
  0
LINE
  8
0
 62
4
 10
-2.80774013E+00
 20
4.01589246E+01
 11
-2.80774013E+00
 21
4.66589246E+01
  0
LINE
  8
0
 62
4
 10
6.19225987E+00
 20
4.01589246E+01
 11
6.19225987E+00
 21
4.66589246E+01
  0
LINE
  8
0
 62
4
 10
6.19225987E+00
 20
3.97589246E+01
 11
8.69225986E+00
 21
3.97589246E+01
  0
LINE
  8
0
 62
4
 10
6.19225987E+00
 20
4.29589246E+01
 11
8.69225986E+00
 21
4.29589246E+01
  0
LINE
  8
0
 62
4
 10
-5.30774014E+00
 20
4.29589246E+01
 11
-2.80774013E+00
 21
4.29589246E+01
  0
LINE
  8
0
 62
4
 10
-5.30774014E+00
 20
4.01589246E+01
 11
-2.80774013E+00
 21
4.01589246E+01
  0
LINE
  8
0
 62
4
 10
-5.30774014E+00
 20
3.97589246E+01
 11
-2.80774013E+00
 21
3.97589246E+01
  0
LINE
  8
0
 62
4
 10
-2.80774014E+00
 20
2.60128720E+01
 11
6.19225986E+00
 21
2.60128720E+01
  0
LINE
  8
0
 62
6
 10
4.62259867E-01
 20
4.76589246E+01
 11
4.62259867E-01
 21
4.66589246E+01
  0
LINE
  8
0
 62
6
 10
2.92225987E+00
 20
4.76589246E+01
 11
2.92225987E+00
 21
4.66589246E+01
  0
LINE
  8
0
 62
4
 10
1.92259867E-01
 20
4.76589246E+01
 11
1.92259867E-01
 21
4.66589246E+01
  0
LINE
  8
0
 62
4
 10
3.19225987E+00
 20
4.76589246E+01
 11
3.19225987E+00
 21
4.66589246E+01
  0
LINE
  8
0
 62
4
 10
-5.30774013E+00
 20
4.19589246E+01
 11
-9.80774013E+00
 21
4.19589246E+01
  0
LINE
  8
0
 62
4
 10
6.19225987E+00
 20
4.01589246E+01
 11
6.19225987E+00
 21
2.60089246E+01
  0
LINE
  8
0
 62
4
 10
-2.80774013E+00
 20
4.01589246E+01
 11
-2.80774013E+00
 21
2.60089246E+01
  0
LINE
  8
0
 62
4
 10
-2.80774013E+00
 20
4.66589246E+01
 11
6.19225987E+00
 21
4.66589246E+01
  0
LINE
  8
0
 62
4
 10
6.19225987E+00
 20
4.01589246E+01
 11
8.69225987E+00
 21
4.01589246E+01
  0
LINE
  8
0
 62
4
 10
-2.80774013E+00
 20
2.60089246E+01
 11
6.19225987E+00
 21
2.60089246E+01
  0
LINE
  8
0
 62
4
 10
-1.08077401E+01
 20
4.09589246E+01
 11
-1.08077401E+01
 21
3.89589246E+01
  0
LINE
  8
0
 62
4
 10
-9.80774013E+00
 20
3.79589246E+01
 11
-5.30774013E+00
 21
3.79589246E+01
  0
LINE
  8
0
 62
4
 10
-8.07740133E-01
 20
4.76589246E+01
 11
4.19225987E+00
 21
4.76589246E+01
  0
LINE
  8
0
 62
4
 10
4.19225987E+00
 20
4.81589246E+01
 11
4.19225987E+00
 21
4.76589246E+01
  0
LINE
  8
0
 62
4
 10
-8.07740133E-01
 20
4.81589246E+01
 11
-8.07740133E-01
 21
4.76589246E+01
  0
LINE
  8
0
 62
4
 10
-9.80774013E+00
 20
4.19589246E+01
 11
-9.80774013E+00
 21
3.79589246E+01
  0
LINE
  8
0
 62
4
 10
-1.08077401E+01
 20
4.09589246E+01
 11
-9.80774013E+00
 21
4.19589246E+01
  0
LINE
  8
0
 62
4
 10
-1.08077401E+01
 20
3.89589246E+01
 11
-9.80774013E+00
 21
3.79589246E+01
  0
LINE
  8
0
 62
4
 10
8.69225987E+00
 20
4.29589246E+01
 11
8.69225987E+00
 21
4.01589246E+01
  0
LINE
  8
0
 62
4
 10
-5.30774013E+00
 20
4.29589246E+01
 11
-5.30774013E+00
 21
4.01589246E+01
  0
LINE
  8
0
 62
4
 10
-5.30774013E+00
 20
3.66589246E+01
 11
-2.80774013E+00
 21
3.66589246E+01
  0
LINE
  8
0
 62
4
 10
6.19225987E+00
 20
3.66589246E+01
 11
8.69225987E+00
 21
3.66589246E+01
  0
LINE
  8
0
 62
4
 10
1.71922599E+01
 20
4.12589246E+01
 11
2.21292589E+01
 21
4.12589246E+01
  0
LINE
  8
0
 62
4
 10
1.71922599E+01
 20
3.86589246E+01
 11
1.95292589E+01
 21
3.86589246E+01
  0
LINE
  8
0
 62
4
 10
1.41922599E+01
 20
3.79589246E+01
 11
1.71922599E+01
 21
3.86589246E+01
  0
LINE
  8
0
 62
4
 10
1.41922599E+01
 20
4.19589246E+01
 11
1.71922599E+01
 21
4.12589246E+01
  0
LINE
  8
0
 62
4
 10
1.41922599E+01
 20
4.19589246E+01
 11
1.41922599E+01
 21
3.79589246E+01
  0
LINE
  8
0
 62
4
 10
1.71922599E+01
 20
4.12589246E+01
 11
1.71922599E+01
 21
3.86589246E+01
  0
LINE
  8
0
 62
6
 10
2.21292589E+01
 20
4.12589246E+01
 11
1.95292589E+01
 21
3.86589246E+01
  0
LINE
  8
0
 62
4
 10
-3.13077401E+01
 20
4.19589246E+01
 11
-2.58077401E+01
 21
4.19589246E+01
  0
LINE
  8
0
 62
4
 10
-3.13077401E+01
 20
3.79589246E+01
 11
-2.58077401E+01
 21
3.79589246E+01
  0
LINE
  8
0
 62
4
 10
-4.53077401E+01
 20
3.97589246E+01
 11
-4.53077401E+01
 21
3.66589246E+01
  0
LINE
  8
0
 62
4
 10
-3.13077401E+01
 20
3.97589246E+01
 11
-3.13077401E+01
 21
3.66589246E+01
  0
LINE
  8
0
 62
4
 10
-4.28077401E+01
 20
4.01589246E+01
 11
-3.38077401E+01
 21
4.01589246E+01
  0
LINE
  8
0
 62
4
 10
-4.28077401E+01
 20
4.01589246E+01
 11
-4.28077401E+01
 21
4.66589246E+01
  0
LINE
  8
0
 62
4
 10
-3.38077401E+01
 20
4.01589246E+01
 11
-3.38077401E+01
 21
4.66589246E+01
  0
LINE
  8
0
 62
4
 10
-3.38077401E+01
 20
3.97589246E+01
 11
-3.13077401E+01
 21
3.97589246E+01
  0
LINE
  8
0
 62
4
 10
-3.38077401E+01
 20
4.29589246E+01
 11
-3.13077401E+01
 21
4.29589246E+01
  0
LINE
  8
0
 62
4
 10
-4.53077401E+01
 20
4.29589246E+01
 11
-4.28077401E+01
 21
4.29589246E+01
  0
LINE
  8
0
 62
4
 10
-4.53077401E+01
 20
4.01589246E+01
 11
-4.28077401E+01
 21
4.01589246E+01
  0
LINE
  8
0
 62
4
 10
-4.53077401E+01
 20
3.97589246E+01
 11
-4.28077401E+01
 21
3.97589246E+01
  0
LINE
  8
0
 62
4
 10
-4.28077401E+01
 20
2.60128720E+01
 11
-3.38077401E+01
 21
2.60128720E+01
  0
LINE
  8
0
 62
6
 10
-3.95377401E+01
 20
4.76589246E+01
 11
-3.95377401E+01
 21
4.66589246E+01
  0
LINE
  8
0
 62
6
 10
-3.70777401E+01
 20
4.76589246E+01
 11
-3.70777401E+01
 21
4.66589246E+01
  0
LINE
  8
0
 62
4
 10
-3.98077401E+01
 20
4.76589246E+01
 11
-3.98077401E+01
 21
4.66589246E+01
  0
LINE
  8
0
 62
4
 10
-3.68077401E+01
 20
4.76589246E+01
 11
-3.68077401E+01
 21
4.66589246E+01
  0
LINE
  8
0
 62
4
 10
-4.53077401E+01
 20
4.19589246E+01
 11
-4.98077401E+01
 21
4.19589246E+01
  0
LINE
  8
0
 62
4
 10
-3.38077401E+01
 20
4.01589246E+01
 11
-3.38077401E+01
 21
2.60089246E+01
  0
LINE
  8
0
 62
4
 10
-4.28077401E+01
 20
4.01589246E+01
 11
-4.28077401E+01
 21
2.60089246E+01
  0
LINE
  8
0
 62
4
 10
-4.28077401E+01
 20
4.66589246E+01
 11
-3.38077401E+01
 21
4.66589246E+01
  0
LINE
  8
0
 62
4
 10
-3.38077401E+01
 20
4.01589246E+01
 11
-3.13077401E+01
 21
4.01589246E+01
  0
LINE
  8
0
 62
4
 10
-4.28077401E+01
 20
2.60089246E+01
 11
-3.38077401E+01
 21
2.60089246E+01
  0
LINE
  8
0
 62
4
 10
-5.08077401E+01
 20
4.09589246E+01
 11
-5.08077401E+01
 21
3.89589246E+01
  0
LINE
  8
0
 62
4
 10
-4.98077401E+01
 20
3.79589246E+01
 11
-4.53077401E+01
 21
3.79589246E+01
  0
LINE
  8
0
 62
4
 10
-4.08077401E+01
 20
4.76589246E+01
 11
-3.58077401E+01
 21
4.76589246E+01
  0
LINE
  8
0
 62
4
 10
-3.58077401E+01
 20
4.81589246E+01
 11
-3.58077401E+01
 21
4.76589246E+01
  0
LINE
  8
0
 62
4
 10
-4.08077401E+01
 20
4.81589246E+01
 11
-4.08077401E+01
 21
4.76589246E+01
  0
LINE
  8
0
 62
4
 10
-4.98077401E+01
 20
4.19589246E+01
 11
-4.98077401E+01
 21
3.79589246E+01
  0
LINE
  8
0
 62
4
 10
-5.08077401E+01
 20
4.09589246E+01
 11
-4.98077401E+01
 21
4.19589246E+01
  0
LINE
  8
0
 62
4
 10
-5.08077401E+01
 20
3.89589246E+01
 11
-4.98077401E+01
 21
3.79589246E+01
  0
LINE
  8
0
 62
4
 10
-3.13077401E+01
 20
4.29589246E+01
 11
-3.13077401E+01
 21
4.01589246E+01
  0
LINE
  8
0
 62
4
 10
-4.53077401E+01
 20
4.29589246E+01
 11
-4.53077401E+01
 21
4.01589246E+01
  0
LINE
  8
0
 62
4
 10
-4.53077401E+01
 20
3.66589246E+01
 11
-4.28077401E+01
 21
3.66589246E+01
  0
LINE
  8
0
 62
4
 10
-3.38077401E+01
 20
3.66589246E+01
 11
-3.13077401E+01
 21
3.66589246E+01
  0
LINE
  8
0
 62
4
 10
-2.28077401E+01
 20
4.12589246E+01
 11
-1.78707410E+01
 21
4.12589246E+01
  0
LINE
  8
0
 62
4
 10
-2.28077401E+01
 20
3.86589246E+01
 11
-2.04707410E+01
 21
3.86589246E+01
  0
LINE
  8
0
 62
4
 10
-2.58077401E+01
 20
3.79589246E+01
 11
-2.28077401E+01
 21
3.86589246E+01
  0
LINE
  8
0
 62
4
 10
-2.58077401E+01
 20
4.19589246E+01
 11
-2.28077401E+01
 21
4.12589246E+01
  0
LINE
  8
0
 62
4
 10
-2.58077401E+01
 20
4.19589246E+01
 11
-2.58077401E+01
 21
3.79589246E+01
  0
LINE
  8
0
 62
4
 10
-2.28077401E+01
 20
4.12589246E+01
 11
-2.28077401E+01
 21
3.86589246E+01
  0
LINE
  8
0
 62
6
 10
-1.78707410E+01
 20
4.12589246E+01
 11
-2.04707410E+01
 21
3.86589246E+01
  0
LINE
  8
0
 62
2
 10
8.93612599E+01
 20
3.32799246E+01
 11
8.71122599E+01
 21
3.32799246E+01
  0
LINE
  8
0
 62
2
 10
8.93612599E+01
 20
3.00379246E+01
 11
8.71122599E+01
 21
3.00379246E+01
  0
LINE
  8
0
 62
7
 10
8.89822599E+01
 20
2.96589246E+01
 11
8.71122599E+01
 21
2.96589246E+01
  0
LINE
  8
0
 62
2
 10
3.02822599E+01
 20
2.83454246E+01
 11
3.20687599E+01
 21
2.83454246E+01
  0
LINE
  8
0
 62
2
 10
2.56922599E+01
 20
2.83454246E+01
 11
2.62822599E+01
 21
2.83454246E+01
  0
LINE
  8
0
 62
2
 10
2.56922599E+01
 20
3.49824246E+01
 11
2.62822599E+01
 21
3.49824246E+01
  0
LINE
  8
0
 62
2
 10
3.02822599E+01
 20
3.49824246E+01
 11
3.20687599E+01
 21
3.49824246E+01
  0
LINE
  8
0
  6
CENTER
 62
2
 10
1.56922599E+01
 20
3.52689246E+01
 11
1.56922599E+01
 21
2.80489246E+01
  0
CIRCLE
  8
0
 62
2
 10
1.56956657E+01
 20
3.16539248E+01
 40
2.50000000E+00
  0
CIRCLE
  8
0
 62
7
 10
1.56922599E+01
 20
3.16589246E+01
 40
2.06700000E+00
  0
LINE
  8
0
 62
7
 10
-5.28077401E+01
 20
2.61589246E+01
 11
-4.28077401E+01
 21
2.61589246E+01
  0
LINE
  8
0
 62
7
 10
-5.28077401E+01
 20
3.71589246E+01
 11
-4.53077401E+01
 21
3.71589246E+01
  0
LINE
  8
0
 62
7
 10
-5.28077401E+01
 20
3.76589246E+01
 11
-5.28077401E+01
 21
2.56589246E+01
  0
LINE
  8
0
 62
7
 10
-6.58077401E+01
 20
3.76589246E+01
 11
-5.28077401E+01
 21
3.76589246E+01
  0
LINE
  8
0
 62
7
 10
-6.58077401E+01
 20
2.56589246E+01
 11
-5.28077401E+01
 21
2.56589246E+01
  0
LINE
  8
0
 62
7
 10
-6.58077401E+01
 20
3.76589246E+01
 11
-6.58077401E+01
 21
2.56589246E+01
  0
LINE
  8
0
 62
7
 10
-6.40777401E+01
 20
3.52689246E+01
 11
-5.45377401E+01
 21
3.52689246E+01
  0
LINE
  8
0
 62
7
 10
-6.40777401E+01
 20
2.80489246E+01
 11
-5.45377401E+01
 21
2.80489246E+01
  0
LINE
  8
0
 62
7
 10
-6.40777401E+01
 20
3.76589246E+01
 11
-6.40777401E+01
 21
3.52689246E+01
  0
LINE
  8
0
 62
7
 10
-5.45377401E+01
 20
3.76589246E+01
 11
-5.45377401E+01
 21
3.52689246E+01
  0
LINE
  8
0
 62
7
 10
-6.40777401E+01
 20
2.80489246E+01
 11
-6.40777401E+01
 21
2.56589246E+01
  0
LINE
  8
0
 62
7
 10
-5.45377401E+01
 20
2.80489246E+01
 11
-5.45377401E+01
 21
2.56589246E+01
  0
LINE
  8
0
 62
7
 10
1.11922599E+01
 20
3.76589246E+01
 11
1.11922599E+01
 21
2.56589246E+01
  0
LINE
  8
0
 62
7
 10
2.41822599E+01
 20
3.76589246E+01
 11
1.11922599E+01
 21
3.76589246E+01
  0
LINE
  8
0
 62
7
 10
2.41822599E+01
 20
2.56589246E+01
 11
1.11922599E+01
 21
2.56589246E+01
  0
LINE
  8
0
 62
7
 10
3.21822599E+01
 20
3.48589246E+01
 11
3.21822599E+01
 21
2.84589246E+01
  0
LINE
  8
0
 62
7
 10
2.41822599E+01
 20
3.76589246E+01
 11
2.41822599E+01
 21
2.56589246E+01
  0
LINE
  8
0
 62
7
 10
3.13822599E+01
 20
3.56589246E+01
 11
3.02822599E+01
 21
3.56589246E+01
  0
LINE
  8
0
 62
7
 10
3.13822599E+01
 20
2.76589246E+01
 11
3.02822599E+01
 21
2.76589246E+01
  0
LINE
  8
0
 62
7
 10
3.13822599E+01
 20
3.56589246E+01
 11
3.21822599E+01
 21
3.48589246E+01
  0
LINE
  8
0
 62
7
 10
3.21822599E+01
 20
2.84589246E+01
 11
3.13822599E+01
 21
2.76589246E+01
  0
LINE
  8
0
 62
7
 10
3.13822599E+01
 20
3.56589246E+01
 11
3.13822599E+01
 21
2.76589246E+01
  0
LINE
  8
0
 62
7
 10
2.56822599E+01
 20
3.56589246E+01
 11
2.56822599E+01
 21
2.76589246E+01
  0
LINE
  8
0
 62
7
 10
8.96822599E+01
 20
3.29589246E+01
 11
8.96822599E+01
 21
3.03589246E+01
  0
LINE
  8
0
 62
7
 10
8.89822599E+01
 20
3.36589246E+01
 11
8.71122599E+01
 21
3.36589246E+01
  0
LINE
  8
0
 62
7
 10
8.89822599E+01
 20
2.96589246E+01
 11
8.71122599E+01
 21
2.96589246E+01
  0
LINE
  8
0
 62
7
 10
8.89822599E+01
 20
3.36589246E+01
 11
8.96822599E+01
 21
3.29589246E+01
  0
LINE
  8
0
 62
7
 10
8.96822599E+01
 20
3.03589246E+01
 11
8.89822599E+01
 21
2.96589246E+01
  0
LINE
  8
0
 62
7
 10
8.89822599E+01
 20
3.36589246E+01
 11
8.89822599E+01
 21
2.96589246E+01
  0
LINE
  8
0
 62
7
 10
2.24522599E+01
 20
3.52689246E+01
 11
1.29222599E+01
 21
3.52689246E+01
  0
LINE
  8
0
 62
7
 10
2.24522599E+01
 20
2.80489246E+01
 11
1.29222599E+01
 21
2.80489246E+01
  0
LINE
  8
0
 62
7
 10
8.71122599E+01
 20
3.50589246E+01
 11
8.71122599E+01
 21
2.82589246E+01
  0
LINE
  8
0
 62
7
 10
8.67422599E+01
 20
3.56989246E+01
 11
8.42822599E+01
 21
3.56989246E+01
  0
LINE
  8
0
 62
7
 10
8.67422599E+01
 20
2.76189246E+01
 11
8.42822599E+01
 21
2.76189246E+01
  0
LINE
  8
0
 62
7
 10
8.67422599E+01
 20
3.36789246E+01
 11
8.42822599E+01
 21
3.36789246E+01
  0
LINE
  8
0
 62
7
 10
8.67422599E+01
 20
2.96389246E+01
 11
8.42822599E+01
 21
2.96389246E+01
  0
LINE
  8
0
 62
7
 10
6.19122599E+01
 20
3.36589246E+01
 11
3.21822599E+01
 21
3.36589246E+01
  0
LINE
  8
0
 62
7
 10
6.19122599E+01
 20
2.96589246E+01
 11
3.21822599E+01
 21
2.96589246E+01
  0
LINE
  8
0
 62
7
 10
8.71122599E+01
 20
3.50589246E+01
 11
8.67422599E+01
 21
3.56989246E+01
  0
LINE
  8
0
 62
7
 10
8.42822599E+01
 20
3.56989246E+01
 11
8.39122599E+01
 21
3.50589246E+01
  0
LINE
  8
0
 62
7
 10
8.71122599E+01
 20
2.82589246E+01
 11
8.67422599E+01
 21
2.76189246E+01
  0
LINE
  8
0
 62
7
 10
8.42822599E+01
 20
2.76189246E+01
 11
8.39122599E+01
 21
2.82589246E+01
  0
LINE
  8
0
 62
4
 10
3.02822599E+01
 20
3.76589246E+01
 11
3.02822599E+01
 21
2.56589246E+01
  0
LINE
  8
0
 62
4
 10
2.62822599E+01
 20
3.76589246E+01
 11
2.62822599E+01
 21
2.56589246E+01
  0
LINE
  8
0
 62
4
 10
2.97422599E+01
 20
3.51189246E+01
 11
2.68122599E+01
 21
3.51189246E+01
  0
LINE
  8
0
 62
4
 10
2.97422599E+01
 20
2.81989246E+01
 11
2.68122599E+01
 21
2.81989246E+01
  0
LINE
  8
0
 62
4
 10
2.97422599E+01
 20
2.47289246E+01
 11
2.68122599E+01
 21
2.47289246E+01
  0
LINE
  8
0
 62
4
 10
2.97422599E+01
 20
3.85889246E+01
 11
2.68122599E+01
 21
3.85889246E+01
  0
LINE
  8
0
 62
4
 10
3.02822599E+01
 20
3.76589246E+01
 11
2.97422599E+01
 21
3.85889246E+01
  0
LINE
  8
0
 62
7
 10
2.62822599E+01
 20
3.56589246E+01
 11
2.41822599E+01
 21
3.56589246E+01
  0
LINE
  8
0
 62
7
 10
2.62822599E+01
 20
2.76589246E+01
 11
2.41822599E+01
 21
2.76589246E+01
  0
LINE
  8
0
 62
4
 10
2.62822599E+01
 20
3.76589246E+01
 11
2.68122599E+01
 21
3.85889246E+01
  0
LINE
  8
0
 62
4
 10
3.02822599E+01
 20
2.56589246E+01
 11
2.97422599E+01
 21
2.47289246E+01
  0
LINE
  8
0
 62
4
 10
2.62822599E+01
 20
2.56589246E+01
 11
2.68122599E+01
 21
2.47289246E+01
  0
LINE
  8
0
 62
7
 10
2.24522599E+01
 20
3.76589246E+01
 11
2.24522599E+01
 21
3.52689246E+01
  0
LINE
  8
0
 62
7
 10
1.29222599E+01
 20
3.76589246E+01
 11
1.29222599E+01
 21
3.52689246E+01
  0
LINE
  8
0
 62
7
 10
2.24522599E+01
 20
2.80489246E+01
 11
2.24522599E+01
 21
2.56589246E+01
  0
LINE
  8
0
 62
7
 10
1.29222599E+01
 20
2.80489246E+01
 11
1.29222599E+01
 21
2.56589246E+01
  0
LINE
  8
0
 62
7
 10
6.39122599E+01
 20
3.56589246E+01
 11
6.39122599E+01
 21
2.76589246E+01
  0
LINE
  8
0
 62
7
 10
6.19122599E+01
 20
3.56589246E+01
 11
8.39122599E+01
 21
3.56589246E+01
  0
LINE
  8
0
 62
7
 10
8.39122599E+01
 20
3.56589246E+01
 11
8.39122599E+01
 21
2.76589246E+01
  0
LINE
  8
0
 62
7
 10
6.19122599E+01
 20
2.76589246E+01
 11
8.39122599E+01
 21
2.76589246E+01
  0
LINE
  8
0
 62
7
 10
6.19122599E+01
 20
3.56589246E+01
 11
6.19122599E+01
 21
2.76589246E+01
  0
LINE
  8
0
 62
7
 10
7.89122599E+01
 20
3.36589246E+01
 11
8.39122599E+01
 21
3.36589246E+01
  0
LINE
  8
0
 62
7
 10
7.89122599E+01
 20
2.96589246E+01
 11
8.39122599E+01
 21
2.96589246E+01
  0
LINE
  8
0
 62
7
 10
7.89122599E+01
 20
3.36589246E+01
 11
7.89122599E+01
 21
2.96589246E+01
  0
LINE
  8
0
 62
7
 10
7.89122599E+01
 20
3.36589246E+01
 11
8.39122599E+01
 21
2.96589246E+01
  0
LINE
  8
0
 62
7
 10
8.39122599E+01
 20
3.36589246E+01
 11
7.89122599E+01
 21
2.96589246E+01
  0
ARC
  8
0
 62
7
 10
-6.11889213E+01
 20
3.16589246E+01
 40
4.62356726E+00
 50
1.28667732E+02
 51
1.77403062E+02
  0
ARC
  8
0
 62
7
 10
-5.74333704E+01
 20
3.16589246E+01
 40
4.62782617E+00
 50
3.08733576E+02
 51
5.12664237E+01
  0
ARC
  8
0
 62
7
 10
1.58110787E+01
 20
3.16589246E+01
 40
4.62356726E+00
 50
1.28667732E+02
 51
2.31332268E+02
  0
ARC
  8
0
 62
7
 10
8.55487542E+01
 20
3.46889246E+01
 40
1.56350758E+00
 50
3.19760550E+02
 51
4.02394502E+01
  0
ARC
  8
0
 62
7
 10
8.14140871E+01
 20
3.16589246E+01
 40
5.69823004E+00
 50
3.39237439E+02
 51
2.07625612E+01
  0
ARC
  8
0
 62
7
 10
8.96102582E+01
 20
3.16589246E+01
 40
5.69806681E+00
 50
1.59236817E+02
 51
2.00763184E+02
  0
ARC
  8
0
 62
7
 10
8.54755758E+01
 20
3.46889246E+01
 40
1.56336269E+00
 50
1.39756056E+02
 51
2.20243944E+02
  0
ARC
  8
0
 62
7
 10
8.55487595E+01
 20
2.86289246E+01
 40
1.56350352E+00
 50
3.19760424E+02
 51
4.02395761E+01
  0
ARC
  8
0
 62
7
 10
8.54755705E+01
 20
2.86289246E+01
 40
1.56335863E+00
 50
1.39755930E+02
 51
2.20244070E+02
  0
ARC
  8
0
 62
4
 10
2.72179399E+01
 20
3.68539246E+01
 40
3.06307302E+00
 50
3.25498721E+02
 51
3.45012787E+01
  0
ARC
  8
0
 62
4
 10
1.88208302E+01
 20
3.16589246E+01
 40
1.14564055E+01
 50
3.42421364E+02
 51
1.75786359E+01
  0
ARC
  8
0
 62
4
 10
2.72179430E+01
 20
2.64639246E+01
 40
3.06307045E+00
 50
3.25498688E+02
 51
3.45013117E+01
  0
ARC
  8
0
 62
4
 10
2.93519223E+01
 20
3.68539246E+01
 40
3.07572918E+00
 50
1.45660608E+02
 51
2.14339392E+02
  0
ARC
  8
0
 62
4
 10
3.77490358E+01
 20
3.16589246E+01
 40
1.14710360E+01
 50
1.62444514E+02
 51
1.97555486E+02
  0
ARC
  8
0
 62
4
 10
2.93519192E+01
 20
2.64639246E+01
 40
3.07572661E+00
 50
1.45660575E+02
 51
2.14339425E+02
  0
ARC
  8
0
 62
7
 10
1.95666219E+01
 20
3.16589246E+01
 40
4.62158052E+00
 50
3.08636942E+02
 51
5.13630580E+01
  0
ARC
  8
0
 62
4
 10
-7.09742216E+01
 20
2.64739246E+01
 40
3.07310324E+00
 50
3.25627155E+02
 51
3.43728456E+01
  0
ARC
  8
0
 62
4
 10
-7.93713265E+01
 20
3.16639246E+01
 40
1.14664876E+01
 50
3.42463527E+02
 51
1.75364728E+01
  0
ARC
  8
0
 62
4
 10
-7.09742216E+01
 20
3.68539246E+01
 40
3.07310324E+00
 50
3.25627155E+02
 51
3.43728456E+01
  0
ARC
  8
0
 62
4
 10
-6.88402393E+01
 20
2.64739246E+01
 40
3.06569493E+00
 50
1.45532394E+02
 51
2.14467606E+02
  0
ARC
  8
0
 62
4
 10
-6.04431191E+01
 20
3.16639246E+01
 40
1.14579391E+01
 50
1.62450019E+02
 51
1.97549981E+02
  0
ARC
  8
0
 62
4
 10
-6.88402393E+01
 20
3.68539246E+01
 40
3.06569493E+00
 50
1.45532394E+02
 51
2.14467606E+02
  0
ARC
  8
0
 62
4
 10
-8.75978828E+01
 20
2.86389246E+01
 40
1.56857978E+00
 50
3.19917156E+02
 51
4.00828446E+01
  0
ARC
  8
0
 62
4
 10
-8.76710611E+01
 20
2.86389246E+01
 40
1.55830260E+00
 50
1.39598403E+02
 51
2.20401597E+02
  0
ARC
  8
0
 62
4
 10
-8.75978828E+01
 20
3.46889246E+01
 40
1.56857978E+00
 50
3.19917156E+02
 51
4.00828446E+01
  0
ARC
  8
0
 62
4
 10
-9.17325631E+01
 20
3.16639246E+01
 40
5.70268020E+00
 50
3.39308098E+02
 51
2.06919019E+01
  0
ARC
  8
0
 62
4
 10
-8.35363809E+01
 20
3.16639246E+01
 40
5.69008693E+00
 50
1.59260195E+02
 51
2.00739805E+02
  0
ARC
  8
0
 62
4
 10
-8.76710611E+01
 20
3.46889246E+01
 40
1.55830260E+00
 50
1.39598403E+02
 51
2.20401597E+02
  0
LINE
  8
0
 62
4
 10
-6.78977401E+01
 20
2.56689246E+01
 11
-6.84377401E+01
 21
2.47389246E+01
  0
LINE
  8
0
 62
4
 10
-7.18977401E+01
 20
2.56689246E+01
 11
-7.13677401E+01
 21
2.47389246E+01
  0
LINE
  8
0
 62
4
 10
-6.78977401E+01
 20
3.76589246E+01
 11
-6.84377401E+01
 21
3.85889246E+01
  0
LINE
  8
0
 62
7
 10
-6.78977401E+01
 20
2.76689246E+01
 11
-6.58077401E+01
 21
2.76689246E+01
  0
LINE
  8
0
 62
4
 10
-7.18977401E+01
 20
3.76589246E+01
 11
-7.13677401E+01
 21
3.85889246E+01
  0
LINE
  8
0
 62
4
 10
-7.13677401E+01
 20
3.85889246E+01
 11
-6.84377401E+01
 21
3.85889246E+01
  0
LINE
  8
0
 62
4
 10
-7.13677401E+01
 20
2.47389246E+01
 11
-6.84377401E+01
 21
2.47389246E+01
  0
LINE
  8
0
 62
4
 10
-7.13677401E+01
 20
2.82089246E+01
 11
-6.84377401E+01
 21
2.82089246E+01
  0
LINE
  8
0
 62
4
 10
-7.13677401E+01
 20
3.51189246E+01
 11
-6.84377401E+01
 21
3.51189246E+01
  0
LINE
  8
0
 62
4
 10
-6.78977401E+01
 20
3.76589246E+01
 11
-6.78977401E+01
 21
2.56689246E+01
  0
LINE
  8
0
 62
4
 10
-7.18977401E+01
 20
3.76589246E+01
 11
-7.18977401E+01
 21
2.56689246E+01
  0
LINE
  8
0
 62
4
 10
-8.63977401E+01
 20
2.76289246E+01
 11
-8.60277401E+01
 21
2.82689246E+01
  0
LINE
  8
0
 62
4
 10
-8.92277401E+01
 20
2.82689246E+01
 11
-8.88577401E+01
 21
2.76289246E+01
  0
LINE
  8
0
 62
4
 10
-8.63977401E+01
 20
3.56989246E+01
 11
-8.60277401E+01
 21
3.50589246E+01
  0
LINE
  8
0
 62
4
 10
-8.92277401E+01
 20
3.50589246E+01
 11
-8.88577401E+01
 21
3.56989246E+01
  0
LINE
  8
0
 62
7
 10
-8.60277401E+01
 20
2.96689246E+01
 11
-7.38077401E+01
 21
2.96689246E+01
  0
LINE
  8
0
 62
7
 10
-8.60277401E+01
 20
3.36589246E+01
 11
-7.38077401E+01
 21
3.36589246E+01
  0
LINE
  8
0
 62
4
 10
-8.88577401E+01
 20
2.96489246E+01
 11
-8.63977401E+01
 21
2.96489246E+01
  0
LINE
  8
0
 62
4
 10
-8.88577401E+01
 20
3.36789246E+01
 11
-8.63977401E+01
 21
3.36789246E+01
  0
LINE
  8
0
 62
4
 10
-8.88577401E+01
 20
2.76289246E+01
 11
-8.63977401E+01
 21
2.76289246E+01
  0
LINE
  8
0
 62
4
 10
-8.88577401E+01
 20
3.56989246E+01
 11
-8.63977401E+01
 21
3.56989246E+01
  0
LINE
  8
0
 62
4
 10
-8.60277401E+01
 20
3.50589246E+01
 11
-8.60277401E+01
 21
2.82689246E+01
  0
LINE
  8
0
 62
4
 10
-8.92277401E+01
 20
3.50589246E+01
 11
-8.92277401E+01
 21
2.82689246E+01
  0
LINE
  8
0
 62
7
 10
-9.31077401E+01
 20
3.36589246E+01
 11
-9.31077401E+01
 21
2.96689246E+01
  0
LINE
  8
0
 62
7
 10
-9.38077401E+01
 20
3.03589246E+01
 11
-9.31077401E+01
 21
2.96689246E+01
  0
LINE
  8
0
 62
7
 10
-9.31077401E+01
 20
3.36589246E+01
 11
-9.38077401E+01
 21
3.29589246E+01
  0
LINE
  8
0
 62
7
 10
-9.31077401E+01
 20
2.96689246E+01
 11
-8.92277401E+01
 21
2.96689246E+01
  0
LINE
  8
0
 62
7
 10
-9.31077401E+01
 20
3.36589246E+01
 11
-8.92277401E+01
 21
3.36589246E+01
  0
LINE
  8
0
 62
7
 10
-7.88077401E+01
 20
3.36589246E+01
 11
-7.88077401E+01
 21
2.96689246E+01
  0
LINE
  8
0
 62
7
 10
-9.38077401E+01
 20
3.29589246E+01
 11
-9.38077401E+01
 21
3.03589246E+01
  0
LINE
  8
0
 62
7
 10
-6.73077401E+01
 20
3.56589246E+01
 11
-6.73077401E+01
 21
2.76689246E+01
  0
LINE
  8
0
 62
7
 10
-7.30077401E+01
 20
3.56589246E+01
 11
-7.30077401E+01
 21
2.76689246E+01
  0
LINE
  8
0
 62
7
 10
-7.38077401E+01
 20
2.84689246E+01
 11
-7.30077401E+01
 21
2.76689246E+01
  0
LINE
  8
0
 62
7
 10
-7.30077401E+01
 20
3.56589246E+01
 11
-7.38077401E+01
 21
3.48589246E+01
  0
LINE
  8
0
 62
7
 10
-7.30077401E+01
 20
2.76689246E+01
 11
-7.18977401E+01
 21
2.76689246E+01
  0
LINE
  8
0
 62
7
 10
-7.30077401E+01
 20
3.56589246E+01
 11
-7.18977401E+01
 21
3.56589246E+01
  0
LINE
  8
0
 62
7
 10
-7.38077401E+01
 20
3.48589246E+01
 11
-7.38077401E+01
 21
2.84689246E+01
  0
LINE
  8
0
 62
2
 10
-6.73077401E+01
 20
2.83454246E+01
 11
-6.78977401E+01
 21
2.83454246E+01
  0
LINE
  8
0
 62
2
 10
-6.73077401E+01
 20
3.49824246E+01
 11
-6.78977401E+01
 21
3.49824246E+01
  0
LINE
  8
0
 62
2
 10
-9.34867401E+01
 20
3.32799246E+01
 11
-8.92277401E+01
 21
3.32799246E+01
  0
LINE
  8
0
 62
2
 10
-9.34922329E+01
 20
3.00479246E+01
 11
-8.92277401E+01
 21
3.00479246E+01
  0
LINE
  8
0
 62
2
 10
-8.60277401E+01
 20
3.32799246E+01
 11
-7.88077401E+01
 21
3.32799246E+01
  0
LINE
  8
0
 62
2
 10
-8.60277401E+01
 20
3.00479246E+01
 11
-7.88077401E+01
 21
3.00479246E+01
  0
LINE
  8
0
 62
2
 10
-7.18977401E+01
 20
3.49824246E+01
 11
-7.36842401E+01
 21
3.49824246E+01
  0
LINE
  8
0
 62
2
 10
-7.18977401E+01
 20
2.83454246E+01
 11
-7.36842401E+01
 21
2.83454246E+01
  0
LINE
  8
0
  6
CENTER
 62
2
 10
-5.73077401E+01
 20
3.52689246E+01
 11
-5.73077401E+01
 21
2.80489246E+01
  0
CIRCLE
  8
0
 62
2
 10
-5.73111459E+01
 20
3.16539248E+01
 40
2.50000000E+00
  0
LINE
  8
0
 62
7
 10
-6.78977401E+01
 20
3.56589246E+01
 11
-6.58077401E+01
 21
3.56589246E+01
  0
CIRCLE
  8
0
 62
7
 10
-5.73077401E+01
 20
3.16589246E+01
 40
2.06700000E+00
  0
LINE
  8
0
 62
4
 10
1.92259867E-01
 20
4.91589246E+01
 11
3.19225987E+00
 21
4.91589246E+01
  0
LINE
  8
0
 62
4
 10
-3.98077401E+01
 20
4.91589246E+01
 11
-3.68077401E+01
 21
4.91589246E+01
  0
LINE
  8
0
 62
7
 10
8.69225987E+00
 20
3.71589246E+01
 11
1.11922599E+01
 21
3.71589246E+01
  0
LINE
  8
0
 62
4
 10
-1.05662992E+02
 20
3.79589246E+01
 11
-1.06662992E+02
 21
3.89589246E+01
  0
LINE
  8
0
 62
4
 10
-1.09762992E+02
 20
3.79589246E+01
 11
-1.08762992E+02
 21
3.89589246E+01
  0
LINE
  8
0
 62
4
 10
-1.05662992E+02
 20
4.19589246E+01
 11
-1.06662992E+02
 21
4.09589246E+01
  0
LINE
  8
0
 62
4
 10
-1.09762992E+02
 20
4.19589246E+01
 11
-1.08762992E+02
 21
4.09589246E+01
  0
LINE
  8
0
 62
4
 10
-1.08762992E+02
 20
3.89589246E+01
 11
-1.06662992E+02
 21
3.89589246E+01
  0
LINE
  8
0
 62
4
 10
-1.06662992E+02
 20
4.09589246E+01
 11
-1.06662992E+02
 21
3.89589246E+01
  0
LINE
  8
0
 62
4
 10
-1.08762992E+02
 20
4.09589246E+01
 11
-1.08762992E+02
 21
3.89589246E+01
  0
LINE
  8
0
 62
4
 10
-1.06662992E+02
 20
4.09589246E+01
 11
-1.08762992E+02
 21
4.09589246E+01
  0
LINE
  8
0
 62
4
 10
-1.08802329E+02
 20
3.79589246E+01
 11
-1.09762992E+02
 21
3.79589246E+01
  0
LINE
  8
0
 62
4
 10
-1.06212992E+02
 20
4.39589246E+01
 11
-1.06512992E+02
 21
4.36589246E+01
  0
LINE
  8
0
 62
4
 10
-1.09212992E+02
 20
4.39589246E+01
 11
-1.08912992E+02
 21
4.36589246E+01
  0
LINE
  8
0
 62
4
 10
-1.12062539E+02
 20
4.52928791E+01
 11
-1.12560187E+02
 21
4.53413212E+01
  0
LINE
  8
0
 62
4
 10
-1.12560187E+02
 20
4.53413212E+01
 11
-1.13509665E+02
 21
3.55872919E+01
  0
LINE
  8
0
 62
4
 10
-1.12542992E+02
 20
3.88089246E+01
 11
-1.12692286E+02
 21
3.88234573E+01
  0
LINE
  8
0
 62
4
 10
-1.12062539E+02
 20
4.52928791E+01
 11
-1.12935624E+02
 21
3.63236384E+01
  0
LINE
  8
0
 62
4
 10
-1.12542992E+02
 20
3.88089246E+01
 11
-1.12767199E+02
 21
3.65056341E+01
  0
LINE
  8
0
 62
4
 10
-1.04212992E+02
 20
4.01589246E+01
 11
-1.03376503E+02
 21
3.71519319E+01
  0
LINE
  8
0
 62
4
 10
-1.04362992E+02
 20
4.01589246E+01
 11
-1.03569615E+02
 21
3.72985761E+01
  0
LINE
  8
0
 62
4
 10
-1.10962992E+02
 20
4.36589246E+01
 11
-1.10962992E+02
 21
3.76589246E+01
  0
LINE
  8
0
 62
4
 10
-1.04462992E+02
 20
4.36589246E+01
 11
-1.04462992E+02
 21
4.01589246E+01
  0
LINE
  8
0
 62
4
 10
-1.04462992E+02
 20
4.36589246E+01
 11
-1.10962992E+02
 21
4.36589246E+01
  0
LINE
  8
0
 62
4
 10
-1.05662992E+02
 20
3.79589246E+01
 11
-1.06623654E+02
 21
3.79589246E+01
  0
LINE
  8
0
 62
4
 10
-1.09762992E+02
 20
4.19589246E+01
 11
-1.09762992E+02
 21
3.79589246E+01
  0
LINE
  8
0
 62
4
 10
-1.05662992E+02
 20
4.19589246E+01
 11
-1.09762992E+02
 21
4.19589246E+01
  0
LINE
  8
0
 62
4
 10
-1.06712992E+02
 20
4.22589246E+01
 11
-1.06712992E+02
 21
4.19589246E+01
  0
LINE
  8
0
 62
4
 10
-1.08712992E+02
 20
4.22589246E+01
 11
-1.08712992E+02
 21
4.19589246E+01
  0
LINE
  8
0
 62
4
 10
-1.06712992E+02
 20
4.22589246E+01
 11
-1.08712992E+02
 21
4.22589246E+01
  0
LINE
  8
0
 62
4
 10
-1.04462992E+02
 20
4.29589246E+01
 11
-1.10962992E+02
 21
4.29589246E+01
  0
LINE
  8
0
 62
4
 10
-1.04462992E+02
 20
3.97589246E+01
 11
-1.05662992E+02
 21
3.97589246E+01
  0
LINE
  8
0
 62
4
 10
-1.04462992E+02
 20
4.01589246E+01
 11
-1.05662992E+02
 21
4.01589246E+01
  0
LINE
  8
0
 62
4
 10
-1.04462992E+02
 20
3.97589246E+01
 11
-1.04462992E+02
 21
3.76589246E+01
  0
LINE
  8
0
 62
4
 10
-1.05662992E+02
 20
4.19589246E+01
 11
-1.05662992E+02
 21
3.79589246E+01
  0
LINE
  8
0
 62
4
 10
-1.11212992E+02
 20
4.53589246E+01
 11
-1.11212992E+02
 21
3.94589246E+01
  0
LINE
  8
0
 62
4
 10
-1.04212992E+02
 20
4.53589246E+01
 11
-1.04212992E+02
 21
4.01589246E+01
  0
LINE
  8
0
 62
4
 10
-1.05212992E+02
 20
4.76589246E+01
 11
-1.10212992E+02
 21
4.76589246E+01
  0
LINE
  8
0
 62
4
 10
-1.04212992E+02
 20
4.66589246E+01
 11
-1.11212992E+02
 21
4.66589246E+01
  0
LINE
  8
0
 62
4
 10
-1.05712992E+02
 20
4.51589246E+01
 11
-1.09712992E+02
 21
4.51589246E+01
  0
LINE
  8
0
 62
4
 10
-1.04712992E+02
 20
4.58589246E+01
 11
-1.10712992E+02
 21
4.58589246E+01
  0
LINE
  8
0
 62
4
 10
-1.12012992E+02
 20
4.58589246E+01
 11
-1.12012992E+02
 21
3.94589246E+01
  0
LINE
  8
0
 62
4
 10
-1.03412992E+02
 20
4.58589246E+01
 11
-1.03412992E+02
 21
4.01589246E+01
  0
LINE
  8
0
 62
4
 10
-1.09772992E+02
 20
4.58589246E+01
 11
-1.09712992E+02
 21
4.51589246E+01
  0
LINE
  8
0
 62
4
 10
-1.05652992E+02
 20
4.58589246E+01
 11
-1.05712992E+02
 21
4.51589246E+01
  0
LINE
  8
0
 62
4
 10
-1.03412992E+02
 20
4.01589246E+01
 11
-1.04212992E+02
 21
4.01589246E+01
  0
LINE
  8
0
 62
4
 10
-1.11212992E+02
 20
3.94589246E+01
 11
-1.12012992E+02
 21
3.94589246E+01
  0
LINE
  8
0
 62
4
 10
-1.12012992E+02
 20
4.16589246E+01
 11
-1.12394606E+02
 21
4.18815332E+01
  0
LINE
  8
0
 62
4
 10
-1.13612992E+02
 20
4.49589246E+01
 11
-1.13612992E+02
 21
4.25889246E+01
  0
LINE
  8
0
 62
4
 10
-1.12812992E+02
 20
4.49589246E+01
 11
-1.13612992E+02
 21
4.49589246E+01
  0
LINE
  8
0
 62
4
 10
-1.12812992E+02
 20
4.49589246E+01
 11
-1.12812992E+02
 21
4.30489246E+01
  0
LINE
  8
0
 62
4
 10
-1.12012992E+02
 20
4.25889246E+01
 11
-1.12309702E+02
 21
4.27537635E+01
  0
LINE
  8
0
 62
4
 10
-1.04362992E+02
 20
4.53589246E+01
 11
-1.04362992E+02
 21
4.01589246E+01
  0
LINE
  8
0
 62
4
 10
-1.04212992E+02
 20
4.53589246E+01
 11
-1.04362992E+02
 21
4.53589246E+01
  0
LINE
  8
0
 62
4
 10
-1.12785141E+02
 20
4.30303573E+01
 11
-1.12812992E+02
 21
4.30489246E+01
  0
LINE
  8
0
 62
4
 10
-1.12870883E+02
 20
4.21495185E+01
 11
-1.13612992E+02
 21
4.25889246E+01
  0
LINE
  8
0
 62
4
 10
-1.06212992E+02
 20
4.76589246E+01
 11
-1.06212992E+02
 21
4.66589246E+01
  0
LINE
  8
0
 62
4
 10
-1.09212992E+02
 20
4.76589246E+01
 11
-1.09212992E+02
 21
4.66589246E+01
  0
LINE
  8
0
 62
6
 10
-1.08942992E+02
 20
4.76589246E+01
 11
-1.08942992E+02
 21
4.66589246E+01
  0
LINE
  8
0
 62
6
 10
-1.06482992E+02
 20
4.76589246E+01
 11
-1.06482992E+02
 21
4.66589246E+01
  0
LINE
  8
0
 62
4
 10
-1.10212992E+02
 20
4.81589246E+01
 11
-1.10212992E+02
 21
4.76589246E+01
  0
LINE
  8
0
 62
4
 10
-1.05212992E+02
 20
4.81589246E+01
 11
-1.05212992E+02
 21
4.76589246E+01
  0
LINE
  8
0
 62
4
 10
-1.06212992E+02
 20
4.91589246E+01
 11
-1.09212992E+02
 21
4.91589246E+01
  0
LINE
  8
0
 62
4
 10
-1.06212992E+02
 20
4.51589246E+01
 11
-1.06212992E+02
 21
4.39589246E+01
  0
LINE
  8
0
 62
6
 10
-1.06482992E+02
 20
4.51589246E+01
 11
-1.06482992E+02
 21
4.36889246E+01
  0
LINE
  8
0
 62
6
 10
-1.08942992E+02
 20
4.51589246E+01
 11
-1.08942992E+02
 21
4.36889246E+01
  0
LINE
  8
0
 62
4
 10
-1.09212992E+02
 20
4.51589246E+01
 11
-1.09212992E+02
 21
4.39589246E+01
  0
ARC
  8
0
 62
4
 10
-1.04713152E+02
 20
4.53587645E+01
 40
5.00160181E-01
 50
1.83465799E-02
 51
9.00000002E+01
  0
ARC
  8
0
 62
4
 10
-1.10720617E+02
 20
4.53665498E+01
 40
4.92433852E-01
 50
8.91127567E+01
 51
1.80887243E+02
  0
ARC
  8
0
 62
4
 10
-1.04213130E+02
 20
4.58587863E+01
 40
8.00138358E-01
 50
9.90662024E-03
 51
9.00000002E+01
  0
ARC
  8
0
 62
4
 10
-1.11220617E+02
 20
4.58665498E+01
 40
7.92411497E-01
 50
8.94486475E+01
 51
1.80551352E+02
  0
ARC
  8
0
 62
4
 10
-1.06213121E+02
 20
4.81587951E+01
 40
1.00012957E+00
 50
7.42247612E-03
 51
9.00000002E+01
  0
ARC
  8
0
 62
4
 10
-1.09220618E+02
 20
4.81665514E+01
 40
9.92402587E-01
 50
8.95596718E+01
 51
1.80440329E+02
  0
ARC
  8
0
 62
7
 10
-1.07719013E+02
 20
3.16649456E+01
 40
6.99402955E+00
 50
1.21017085E+02
 51
1.48982915E+02
  0
ARC
  8
0
 62
7
 10
-1.07706473E+02
 20
3.16503868E+01
 40
7.00111676E+00
 50
3.11212937E+01
 51
5.91179366E+01
  0
ARC
  8
0
 62
7
 10
-1.07706474E+02
 20
3.16774636E+01
 40
7.00111833E+00
 50
3.00882066E+02
 51
3.28878703E+02
  0
ARC
  8
0
 62
7
 10
-1.07719012E+02
 20
3.16629048E+01
 40
6.99403112E+00
 50
2.11017088E+02
 51
2.38982912E+02
  0
ARC
  8
0
 62
7
 10
-1.07717163E+02
 20
3.16655863E+01
 40
3.99405823E+00
 50
9.10878482E+01
 51
1.49062800E+02
  0
ARC
  8
0
 62
7
 10
-1.07719845E+02
 20
3.16638171E+01
 40
3.99584669E+00
 50
3.09514064E+01
 51
8.88979451E+01
  0
ARC
  8
0
 62
7
 10
-1.07720033E+02
 20
3.16639246E+01
 40
4.00544151E+00
 50
3.31112406E+02
 51
2.88875940E+01
  0
ARC
  8
0
 62
7
 10
-1.07719846E+02
 20
3.16640339E+01
 40
3.99584842E+00
 50
2.71102069E+02
 51
3.29048580E+02
  0
ARC
  8
0
 62
7
 10
-1.07717162E+02
 20
3.16622647E+01
 40
3.99405996E+00
 50
2.10937213E+02
 51
2.68912138E+02
  0
ARC
  8
0
 62
7
 10
-1.07720033E+02
 20
3.16639246E+01
 40
3.99311751E+00
 50
1.51014793E+02
 51
2.08985207E+02
  0
CIRCLE
  8
0
 62
4
 10
-1.07720033E+02
 20
3.16639258E+01
 40
3.50000000E+00
  0
CIRCLE
  8
0
 62
7
 10
-1.07720033E+02
 20
3.16639258E+01
 40
2.00000000E+00
  0
LINE
  8
0
 62
7
 10
-1.06112992E+02
 20
3.76589246E+01
 11
-1.04112992E+02
 21
3.76589246E+01
  0
LINE
  8
0
 62
7
 10
-1.06112992E+02
 20
2.56689246E+01
 11
-1.04112992E+02
 21
2.56689246E+01
  0
LINE
  8
0
 62
4
 10
-1.01712992E+02
 20
3.51189246E+01
 11
-1.07712992E+02
 21
3.85889246E+01
  0
LINE
  8
0
 62
4
 10
-1.07712992E+02
 20
2.47389246E+01
 11
-1.01712992E+02
 21
2.82089246E+01
  0
LINE
  8
0
 62
4
 10
-1.13712992E+02
 20
2.82089246E+01
 11
-1.07712992E+02
 21
2.47389246E+01
  0
LINE
  8
0
 62
7
 10
-1.13712992E+02
 20
3.52689246E+01
 11
-1.13712992E+02
 21
3.51189246E+01
  0
LINE
  8
0
 62
7
 10
-1.11322992E+02
 20
3.76589246E+01
 11
-1.09322992E+02
 21
3.76589246E+01
  0
LINE
  8
0
 62
7
 10
-1.11322992E+02
 20
2.56689246E+01
 11
-1.09322992E+02
 21
2.56689246E+01
  0
LINE
  8
0
 62
7
 10
-1.01712992E+02
 20
3.52689246E+01
 11
-1.01712992E+02
 21
3.51189246E+01
  0
LINE
  8
0
 62
4
 10
-1.07712992E+02
 20
3.85889246E+01
 11
-1.13712992E+02
 21
3.51189246E+01
  0
LINE
  8
0
 62
4
 10
-1.04212992E+02
 20
3.36789246E+01
 11
-1.07712992E+02
 21
3.56989246E+01
  0
LINE
  8
0
 62
4
 10
-1.04212992E+02
 20
2.96489246E+01
 11
-1.04212992E+02
 21
3.36789246E+01
  0
LINE
  8
0
 62
4
 10
-1.07712992E+02
 20
2.76289246E+01
 11
-1.04212992E+02
 21
2.96489246E+01
  0
LINE
  8
0
 62
4
 10
-1.11212992E+02
 20
2.96489246E+01
 11
-1.07712992E+02
 21
2.76289246E+01
  0
LINE
  8
0
 62
4
 10
-1.11212992E+02
 20
3.36789246E+01
 11
-1.11212992E+02
 21
2.96489246E+01
  0
LINE
  8
0
 62
4
 10
-1.07712992E+02
 20
3.56989246E+01
 11
-1.11212992E+02
 21
3.36789246E+01
  0
LINE
  8
0
  6
CENTER
 62
2
 10
-1.07712992E+02
 20
5.04513844E+01
 11
-1.07712992E+02
 21
2.36689246E+01
  0
LINE
  8
0
  6
CENTER
 62
2
 10
-1.15712992E+02
 20
3.16589246E+01
 11
-9.97129917E+01
 21
3.16589246E+01
  0
CIRCLE
  8
0
 62
2
 10
-1.07712992E+02
 20
3.16589246E+01
 40
1.62100000E+00
  0
LINE
  8
0
 62
4
 10
-1.01712992E+02
 20
3.51189246E+01
 11
-1.01712992E+02
 21
2.82089246E+01
  0
LINE
  8
0
 62
7
 10
-1.01712992E+02
 20
2.82089246E+01
 11
-1.01712992E+02
 21
2.80589246E+01
  0
LINE
  8
0
 62
4
 10
-1.13712992E+02
 20
3.51189246E+01
 11
-1.13712992E+02
 21
2.82089246E+01
  0
LINE
  8
0
 62
7
 10
-1.13712992E+02
 20
2.82089246E+01
 11
-1.13712992E+02
 21
2.80589246E+01
  0
CIRCLE
  8
0
 62
4
 10
-1.07712992E+02
 20
3.16589246E+01
 40
6.00000000E+00
  0
LINE
  8
0
 62
4
 10
1.03876346E+02
 20
3.79589246E+01
 11
1.04837008E+02
 21
3.79589246E+01
  0
LINE
  8
0
 62
4
 10
1.01287008E+02
 20
4.39589246E+01
 11
1.01587008E+02
 21
4.36589246E+01
  0
LINE
  8
0
 62
4
 10
1.04287008E+02
 20
4.39589246E+01
 11
1.03987008E+02
 21
4.36589246E+01
  0
LINE
  8
0
 62
4
 10
1.07136555E+02
 20
4.52928791E+01
 11
1.07634203E+02
 21
4.53413212E+01
  0
LINE
  8
0
 62
4
 10
1.07634203E+02
 20
4.53413212E+01
 11
1.08583818E+02
 21
3.55858876E+01
  0
LINE
  8
0
 62
4
 10
1.07617008E+02
 20
3.88089246E+01
 11
1.07766303E+02
 21
3.88234573E+01
  0
LINE
  8
0
 62
4
 10
1.07136555E+02
 20
4.52928791E+01
 11
1.08010008E+02
 21
3.63198575E+01
  0
LINE
  8
0
 62
4
 10
1.07617008E+02
 20
3.88089246E+01
 11
1.07841628E+02
 21
3.65013983E+01
  0
LINE
  8
0
 62
4
 10
9.92870083E+01
 20
4.01589246E+01
 11
9.84523532E+01
 21
3.71585214E+01
  0
LINE
  8
0
 62
4
 10
9.94370083E+01
 20
4.01589246E+01
 11
9.86455144E+01
 21
3.73053634E+01
  0
CIRCLE
  8
0
 62
4
 10
1.02787008E+02
 20
3.99589246E+01
 40
1.30000000E+00
  0
LINE
  8
0
 62
4
 10
1.06037008E+02
 20
4.36589246E+01
 11
1.06037008E+02
 21
3.76589246E+01
  0
LINE
  8
0
 62
4
 10
9.95370083E+01
 20
4.36589246E+01
 11
9.95370083E+01
 21
4.01589246E+01
  0
LINE
  8
0
 62
4
 10
9.95370083E+01
 20
4.36589246E+01
 11
1.06037008E+02
 21
4.36589246E+01
  0
LINE
  8
0
 62
4
 10
1.00737008E+02
 20
3.79589246E+01
 11
1.01697671E+02
 21
3.79589246E+01
  0
LINE
  8
0
 62
4
 10
1.04837008E+02
 20
4.19589246E+01
 11
1.04837008E+02
 21
3.79589246E+01
  0
LINE
  8
0
 62
4
 10
1.00737008E+02
 20
4.19589246E+01
 11
1.04837008E+02
 21
4.19589246E+01
  0
LINE
  8
0
 62
4
 10
1.01787008E+02
 20
4.22589246E+01
 11
1.01787008E+02
 21
4.19589246E+01
  0
LINE
  8
0
 62
4
 10
1.03787008E+02
 20
4.22589246E+01
 11
1.03787008E+02
 21
4.19589246E+01
  0
LINE
  8
0
 62
4
 10
1.01787008E+02
 20
4.22589246E+01
 11
1.03787008E+02
 21
4.22589246E+01
  0
LINE
  8
0
 62
4
 10
9.95370083E+01
 20
4.29589246E+01
 11
1.06037008E+02
 21
4.29589246E+01
  0
LINE
  8
0
 62
4
 10
9.95370083E+01
 20
3.97589246E+01
 11
1.00737008E+02
 21
3.97589246E+01
  0
LINE
  8
0
 62
4
 10
9.95370083E+01
 20
4.01589246E+01
 11
1.00737008E+02
 21
4.01589246E+01
  0
LINE
  8
0
 62
4
 10
9.95370083E+01
 20
3.97589246E+01
 11
9.95370083E+01
 21
3.76589246E+01
  0
LINE
  8
0
 62
4
 10
1.00737008E+02
 20
4.19589246E+01
 11
1.00737008E+02
 21
3.79589246E+01
  0
LINE
  8
0
 62
4
 10
1.06287008E+02
 20
4.53589246E+01
 11
1.06287008E+02
 21
3.94589246E+01
  0
LINE
  8
0
 62
4
 10
9.92870083E+01
 20
4.53589246E+01
 11
9.92870083E+01
 21
4.01589246E+01
  0
LINE
  8
0
 62
4
 10
1.00287008E+02
 20
4.76589246E+01
 11
1.05287008E+02
 21
4.76589246E+01
  0
LINE
  8
0
 62
4
 10
9.92870083E+01
 20
4.66589246E+01
 11
1.06287008E+02
 21
4.66589246E+01
  0
LINE
  8
0
 62
4
 10
1.00787008E+02
 20
4.51589246E+01
 11
1.04787008E+02
 21
4.51589246E+01
  0
LINE
  8
0
 62
4
 10
9.97870083E+01
 20
4.58589246E+01
 11
1.05787008E+02
 21
4.58589246E+01
  0
LINE
  8
0
 62
4
 10
1.07087008E+02
 20
4.58589246E+01
 11
1.07087008E+02
 21
3.94589246E+01
  0
LINE
  8
0
 62
4
 10
9.84870083E+01
 20
4.58589246E+01
 11
9.84870083E+01
 21
4.01589246E+01
  0
LINE
  8
0
 62
4
 10
1.04847008E+02
 20
4.58589246E+01
 11
1.04787008E+02
 21
4.51589246E+01
  0
LINE
  8
0
 62
4
 10
1.00727008E+02
 20
4.58589246E+01
 11
1.00787008E+02
 21
4.51589246E+01
  0
LINE
  8
0
 62
4
 10
9.84870083E+01
 20
4.01589246E+01
 11
9.92870083E+01
 21
4.01589246E+01
  0
LINE
  8
0
 62
4
 10
1.06287008E+02
 20
3.94589246E+01
 11
1.07087008E+02
 21
3.94589246E+01
  0
LINE
  8
0
 62
4
 10
1.07087008E+02
 20
4.16589246E+01
 11
1.07468623E+02
 21
4.18815332E+01
  0
LINE
  8
0
 62
4
 10
1.08687008E+02
 20
4.49589246E+01
 11
1.08687008E+02
 21
4.25889246E+01
  0
LINE
  8
0
 62
4
 10
1.07887008E+02
 20
4.49589246E+01
 11
1.08687008E+02
 21
4.49589246E+01
  0
LINE
  8
0
 62
4
 10
1.07887008E+02
 20
4.49589246E+01
 11
1.07887008E+02
 21
4.30489246E+01
  0
LINE
  8
0
 62
4
 10
1.07087008E+02
 20
4.25889246E+01
 11
1.07383718E+02
 21
4.27537635E+01
  0
LINE
  8
0
 62
4
 10
9.94370083E+01
 20
4.53589246E+01
 11
9.94370083E+01
 21
4.01589246E+01
  0
LINE
  8
0
 62
4
 10
9.92870083E+01
 20
4.53589246E+01
 11
9.94370083E+01
 21
4.53589246E+01
  0
LINE
  8
0
 62
4
 10
1.07859157E+02
 20
4.30303573E+01
 11
1.07887008E+02
 21
4.30489246E+01
  0
LINE
  8
0
 62
4
 10
1.07944900E+02
 20
4.21495185E+01
 11
1.08687008E+02
 21
4.25889246E+01
  0
LINE
  8
0
 62
4
 10
1.01287008E+02
 20
4.76589246E+01
 11
1.01287008E+02
 21
4.66589246E+01
  0
LINE
  8
0
 62
4
 10
1.04287008E+02
 20
4.76589246E+01
 11
1.04287008E+02
 21
4.66589246E+01
  0
LINE
  8
0
 62
6
 10
1.04017008E+02
 20
4.76589246E+01
 11
1.04017008E+02
 21
4.66589246E+01
  0
LINE
  8
0
 62
6
 10
1.01557008E+02
 20
4.76589246E+01
 11
1.01557008E+02
 21
4.66589246E+01
  0
LINE
  8
0
 62
4
 10
1.05287008E+02
 20
4.81589246E+01
 11
1.05287008E+02
 21
4.76589246E+01
  0
LINE
  8
0
 62
4
 10
1.00287008E+02
 20
4.81589246E+01
 11
1.00287008E+02
 21
4.76589246E+01
  0
LINE
  8
0
 62
4
 10
1.01287008E+02
 20
4.91589246E+01
 11
1.04287008E+02
 21
4.91589246E+01
  0
LINE
  8
0
 62
4
 10
1.01287008E+02
 20
4.51589246E+01
 11
1.01287008E+02
 21
4.39589246E+01
  0
LINE
  8
0
 62
6
 10
1.01557008E+02
 20
4.51589246E+01
 11
1.01557008E+02
 21
4.36889246E+01
  0
LINE
  8
0
 62
6
 10
1.04017008E+02
 20
4.51589246E+01
 11
1.04017008E+02
 21
4.36889246E+01
  0
LINE
  8
0
 62
4
 10
1.04287008E+02
 20
4.51589246E+01
 11
1.04287008E+02
 21
4.39589246E+01
  0
LINE
  8
0
 62
4
 10
1.01487008E+02
 20
3.86589246E+01
 11
1.04087008E+02
 21
3.86589246E+01
  0
LINE
  8
0
 62
4
 10
1.01487008E+02
 20
4.12589246E+01
 11
1.04087008E+02
 21
4.12589246E+01
  0
LINE
  8
0
 62
4
 10
1.04087008E+02
 20
4.12589246E+01
 11
1.04087008E+02
 21
3.86589246E+01
  0
LINE
  8
0
 62
4
 10
1.01487008E+02
 20
4.12589246E+01
 11
1.01487008E+02
 21
3.86589246E+01
  0
LINE
  8
0
 62
4
 10
1.00737008E+02
 20
4.19589246E+01
 11
1.01487008E+02
 21
4.12589246E+01
  0
LINE
  8
0
 62
4
 10
1.04087008E+02
 20
4.12589246E+01
 11
1.04837008E+02
 21
4.19589246E+01
  0
LINE
  8
0
 62
4
 10
1.01487008E+02
 20
3.86589246E+01
 11
1.00737008E+02
 21
3.79589246E+01
  0
LINE
  8
0
 62
4
 10
1.04087008E+02
 20
3.86589246E+01
 11
1.04837008E+02
 21
3.79589246E+01
  0
ARC
  8
0
 62
4
 10
9.97871685E+01
 20
4.53587645E+01
 40
5.00160181E-01
 50
9.00000002E+01
 51
1.79981654E+02
  0
ARC
  8
0
 62
4
 10
1.05794634E+02
 20
4.53665498E+01
 40
4.92433852E-01
 50
3.59112757E+02
 51
9.08872431E+01
  0
ARC
  8
0
 62
4
 10
9.92871467E+01
 20
4.58587863E+01
 40
8.00138358E-01
 50
9.00000002E+01
 51
1.79990093E+02
  0
ARC
  8
0
 62
4
 10
1.06294634E+02
 20
4.58665498E+01
 40
7.92411497E-01
 50
3.59448647E+02
 51
9.05513523E+01
  0
ARC
  8
0
 62
4
 10
1.01287138E+02
 20
4.81587951E+01
 40
1.00012957E+00
 50
9.00000002E+01
 51
1.79992578E+02
  0
ARC
  8
0
 62
4
 10
1.04294635E+02
 20
4.81665514E+01
 40
9.92402587E-01
 50
3.59559672E+02
 51
9.04403286E+01
  0
LINE
  8
0
 62
7
 10
9.67870083E+01
 20
2.82089246E+01
 11
9.67870083E+01
 21
2.80589246E+01
  0
LINE
  8
0
 62
4
 10
9.67870083E+01
 20
3.51189246E+01
 11
9.67870083E+01
 21
2.82089246E+01
  0
LINE
  8
0
 62
7
 10
1.08787008E+02
 20
2.82089246E+01
 11
1.08787008E+02
 21
2.80589246E+01
  0
LINE
  8
0
 62
4
 10
1.08787008E+02
 20
3.51189246E+01
 11
1.08787008E+02
 21
2.82089246E+01
  0
CIRCLE
  8
0
 62
2
 10
1.02787008E+02
 20
3.16589246E+01
 40
1.62100000E+00
  0
LINE
  8
0
 62
7
 10
1.02787008E+02
 20
3.56989246E+01
 11
9.92870083E+01
 21
3.36789246E+01
  0
LINE
  8
0
 62
7
 10
9.92870083E+01
 20
3.36789246E+01
 11
9.92870083E+01
 21
2.96489246E+01
  0
LINE
  8
0
 62
7
 10
9.92870083E+01
 20
2.96489246E+01
 11
1.02787008E+02
 21
2.76289246E+01
  0
LINE
  8
0
 62
7
 10
1.02787008E+02
 20
2.76289246E+01
 11
1.06287008E+02
 21
2.96489246E+01
  0
LINE
  8
0
 62
7
 10
1.06287008E+02
 20
2.96489246E+01
 11
1.06287008E+02
 21
3.36789246E+01
  0
LINE
  8
0
 62
7
 10
1.06287008E+02
 20
3.36789246E+01
 11
1.02787008E+02
 21
3.56989246E+01
  0
LINE
  8
0
 62
4
 10
1.02787008E+02
 20
3.85889246E+01
 11
9.67870083E+01
 21
3.51189246E+01
  0
LINE
  8
0
 62
7
 10
1.08787008E+02
 20
3.52689246E+01
 11
1.08787008E+02
 21
3.51189246E+01
  0
LINE
  8
0
 62
7
 10
9.91770083E+01
 20
2.56689246E+01
 11
1.01177008E+02
 21
2.56689246E+01
  0
LINE
  8
0
 62
7
 10
9.91770083E+01
 20
3.76589246E+01
 11
1.01177008E+02
 21
3.76589246E+01
  0
LINE
  8
0
 62
7
 10
9.67870083E+01
 20
3.52689246E+01
 11
9.67870083E+01
 21
3.51189246E+01
  0
LINE
  8
0
 62
4
 10
9.67870083E+01
 20
2.82089246E+01
 11
1.02787008E+02
 21
2.47389246E+01
  0
LINE
  8
0
 62
4
 10
1.02787008E+02
 20
2.47389246E+01
 11
1.08787008E+02
 21
2.82089246E+01
  0
LINE
  8
0
 62
4
 10
1.08787008E+02
 20
3.51189246E+01
 11
1.02787008E+02
 21
3.85889246E+01
  0
LINE
  8
0
 62
7
 10
1.04387008E+02
 20
2.56689246E+01
 11
1.06387008E+02
 21
2.56689246E+01
  0
LINE
  8
0
 62
7
 10
1.04387008E+02
 20
3.76589246E+01
 11
1.06387008E+02
 21
3.76589246E+01
  0
CIRCLE
  8
0
 62
7
 10
1.02779967E+02
 20
3.16639258E+01
 40
2.00000000E+00
  0
CIRCLE
  8
0
 62
7
 10
1.02779967E+02
 20
3.16639258E+01
 40
3.50000000E+00
  0
ARC
  8
0
 62
7
 10
1.02779967E+02
 20
3.16639246E+01
 40
3.99311751E+00
 50
1.51014793E+02
 51
2.08985207E+02
  0
ARC
  8
0
 62
7
 10
1.02782838E+02
 20
3.16622647E+01
 40
3.99405996E+00
 50
2.10937213E+02
 51
2.68912138E+02
  0
ARC
  8
0
 62
7
 10
1.02780154E+02
 20
3.16640339E+01
 40
3.99584842E+00
 50
2.71102069E+02
 51
3.29048580E+02
  0
ARC
  8
0
 62
7
 10
1.02779967E+02
 20
3.16639246E+01
 40
4.00544151E+00
 50
3.31112406E+02
 51
2.88875940E+01
  0
ARC
  8
0
 62
7
 10
1.02780155E+02
 20
3.16638171E+01
 40
3.99584669E+00
 50
3.09514064E+01
 51
8.88979451E+01
  0
ARC
  8
0
 62
7
 10
1.02782837E+02
 20
3.16655863E+01
 40
3.99405823E+00
 50
9.10878482E+01
 51
1.49062800E+02
  0
ARC
  8
0
 62
7
 10
1.02780988E+02
 20
3.16629048E+01
 40
6.99403112E+00
 50
2.11017088E+02
 51
2.38982912E+02
  0
CIRCLE
  8
0
 62
4
 10
1.02779967E+02
 20
3.16639258E+01
 40
6.00000000E+00
  0
ARC
  8
0
 62
7
 10
1.02793526E+02
 20
3.16774636E+01
 40
7.00111833E+00
 50
3.00882066E+02
 51
3.28878703E+02
  0
ARC
  8
0
 62
7
 10
1.02793527E+02
 20
3.16503868E+01
 40
7.00111676E+00
 50
3.11212937E+01
 51
5.91179366E+01
  0
ARC
  8
0
 62
7
 10
1.02780987E+02
 20
3.16649456E+01
 40
6.99402955E+00
 50
1.21017085E+02
 51
1.48982915E+02
  0
LINE
  8
0
  6
CENTER
 62
2
 10
1.02787008E+02
 20
5.06347538E+01
 11
1.02787008E+02
 21
2.36689246E+01
  0
LINE
  8
0
  6
CENTER
 62
2
 10
9.47870083E+01
 20
3.16589246E+01
 11
1.10787008E+02
 21
3.16589246E+01
  0
LINE
  8
0
  6
CENTER
 62
6
 10
1.69700830E+00
 20
8.13889246E+01
 11
1.69700830E+00
 21
6.66689246E+01
  0
LINE
  8
0
 62
4
 10
-2.80299170E+00
 20
6.84389246E+01
 11
-2.80299170E+00
 21
7.99534036E+01
  0
LINE
  8
0
 62
4
 10
6.19700830E+00
 20
6.84389246E+01
 11
6.19700830E+00
 21
7.99534036E+01
  0
LINE
  8
0
 62
4
 10
1.71970083E+01
 20
7.53889246E+01
 11
1.71970083E+01
 21
7.27889246E+01
  0
LINE
  8
0
  6
CENTER
 62
6
 10
-1.29370684E+01
 20
7.40889246E+01
 11
2.33685843E+01
 21
7.40889246E+01
  0
LINE
  8
0
 62
4
 10
3.69700830E+00
 20
7.99534036E+01
 11
3.69700830E+00
 21
7.89361196E+01
  0
LINE
  8
0
 62
4
 10
-2.80299168E+00
 20
7.89361196E+01
 11
6.19700832E+00
 21
7.89361196E+01
  0
LINE
  8
0
 62
6
 10
2.21340074E+01
 20
7.53889246E+01
 11
1.95340074E+01
 21
7.27889246E+01
  0
LINE
  8
0
 62
4
 10
1.41970083E+01
 20
7.20889246E+01
 11
1.71970083E+01
 21
7.27889246E+01
  0
LINE
  8
0
 62
4
 10
1.71970083E+01
 20
7.27889246E+01
 11
1.95340074E+01
 21
7.27889246E+01
  0
LINE
  8
0
 62
4
 10
1.71970083E+01
 20
7.53889246E+01
 11
2.21340074E+01
 21
7.53889246E+01
  0
LINE
  8
0
 62
4
 10
1.41970083E+01
 20
7.60889246E+01
 11
1.71970083E+01
 21
7.53889246E+01
  0
LINE
  8
0
 62
4
 10
-2.80299171E+00
 20
7.83889613E+01
 11
6.19700830E+00
 21
7.83889613E+01
  0
LINE
  8
0
 62
4
 10
-2.80299171E+00
 20
6.97889246E+01
 11
6.19700830E+00
 21
6.97889246E+01
  0
LINE
  8
0
 62
4
 10
-5.30299170E+00
 20
7.08389246E+01
 11
-5.30299170E+00
 21
7.73389246E+01
  0
LINE
  8
0
 62
4
 10
2.80700830E+00
 20
7.29889246E+01
 11
2.75700830E+00
 21
7.30289246E+01
  0
LINE
  8
0
 62
4
 10
6.34441717E-01
 20
7.30263581E+01
 11
2.75444172E+00
 21
7.51463581E+01
  0
LINE
  8
0
 62
4
 10
2.70444172E+00
 20
7.30863581E+01
 11
6.34441717E-01
 21
7.51463581E+01
  0
LINE
  8
0
 62
4
 10
1.41970083E+01
 20
7.60889246E+01
 11
1.41970083E+01
 21
7.20889246E+01
  0
LINE
  8
0
 62
4
 10
-1.08029917E+01
 20
7.50889246E+01
 11
-1.08029917E+01
 21
7.30889246E+01
  0
LINE
  8
0
 62
4
 10
-9.80299170E+00
 20
7.20889246E+01
 11
-5.30299170E+00
 21
7.20889246E+01
  0
LINE
  8
0
 62
4
 10
-9.80299170E+00
 20
7.60889246E+01
 11
-5.30299170E+00
 21
7.60889246E+01
  0
LINE
  8
0
 62
4
 10
-9.80299170E+00
 20
7.60889246E+01
 11
-9.80299170E+00
 21
7.20889246E+01
  0
LINE
  8
0
 62
4
 10
-1.08029917E+01
 20
7.50889246E+01
 11
-9.80299170E+00
 21
7.60889246E+01
  0
LINE
  8
0
 62
4
 10
-1.08029917E+01
 20
7.30889246E+01
 11
-9.80299170E+00
 21
7.20889246E+01
  0
LINE
  8
0
 62
4
 10
-5.30299170E+00
 20
7.08389246E+01
 11
-2.80299170E+00
 21
7.08389246E+01
  0
LINE
  8
0
 62
4
 10
-5.30299170E+00
 20
7.73389246E+01
 11
-2.80299170E+00
 21
7.73389246E+01
  0
LINE
  8
0
 62
4
 10
8.69700830E+00
 20
7.08389246E+01
 11
8.69700830E+00
 21
7.73389246E+01
  0
LINE
  8
0
 62
4
 10
6.19700830E+00
 20
7.73389246E+01
 11
8.69700830E+00
 21
7.73389246E+01
  0
LINE
  8
0
 62
4
 10
6.19700830E+00
 20
7.08389246E+01
 11
8.69700830E+00
 21
7.08389246E+01
  0
LINE
  8
0
 62
4
 10
8.69700830E+00
 20
7.60889246E+01
 11
1.41970083E+01
 21
7.60889246E+01
  0
LINE
  8
0
 62
4
 10
8.69700830E+00
 20
7.20889246E+01
 11
1.41970083E+01
 21
7.20889246E+01
  0
CIRCLE
  8
0
 62
4
 10
1.69613306E+00
 20
7.40864661E+01
 40
2.50000000E+00
  0
LINE
  8
0
 62
4
 10
-3.02991706E-01
 20
7.91889246E+01
 11
3.69700829E+00
 21
7.91889246E+01
  0
LINE
  8
0
 62
4
 10
-2.80299168E+00
 20
7.99534036E+01
 11
6.19700832E+00
 21
7.99534036E+01
  0
LINE
  8
0
 62
4
 10
-3.02991697E-01
 20
7.89361196E+01
 11
-3.02991697E-01
 21
7.99534036E+01
  0
LINE
  8
0
 62
4
 10
-2.80299170E+00
 20
6.84389246E+01
 11
6.19700830E+00
 21
6.84389246E+01
  0
LINE
  8
0
  6
CENTER
 62
6
 10
-1.17088101E+02
 20
-4.38146146E+01
 11
-1.17088101E+02
 21
-3.82569591E+01
  0
LINE
  8
0
  6
CENTER
 62
6
 10
-9.48881012E+01
 20
-4.38146146E+01
 11
-9.48881012E+01
 21
-3.79583900E+01
  0
LINE
  8
0
  6
CENTER
 62
6
 10
-1.11602046E+02
 20
-3.28104135E+01
 11
-1.00405702E+02
 21
-3.28104135E+01
  0
LINE
  8
0
  6
CENTER
 62
6
 10
-1.05988101E+02
 20
-2.70606154E+01
 11
-1.05988101E+02
 21
-3.88540975E+01
  0
CIRCLE
  8
0
 62
4
 10
-1.05988101E+02
 20
-3.28104135E+01
 40
4.00000000E+00
  0
LINE
  8
0
 62
4
 10
-1.21988101E+02
 20
-4.18104135E+01
 11
-8.99881012E+01
 21
-4.18104135E+01
  0
LINE
  8
0
 62
4
 10
-1.21988101E+02
 20
-4.02104135E+01
 11
-8.99881012E+01
 21
-4.02104135E+01
  0
LINE
  8
0
 62
4
 10
-8.99881012E+01
 20
-4.02104135E+01
 11
-8.99881012E+01
 21
-4.18104135E+01
  0
LINE
  8
0
 62
4
 10
-1.21988101E+02
 20
-4.02104135E+01
 11
-1.21988101E+02
 21
-4.18104135E+01
  0
ARC
  8
0
 62
4
 10
-1.05988101E+02
 20
-3.28104135E+01
 40
7.00000000E+00
 50
4.17832706E+01
 51
1.38216729E+02
  0
LINE
  8
0
 62
4
 10
-8.99881012E+01
 20
-4.02104135E+01
 11
-1.00768407E+02
 21
-2.81462101E+01
  0
LINE
  8
0
 62
4
 10
-1.21988101E+02
 20
-4.02104135E+01
 11
-1.11207795E+02
 21
-2.81462101E+01
  0
LINE
  8
0
  6
CENTER
 62
6
 10
-7.49881012E+01
 20
-3.79583900E+01
 11
-7.49881012E+01
 21
-4.38146146E+01
  0
LINE
  8
0
 62
4
 10
-7.70881012E+01
 20
-4.02004135E+01
 11
-7.70881012E+01
 21
-4.18004135E+01
  0
LINE
  8
0
 62
4
 10
-7.28881012E+01
 20
-4.02004135E+01
 11
-7.28881012E+01
 21
-4.18004135E+01
  0
LINE
  8
0
 62
4
 10
-6.95881012E+01
 20
-2.58004135E+01
 11
-6.79881012E+01
 21
-2.58004135E+01
  0
LINE
  8
0
 62
4
 10
-6.95881012E+01
 20
-2.58004135E+01
 11
-6.95881012E+01
 21
-3.92004135E+01
  0
ARC
  8
0
 62
4
 10
-7.05912725E+01
 20
-3.91972422E+01
 40
1.00317633E+00
 50
2.70181129E+02
 51
3.59818872E+02
  0
LINE
  8
0
 62
4
 10
-7.99881012E+01
 20
-4.02004135E+01
 11
-7.05881012E+01
 21
-4.02004135E+01
  0
LINE
  8
0
 62
4
 10
-7.99881012E+01
 20
-4.02004135E+01
 11
-7.99881012E+01
 21
-4.18004135E+01
  0
LINE
  8
0
 62
4
 10
-7.99881012E+01
 20
-4.18004135E+01
 11
-7.05881012E+01
 21
-4.18004135E+01
  0
ARC
  8
0
 62
4
 10
-7.05912735E+01
 20
-3.91972412E+01
 40
2.60317420E+00
 50
2.70069822E+02
 51
3.59930178E+02
  0
LINE
  8
0
 62
4
 10
-6.79881012E+01
 20
-2.58004135E+01
 11
-6.79881012E+01
 21
-3.92004135E+01
  0
LINE
  8
0
  6
CENTER
 62
6
 10
-7.20141479E+01
 20
-3.28104135E+01
 11
-6.60681811E+01
 21
-3.28104135E+01
  0
ARC
  8
0
 62
4
 10
-1.17095148E+02
 20
-9.80041351E+00
 40
2.10001182E+00
 50
2.70192271E+02
 51
8.98077287E+01
  0
ARC
  8
0
 62
4
 10
-9.48951514E+01
 20
-9.80041351E+00
 40
2.10001183E+00
 50
8.98076456E+01
 51
2.70192355E+02
  0
LINE
  8
0
 62
4
 10
-1.21988101E+02
 20
-1.19004135E+01
 11
-1.21988101E+02
 21
-1.48004135E+01
  0
LINE
  8
0
 62
4
 10
-8.99881012E+01
 20
-1.19004135E+01
 11
-8.99881012E+01
 21
-1.48004135E+01
  0
LINE
  8
0
 62
4
 10
-9.48881012E+01
 20
-1.19004135E+01
 11
-8.99881012E+01
 21
-1.19004135E+01
  0
LINE
  8
0
 62
4
 10
-9.48881012E+01
 20
-7.70041351E+00
 11
-8.99881012E+01
 21
-7.70041351E+00
  0
LINE
  8
0
 62
4
 10
-1.21988101E+02
 20
-1.19004135E+01
 11
-1.17088101E+02
 21
-1.19004135E+01
  0
LINE
  8
0
 62
4
 10
-1.21988101E+02
 20
-7.70041351E+00
 11
-1.17088101E+02
 21
-7.70041351E+00
  0
LINE
  8
0
  6
CENTER
 62
6
 10
-1.19961983E+02
 20
-9.80041351E+00
 11
-9.21950501E+01
 21
-9.80041351E+00
  0
LINE
  8
0
  6
CENTER
 62
6
 10
-1.05988101E+02
 20
-1.41041351E+00
 11
-1.05988101E+02
 21
-1.60404135E+01
  0
LINE
  8
0
 62
4
 10
-1.21988101E+02
 20
-1.48004135E+01
 11
-8.99881012E+01
 21
-1.48004135E+01
  0
LINE
  8
0
 62
4
 10
-1.21988101E+02
 20
-2.80041351E+00
 11
-8.99881012E+01
 21
-2.80041351E+00
  0
LINE
  8
0
 62
4
 10
-8.99881012E+01
 20
-2.80041351E+00
 11
-8.99881012E+01
 21
-7.70041351E+00
  0
LINE
  8
0
 62
4
 10
-1.21988101E+02
 20
-2.80041351E+00
 11
-1.21988101E+02
 21
-7.70041351E+00
  0
LINE
  8
0
 62
4
 10
-1.21988101E+02
 20
-4.40041351E+00
 11
-8.99881012E+01
 21
-4.40041351E+00
  0
LINE
  8
0
  6
CENTER
 62
6
 10
-1.17088101E+02
 20
-1.32671334E+01
 11
-1.17088101E+02
 21
-6.80041351E+00
  0
LINE
  8
0
  6
CENTER
 62
6
 10
-9.48881012E+01
 20
-1.29685643E+01
 11
-9.48881012E+01
 21
-6.69861179E+00
  0
ARC
  8
0
 62
4
 10
-2.70881012E+01
 20
-2.88104135E+01
 40
2.10000000E+00
 50
2.70000000E+02
 51
9.00000002E+01
  0
ARC
  8
0
 62
4
 10
-4.88810119E+00
 20
-2.88104135E+01
 40
2.10000000E+00
 50
9.00000002E+01
 51
2.70000000E+02
  0
LINE
  8
0
 62
4
 10
-3.19881012E+01
 20
-3.09104135E+01
 11
-3.19881012E+01
 21
-3.58104135E+01
  0
LINE
  8
0
 62
4
 10
1.18988113E-02
 20
-3.09104135E+01
 11
1.18988113E-02
 21
-3.58104135E+01
  0
LINE
  8
0
 62
4
 10
-3.19881012E+01
 20
-2.18104135E+01
 11
1.18988113E-02
 21
-2.18104135E+01
  0
LINE
  8
0
 62
4
 10
-3.19881012E+01
 20
-3.58104135E+01
 11
1.18988113E-02
 21
-3.58104135E+01
  0
LINE
  8
0
 62
4
 10
-4.88810119E+00
 20
-2.67104135E+01
 11
1.18988113E-02
 21
-2.67104135E+01
  0
LINE
  8
0
 62
4
 10
-4.88810119E+00
 20
-3.09104135E+01
 11
1.18988113E-02
 21
-3.09104135E+01
  0
LINE
  8
0
 62
4
 10
-3.19881012E+01
 20
-2.67104135E+01
 11
-2.70881012E+01
 21
-2.67104135E+01
  0
LINE
  8
0
 62
4
 10
-3.19881012E+01
 20
-3.09104135E+01
 11
-2.70881012E+01
 21
-3.09104135E+01
  0
LINE
  8
0
  6
CENTER
 62
6
 10
-2.91062609E+01
 20
-2.88104135E+01
 11
-2.48768137E+00
 21
-2.88104135E+01
  0
LINE
  8
0
  6
CENTER
 62
6
 10
-1.59881012E+01
 20
-2.36250908E+01
 11
-1.59881012E+01
 21
-3.44524322E+01
  0
CIRCLE
  8
0
 62
4
 10
-1.59881012E+01
 20
-2.88104135E+01
 40
4.00000000E+00
  0
LINE
  8
0
 62
4
 10
1.18988113E-02
 20
-2.18104135E+01
 11
1.18988113E-02
 21
-2.67104135E+01
  0
LINE
  8
0
 62
4
 10
-3.19881012E+01
 20
-2.18104135E+01
 11
-3.19881012E+01
 21
-2.67104135E+01
  0
LINE
  8
0
  6
CENTER
 62
6
 10
-2.70881012E+01
 20
-2.60672643E+01
 11
-2.70881012E+01
 21
-3.18270990E+01
  0
LINE
  8
0
  6
CENTER
 62
6
 10
-4.88810119E+00
 20
-2.60672643E+01
 11
-4.88810119E+00
 21
-3.18270990E+01
  0
LINE
  8
0
  6
CENTER
 62
6
 10
2.31016383E+01
 20
-2.88104135E+01
 11
2.85788726E+01
 21
-2.88104135E+01
  0
LINE
  8
0
 62
4
 10
2.50118988E+01
 20
-2.18104135E+01
 11
2.66118988E+01
 21
-2.18104135E+01
  0
LINE
  8
0
 62
4
 10
2.66118988E+01
 20
-2.18104135E+01
 11
2.66118988E+01
 21
-3.58104135E+01
  0
LINE
  8
0
 62
4
 10
2.50118988E+01
 20
-2.18104135E+01
 11
2.50118988E+01
 21
-3.58104135E+01
  0
LINE
  8
0
 62
4
 10
2.50118988E+01
 20
-3.09104135E+01
 11
2.66118988E+01
 21
-3.09104135E+01
  0
LINE
  8
0
 62
4
 10
2.50118988E+01
 20
-3.58104135E+01
 11
2.66118988E+01
 21
-3.58104135E+01
  0
LINE
  8
0
 62
4
 10
2.50118988E+01
 20
-2.67104135E+01
 11
2.66118988E+01
 21
-2.67104135E+01
  0
LINE
  8
0
  6
CENTER
 62
6
 10
-1.59881012E+01
 20
-8.52613641E+00
 11
-1.59881012E+01
 21
-3.57091613E+00
  0
LINE
  8
0
  6
CENTER
 62
6
 10
-4.88810119E+00
 20
-8.52613641E+00
 11
-4.88810119E+00
 21
-3.57091613E+00
  0
LINE
  8
0
  6
CENTER
 62
6
 10
-4.88810119E+00
 20
-8.52613641E+00
 11
-4.88810119E+00
 21
-3.57091613E+00
  0
LINE
  8
0
 62
4
 10
-3.19881012E+01
 20
-5.21041351E+00
 11
-3.19881012E+01
 21
-6.81041351E+00
  0
LINE
  8
0
 62
4
 10
-3.19881012E+01
 20
-6.81041351E+00
 11
1.18988113E-02
 21
-6.81041351E+00
  0
LINE
  8
0
 62
4
 10
-3.19881012E+01
 20
-5.21041351E+00
 11
1.18988113E-02
 21
-5.21041351E+00
  0
LINE
  8
0
 62
4
 10
1.18988113E-02
 20
-5.21041351E+00
 11
1.18988113E-02
 21
-6.81041351E+00
  0
LINE
  8
0
  6
CENTER
 62
6
 10
-2.70881012E+01
 20
-8.52613641E+00
 11
-2.70881012E+01
 21
-3.57091613E+00
  0
LINE
  8
0
  6
CENTER
 62
6
 10
-4.88810119E+00
 20
-8.63385859E+00
 11
-4.88810119E+00
 21
-3.67863831E+00
  0
LINE
  8
0
 62
7
 10
-1.33399994E+02
 20
-8.98000031E+01
 11
1.16000061E+01
 21
-8.98000031E+01
  0
LINE
  8
0
 62
7
 10
-1.33399994E+02
 20
-8.38000031E+01
 11
1.16000061E+01
 21
-8.38000031E+01
  0
LINE
  8
0
 62
7
 10
-1.08399994E+02
 20
-5.98000031E+01
 11
-1.08399994E+02
 21
-8.98000031E+01
  0
LINE
  8
0
 62
7
 10
-9.63999939E+01
 20
-5.98000031E+01
 11
-9.63999939E+01
 21
-8.98000031E+01
  0
LINE
  8
0
 62
7
 10
-8.43999939E+01
 20
-5.98000031E+01
 11
-8.43999939E+01
 21
-8.98000031E+01
  0
LINE
  8
0
 62
7
 10
-1.33399994E+02
 20
-5.98000031E+01
 11
1.16000061E+01
 21
-5.98000031E+01
  0
LINE
  8
0
 62
7
 10
-1.33399994E+02
 20
-7.78000031E+01
 11
1.16000061E+01
 21
-7.78000031E+01
  0
LINE
  8
0
 62
7
 10
-1.08399994E+02
 20
-7.78000031E+01
 11
-1.10509994E+02
 21
-6.58000031E+01
  0
LINE
  8
0
 62
7
 10
-1.33399994E+02
 20
-6.58000031E+01
 11
-1.10509994E+02
 21
-6.58000031E+01
  0
LINE
  8
0
 62
7
 10
-1.33399994E+02
 20
-5.98000031E+01
 11
-1.33399994E+02
 21
-8.98000031E+01
  0
TEXT
  8
0
 62
7
 10
-1.29037469E+02
 20
-6.43963843E+01
 40
3.20000005E+00
  1
STROKE
 41
1.00000000E+00
  7
MONOTXT
  0
TEXT
  8
0
 62
7
 10
-9.31374690E+01
 20
-7.03963805E+01
 40
3.20000005E+00
  1
20
 41
1.00000000E+00
  7
MONOTXT
  0
TEXT
  8
0
 62
7
 10
-1.05137469E+02
 20
-7.03963805E+01
 40
3.20000005E+00
  1
15
 41
1.00000000E+00
  7
MONOTXT
  0
TEXT
  8
0
 62
7
 10
-9.47374691E+01
 20
-8.24000031E+01
 40
3.20000005E+00
  1
-10
 41
1.00000000E+00
  7
MONOTXT
  0
TEXT
  8
0
 62
7
 10
-1.06737469E+02
 20
-8.24000031E+01
 40
3.20000005E+00
  1
-15
 41
1.00000000E+00
  7
MONOTXT
  0
TEXT
  8
0
 62
7
 10
-1.32241000E+02
 20
-7.19763780E+01
 40
3.20000005E+00
  1
STRETCH
 41
1.00000000E+00
  7
MONOTXT
  0
TEXT
  8
0
 62
7
 10
-1.32241000E+02
 20
-7.67763782E+01
 40
3.20000005E+00
  1
  PLACE
 41
1.20689655E+00
  7
MONOTXT
  0
TEXT
  8
0
 62
7
 10
-1.22037469E+02
 20
-8.24000031E+01
 40
3.20000005E+00
  1
A
 41
1.00000000E+00
  7
MONOTXT
  0
TEXT
  8
0
 62
7
 10
-1.22037469E+02
 20
-8.84000031E+01
 40
3.20000005E+00
  1
B
 41
1.00000000E+00
  7
MONOTXT
  0
TEXT
  8
0
 62
7
 10
-9.47374691E+01
 20
-8.84000011E+01
 40
3.20000005E+00
  1
-10
 41
1.00000000E+00
  7
MONOTXT
  0
TEXT
  8
0
 62
7
 10
-1.06737469E+02
 20
-8.84000011E+01
 40
3.20000005E+00
  1
-15
 41
1.00000000E+00
  7
MONOTXT
  0
TEXT
  8
0
 62
7
 10
2.53810855E-01
 20
-5.81802848E+01
 40
3.20000005E+00
  1
(mm)
 41
1.00000000E+00
  7
MONOTXT
  0
TEXT
  8
0
 62
7
 10
-7.96429942E+01
 20
-5.81802848E+01
 40
3.20000005E+00
  1
STRETCH LIST
 41
1.05263158E+00
  7
MONOTXT
  0
TEXT
  8
0
 62
7
 10
-8.11374690E+01
 20
-7.03963805E+01
 40
3.20000005E+00
  1
25
 41
1.00000000E+00
  7
MONOTXT
  0
TEXT
  8
0
 62
7
 10
-8.11374690E+01
 20
-8.24000031E+01
 40
3.20000005E+00
  1
-5
 41
1.00000000E+00
  7
MONOTXT
  0
TEXT
  8
0
 62
7
 10
-8.11374690E+01
 20
-8.84000011E+01
 40
3.20000005E+00
  1
-5
 41
1.00000000E+00
  7
MONOTXT
  0
TEXT
  8
0
 62
7
 10
-6.91374690E+01
 20
-7.03963805E+01
 40
3.20000005E+00
  1
30
 41
1.00000000E+00
  7
MONOTXT
  0
TEXT
  8
0
 62
7
 10
-6.75374690E+01
 20
-8.24000031E+01
 40
3.20000005E+00
  1
0
 41
1.00000000E+00
  7
MONOTXT
  0
TEXT
  8
0
 62
7
 10
-6.75374690E+01
 20
-8.84000011E+01
 40
3.20000005E+00
  1
0
 41
1.00000000E+00
  7
MONOTXT
  0
TEXT
  8
0
 62
7
 10
-5.71374690E+01
 20
-7.03963805E+01
 40
3.20000005E+00
  1
35
 41
1.00000000E+00
  7
MONOTXT
  0
TEXT
  8
0
 62
7
 10
-5.55374690E+01
 20
-8.24000031E+01
 40
3.20000005E+00
  1
5
 41
1.00000000E+00
  7
MONOTXT
  0
TEXT
  8
0
 62
7
 10
-5.55374690E+01
 20
-8.84000011E+01
 40
3.20000005E+00
  1
5
 41
1.00000000E+00
  7
MONOTXT
  0
TEXT
  8
0
 62
7
 10
-4.51374690E+01
 20
-7.03963805E+01
 40
3.20000005E+00
  1
40
 41
1.00000000E+00
  7
MONOTXT
  0
TEXT
  8
0
 62
7
 10
-4.51374690E+01
 20
-8.24000031E+01
 40
3.20000005E+00
  1
10
 41
1.00000000E+00
  7
MONOTXT
  0
TEXT
  8
0
 62
7
 10
-4.51374690E+01
 20
-8.84000011E+01
 40
3.20000005E+00
  1
10
 41
1.00000000E+00
  7
MONOTXT
  0
TEXT
  8
0
 62
7
 10
-3.31374690E+01
 20
-7.03963805E+01
 40
3.20000005E+00
  1
45
 41
1.00000000E+00
  7
MONOTXT
  0
TEXT
  8
0
 62
7
 10
-3.31374690E+01
 20
-8.24000031E+01
 40
3.20000005E+00
  1
15
 41
1.00000000E+00
  7
MONOTXT
  0
TEXT
  8
0
 62
7
 10
-3.31374690E+01
 20
-8.84000011E+01
 40
3.20000005E+00
  1
15
 41
1.00000000E+00
  7
MONOTXT
  0
TEXT
  8
0
 62
7
 10
-2.11374690E+01
 20
-7.03963805E+01
 40
3.20000005E+00
  1
50
 41
1.00000000E+00
  7
MONOTXT
  0
TEXT
  8
0
 62
7
 10
-2.11374690E+01
 20
-8.24000031E+01
 40
3.20000005E+00
  1
20
 41
1.00000000E+00
  7
MONOTXT
  0
TEXT
  8
0
 62
7
 10
-2.11374690E+01
 20
-8.84000011E+01
 40
3.20000005E+00
  1
20
 41
1.00000000E+00
  7
MONOTXT
  0
TEXT
  8
0
 62
7
 10
-9.13746902E+00
 20
-7.03963805E+01
 40
3.20000005E+00
  1
55
 41
1.00000000E+00
  7
MONOTXT
  0
TEXT
  8
0
 62
7
 10
-9.13746902E+00
 20
-8.24000031E+01
 40
3.20000005E+00
  1
25
 41
1.00000000E+00
  7
MONOTXT
  0
TEXT
  8
0
 62
7
 10
-9.13746902E+00
 20
-8.84000011E+01
 40
3.20000005E+00
  1
25
 41
1.00000000E+00
  7
MONOTXT
  0
TEXT
  8
0
 62
7
 10
2.86253098E+00
 20
-7.03963805E+01
 40
3.20000005E+00
  1
60
 41
1.00000000E+00
  7
MONOTXT
  0
TEXT
  8
0
 62
7
 10
2.86253098E+00
 20
-8.24000031E+01
 40
3.20000005E+00
  1
30
 41
1.00000000E+00
  7
MONOTXT
  0
TEXT
  8
0
 62
7
 10
2.86253098E+00
 20
-8.84000011E+01
 40
3.20000005E+00
  1
30
 41
1.00000000E+00
  7
MONOTXT
  0
LINE
  8
0
 62
7
 10
-7.23999939E+01
 20
-5.98000031E+01
 11
-7.23999939E+01
 21
-8.98000031E+01
  0
LINE
  8
0
 62
7
 10
-6.03999939E+01
 20
-5.98000031E+01
 11
-6.03999939E+01
 21
-8.98000031E+01
  0
LINE
  8
0
 62
7
 10
-4.83999939E+01
 20
-5.98000031E+01
 11
-4.83999939E+01
 21
-8.98000031E+01
  0
LINE
  8
0
 62
7
 10
-3.63999939E+01
 20
-5.98000031E+01
 11
-3.63999939E+01
 21
-8.98000031E+01
  0
LINE
  8
0
 62
7
 10
-2.43999939E+01
 20
-5.98000031E+01
 11
-2.43999939E+01
 21
-8.98000031E+01
  0
LINE
  8
0
 62
7
 10
-1.23999939E+01
 20
-5.98000031E+01
 11
-1.23999939E+01
 21
-8.98000031E+01
  0
LINE
  8
0
 62
7
 10
-3.99993896E-01
 20
-5.98000031E+01
 11
-3.99993896E-01
 21
-8.98000031E+01
  0
LINE
  8
0
 62
7
 10
1.16000061E+01
 20
-5.98000031E+01
 11
1.16000061E+01
 21
-8.98000031E+01
  0
TEXT
  8
0
 10
2.54071554E+01
 20
5.63052625E+01
 40
3.20000005E+00
  1
STRETCH LINE B
 41
1.09375000E+00
  7
MONOTXT
  0
TEXT
  8
0
 10
-3.65928446E+01
 20
5.63052625E+01
 40
3.20000005E+00
  1
STRETCH LINE A
 41
1.09375000E+00
  7
MONOTXT
  0
LINE
  8
0
 62
7
 10
-1.38399994E+02
 20
9.45000000E+01
 11
1.38350006E+02
 21
9.45000000E+01
  0
LINE
  8
0
 62
7
 10
1.38350006E+02
 20
9.45000000E+01
 11
1.38350006E+02
 21
-9.48000031E+01
  0
LINE
  8
0
 62
7
 10
-1.38399994E+02
 20
-9.48000031E+01
 11
1.38350006E+02
 21
-9.48000031E+01
  0
LINE
  8
0
 62
7
 10
-1.38399994E+02
 20
9.45000000E+01
 11
-1.38399994E+02
 21
-9.48000031E+01
  0
LINE
  8
0
 62
7
 10
7.33500061E+01
 20
-8.48000031E+01
 11
1.38350006E+02
 21
-8.48000031E+01
  0
LINE
  8
0
 62
7
 10
-1.38399994E+02
 20
8.45000000E+01
 11
-7.33999939E+01
 21
8.45000000E+01
  0
LINE
  8
0
 62
7
 10
7.33500061E+01
 20
8.45000000E+01
 11
1.38350006E+02
 21
8.45000000E+01
  0
LINE
  8
0
 62
7
 10
7.33500061E+01
 20
-8.48000031E+01
 11
7.33500061E+01
 21
-9.48000031E+01
  0
LINE
  8
0
 62
7
 10
7.33500061E+01
 20
9.45000000E+01
 11
7.33500061E+01
 21
8.45000000E+01
  0
LINE
  8
0
 62
7
 10
-7.33999939E+01
 20
9.45000000E+01
 11
-7.33999939E+01
 21
8.45000000E+01
  0
TEXT
  8
0
 62
7
 10
7.72426624E+01
 20
-9.20500031E+01
 40
4.50000000E+00
  1
KOGANEI CORP.
 41
1.04838710E+00
  7
MONOTXT
  0
TEXT
  8
0
 62
7
 10
9.35071483E+01
 20
8.79000000E+01
 40
3.20000005E+00
  1
Ver. 1.1
 41
1.08108108E+00
  7
MONOTXT
  0
TEXT
  8
0
 62
7
 10
-1.31042852E+02
 20
8.79000000E+01
 40
3.20000005E+00
  1
NEW PEN CYLINDER
 41
1.08108108E+00
  7
MONOTXT
  0
TEXT
  8
0
 62
7
 10
-1.29085994E+02
 20
7.29000000E+01
 40
3.20000005E+00
  1
MODEL:PBDAPS10*ST(30)-M-ZC230
 41
1.00000000E+00
  7
MONOTXT
  0
ENDSEC
  0
EOF
