  0
SECTION
  2
HEADER
  9
$ACADVER
  1
AC1003
  9
$EXTMIN
 10
-1.94250000E+02
 20
-1.33500000E+02
  9
$EXTMAX
 10
1.94800003E+02
 20
1.32600006E+02
  9
$LIMMIN
 10
-1.94251000E+02
 20
-1.33501000E+02
  9
$LIMMAX
 10
1.94801003E+02
 20
1.32601006E+02
  9
$SNAPUNIT
 10
1
 20
1
  9
$SNAPBASE
 10
0
 20
0
  9
$GRIDMODE
 70
0
  9
$GRIDUNIT
 10
0
 20
0
  9
$LTSCALE
 40
6.48416672E+00
  9
$TEXTSIZE
 40
3.2
  9
$DIMTAD
 70
0
  9
$LUNITS
 70
2
  9
$LUPREC
 70
4
  9
$FILLETRAD
 40
0
  9
$AUNITS
 70
0
  9
$AUPREC
 70
0
  0
ENDSEC
  0
SECTION
  2
TABLES
  0
TABLE
  2
LTYPE
 70
2
  0
LTYPE
  2
CONTINUOUS
 70
64
  3
Solid-Line
 72
65
 73
0
 40
0
  0
LTYPE
  2
DASHED
 70
64
  3
DASHED
 72
65
 73
2
 40
.75
 49
.5
 49
-.25
  0
LTYPE
  2
HIDDEN
 70
64
  3
HIDDEN
 72
65
 73
2
 40
.375
 49
.25
 49
-.125
  0
LTYPE
  2
CENTER
 70
64
  3
CENTER
 72
65
 73
4
 40
2
 49
1.25
 49
-.25
 49
.25
 49
-.25
  0
LTYPE
  2
PHANTOM
 70
64
  3
PHANTOM
 72
65
 73
6
 40
2.5
 49
1.25
 49
-.25
 49
.25
 49
-.25
 49
.25
 49
-.25
  0
ENDTAB
  0
TABLE
  2
LAYER
 70
1
  0
LAYER
  2
1
 70
0
 62
7
  6
CONTINUOUS
 0
ENDTAB
  0
TABLE
  2
STYLE
 70
2
  0
STYLE
  2
MONOTXT
 70
0
 40
0
 41
1
 50
0
 71
0
 42
.2
  3
monotxt
  0
STYLE
  2
BIGFONT
 70
0
 40
0
 41
1
 50
0
 71
0
 42
.2
  3
txt
  4
bigfont
  0
ENDTAB
  0
ENDSEC
  0
SECTION
  2
ENTITIES
  0
LINE
  8
0
  6
PHANTOM
 10
-1.74320466E+01
 20
1.29423452E+01
 11
-1.74320466E+01
 21
5.02617350E+01
  0
LINE
  8
0
  6
PHANTOM
 10
6.25679534E+01
 20
1.29423452E+01
 11
6.25679534E+01
 21
4.98028053E+01
  0
TEXT
  8
0
 62
7
 10
-3.23196178E+01
 20
2.18331410E+01
 40
1.50000000E+00
  1
PBDATS10-7
 41
1.00000000E+00
  7
MONOTXT
  0
ARC
  8
0
 62
7
 10
1.46292246E+01
 20
2.60890230E+01
 40
4.62290863E+00
 50
1.28774087E+02
 51
2.31260839E+02
  0
ARC
  8
0
 62
7
 10
1.83888311E+01
 20
2.60864202E+01
 40
4.61748980E+00
 50
3.08706949E+02
 51
5.13613903E+01
  0
ARC
  8
0
 62
7
 10
-5.86092969E+01
 20
2.60903262E+01
 40
4.62562225E+00
 50
3.08755259E+02
 51
5.11583430E+01
  0
ARC
  8
0
 62
7
 10
-6.23688961E+01
 20
2.60851206E+01
 40
4.61478458E+00
 50
1.28570701E+02
 51
2.31309163E+02
  0
LINE
  8
0
 62
7
 10
1.00063197E+01
 20
3.20831410E+01
 11
2.30063197E+01
 21
3.20831410E+01
  0
LINE
  8
0
 62
7
 10
1.17363197E+01
 20
2.96931410E+01
 11
1.17363197E+01
 21
3.20831410E+01
  0
LINE
  8
0
 62
7
 10
2.12763197E+01
 20
2.96931410E+01
 11
2.12763197E+01
 21
3.20831410E+01
  0
LINE
  8
0
 62
7
 10
2.12763197E+01
 20
2.96931410E+01
 11
1.17363197E+01
 21
2.96931410E+01
  0
LINE
  8
0
 62
7
 10
6.70063197E+01
 20
3.15831410E+01
 11
4.45063197E+01
 21
3.15831410E+01
  0
LINE
  8
0
 62
7
 10
-6.69836803E+01
 20
3.20831410E+01
 11
-5.39836803E+01
 21
3.20831410E+01
  0
LINE
  8
0
 62
7
 10
-5.57136803E+01
 20
2.96931410E+01
 11
-5.57136803E+01
 21
3.20831410E+01
  0
LINE
  8
0
 62
7
 10
-6.52536803E+01
 20
2.96931410E+01
 11
-6.52536803E+01
 21
3.20831410E+01
  0
LINE
  8
0
 62
7
 10
-6.52536803E+01
 20
2.96931410E+01
 11
-5.57136803E+01
 21
2.96931410E+01
  0
LINE
  8
0
 62
7
 10
-5.39836803E+01
 20
3.15831410E+01
 11
-4.64836803E+01
 21
3.15831410E+01
  0
LINE
  8
0
 62
7
 10
2.30063197E+01
 20
2.05831410E+01
 11
3.30063197E+01
 21
2.05831410E+01
  0
LINE
  8
0
 62
7
 10
6.70063197E+01
 20
3.20831410E+01
 11
6.70063197E+01
 21
2.00831410E+01
  0
LINE
  8
0
  6
CENTER
 62
2
 10
1.45063197E+01
 20
3.46431410E+01
 11
1.45063197E+01
 21
2.96931410E+01
  0
LINE
  8
0
 62
7
 10
1.00063197E+01
 20
3.20831410E+01
 11
1.00063197E+01
 21
2.00831410E+01
  0
LINE
  8
0
 62
7
 10
1.17363197E+01
 20
2.24831410E+01
 11
1.17363197E+01
 21
2.00831410E+01
  0
LINE
  8
0
 62
7
 10
2.12763197E+01
 20
2.24831410E+01
 11
2.12763197E+01
 21
2.00831410E+01
  0
LINE
  8
0
 62
7
 10
2.12763197E+01
 20
2.24831410E+01
 11
1.17363197E+01
 21
2.24831410E+01
  0
LINE
  8
0
 62
7
 10
2.30063197E+01
 20
2.00831410E+01
 11
2.30063197E+01
 21
3.20831410E+01
  0
LINE
  8
0
 62
7
 10
1.00063197E+01
 20
2.00831410E+01
 11
2.30063197E+01
 21
2.00831410E+01
  0
LINE
  8
0
 62
7
 10
-5.57136803E+01
 20
2.24831410E+01
 11
-5.57136803E+01
 21
2.00831410E+01
  0
LINE
  8
0
 62
7
 10
-6.52536803E+01
 20
2.24831410E+01
 11
-6.52536803E+01
 21
2.00831410E+01
  0
LINE
  8
0
 62
7
 10
-5.39836803E+01
 20
3.20831410E+01
 11
-5.39836803E+01
 21
2.00831410E+01
  0
LINE
  8
0
 62
7
 10
-6.69836803E+01
 20
3.20831410E+01
 11
-6.69836803E+01
 21
2.00831410E+01
  0
LINE
  8
0
 62
7
 10
-6.52536803E+01
 20
2.24831410E+01
 11
-5.57136803E+01
 21
2.24831410E+01
  0
LINE
  8
0
  6
CENTER
 62
2
 10
-5.84836803E+01
 20
3.43631410E+01
 11
-5.84836803E+01
 21
2.96931410E+01
  0
LINE
  8
0
 62
7
 10
-6.69836803E+01
 20
2.00831410E+01
 11
-5.39836803E+01
 21
2.00831410E+01
  0
LINE
  8
0
 62
7
 10
-5.39836803E+01
 20
2.05831410E+01
 11
-4.39836803E+01
 21
2.05831410E+01
  0
LINE
  8
0
  6
CENTER
 62
2
 10
-9.69054387E+01
 20
2.60831410E+01
 11
9.12232495E+01
 21
2.60831410E+01
  0
LINE
  8
0
 62
7
 10
-7.41836803E+01
 20
3.00831410E+01
 11
-6.69836803E+01
 21
3.00831410E+01
  0
LINE
  8
0
 62
7
 10
-7.41836803E+01
 20
2.20831410E+01
 11
-6.69836803E+01
 21
2.20831410E+01
  0
LINE
  8
0
 62
7
 10
-6.84836803E+01
 20
3.00831410E+01
 11
-6.84836803E+01
 21
2.20831410E+01
  0
LINE
  8
0
 62
7
 10
-7.49836803E+01
 20
2.28831410E+01
 11
-7.41836803E+01
 21
2.20831410E+01
  0
LINE
  8
0
 62
2
 10
-7.48601803E+01
 20
2.27596410E+01
 11
-6.84836803E+01
 21
2.27596410E+01
  0
LINE
  8
0
 62
7
 10
-7.41836803E+01
 20
3.00831410E+01
 11
-7.49836803E+01
 21
2.92831410E+01
  0
LINE
  8
0
 62
2
 10
-7.48601803E+01
 20
2.94066410E+01
 11
-6.84836803E+01
 21
2.94066410E+01
  0
LINE
  8
0
 62
7
 10
-7.49836803E+01
 20
2.92831410E+01
 11
-7.49836803E+01
 21
2.28831410E+01
  0
LINE
  8
0
 62
7
 10
-7.41836803E+01
 20
3.00831410E+01
 11
-7.41836803E+01
 21
2.20831410E+01
  0
LINE
  8
0
 62
7
 10
-9.49836803E+01
 20
2.73831410E+01
 11
-9.49836803E+01
 21
2.47831410E+01
  0
LINE
  8
0
 62
7
 10
-7.99836803E+01
 20
2.80831410E+01
 11
-7.99836803E+01
 21
2.40831410E+01
  0
LINE
  8
0
 62
7
 10
-9.42836803E+01
 20
2.80831410E+01
 11
-9.04036803E+01
 21
2.80831410E+01
  0
LINE
  8
0
 62
7
 10
-9.42836803E+01
 20
2.40831410E+01
 11
-9.04036803E+01
 21
2.40831410E+01
  0
LINE
  8
0
 62
7
 10
-9.42836803E+01
 20
2.80831410E+01
 11
-9.49836803E+01
 21
2.73831410E+01
  0
LINE
  8
0
 62
7
 10
-9.49836803E+01
 20
2.47831410E+01
 11
-9.42836803E+01
 21
2.40831410E+01
  0
LINE
  8
0
 62
7
 10
-9.42836803E+01
 20
2.80831410E+01
 11
-9.42836803E+01
 21
2.40831410E+01
  0
LINE
  8
0
 62
4
 10
-9.04036803E+01
 20
2.94831410E+01
 11
-9.04036803E+01
 21
2.26831410E+01
  0
LINE
  8
0
 62
4
 10
-8.72036803E+01
 20
2.94831410E+01
 11
-8.72036803E+01
 21
2.26831410E+01
  0
LINE
  8
0
 62
4
 10
-9.00336803E+01
 20
3.01231410E+01
 11
-8.75736803E+01
 21
3.01231410E+01
  0
LINE
  8
0
 62
4
 10
-9.00336803E+01
 20
2.20431410E+01
 11
-8.75736803E+01
 21
2.20431410E+01
  0
LINE
  8
0
 62
4
 10
-9.00336803E+01
 20
2.81031410E+01
 11
-8.75736803E+01
 21
2.81031410E+01
  0
LINE
  8
0
 62
4
 10
-9.00336803E+01
 20
2.40631410E+01
 11
-8.75736803E+01
 21
2.40631410E+01
  0
LINE
  8
0
 62
7
 10
-8.72036803E+01
 20
2.80831410E+01
 11
-7.49836803E+01
 21
2.80831410E+01
  0
LINE
  8
0
 62
7
 10
-8.72036803E+01
 20
2.40831410E+01
 11
-7.49836803E+01
 21
2.40831410E+01
  0
LINE
  8
0
 62
4
 10
-9.04036803E+01
 20
2.94831410E+01
 11
-9.00336803E+01
 21
3.01231410E+01
  0
LINE
  8
0
 62
4
 10
-8.75736803E+01
 20
3.01231410E+01
 11
-8.72036803E+01
 21
2.94831410E+01
  0
LINE
  8
0
 62
4
 10
-9.04036803E+01
 20
2.26831410E+01
 11
-9.00336803E+01
 21
2.20431410E+01
  0
LINE
  8
0
 62
4
 10
-8.75736803E+01
 20
2.20431410E+01
 11
-8.72036803E+01
 21
2.26831410E+01
  0
ARC
  8
0
 62
4
 10
-8.88470013E+01
 20
2.91131410E+01
 40
1.55830259E+00
 50
1.39598403E+02
 51
2.20401597E+02
  0
ARC
  8
0
 62
4
 10
-8.47123190E+01
 20
2.60831410E+01
 40
5.69186140E+00
 50
1.59213132E+02
 51
2.00786868E+02
  0
ARC
  8
0
 62
4
 10
-9.29085053E+01
 20
2.60831410E+01
 40
5.70445074E+00
 50
3.39261125E+02
 51
2.07388754E+01
  0
ARC
  8
0
 62
4
 10
-8.87738230E+01
 20
2.91131410E+01
 40
1.56857977E+00
 50
3.19917155E+02
 51
4.00828448E+01
  0
ARC
  8
0
 62
4
 10
-8.88470066E+01
 20
2.30531410E+01
 40
1.55829855E+00
 50
1.39598276E+02
 51
2.20401723E+02
  0
ARC
  8
0
 62
4
 10
-8.87738177E+01
 20
2.30531410E+01
 40
1.56857572E+00
 50
3.19917031E+02
 51
4.00829695E+01
  0
LINE
  8
0
 62
2
 10
-8.72036803E+01
 20
2.44621410E+01
 11
-7.99836803E+01
 21
2.44621410E+01
  0
LINE
  8
0
 62
2
 10
-8.72036803E+01
 20
2.77041410E+01
 11
-7.99836803E+01
 21
2.77041410E+01
  0
LINE
  8
0
 62
2
 10
-9.46626803E+01
 20
2.44621410E+01
 11
-9.04036803E+01
 21
2.44621410E+01
  0
LINE
  8
0
 62
2
 10
-9.46626803E+01
 20
2.77041410E+01
 11
-9.04036803E+01
 21
2.77041410E+01
  0
LINE
  8
0
 62
7
 10
6.70063197E+01
 20
2.00831410E+01
 11
8.90063197E+01
 21
2.00831410E+01
  0
LINE
  8
0
 62
7
 10
6.70063197E+01
 20
3.20831410E+01
 11
8.90063197E+01
 21
3.20831410E+01
  0
ARC
  8
0
 62
7
 10
7.16351386E+01
 20
2.61795093E+01
 40
4.62982188E+00
 50
1.28764356E+02
 51
2.31235644E+02
  0
LINE
  8
0
 62
7
 10
6.87363197E+01
 20
2.25695093E+01
 11
6.87363197E+01
 21
2.01795093E+01
  0
LINE
  8
0
 62
7
 10
6.87363197E+01
 20
3.20831410E+01
 11
6.87363197E+01
 21
2.97895093E+01
  0
LINE
  8
0
 62
7
 10
8.90063197E+01
 20
3.20831410E+01
 11
8.90063197E+01
 21
2.00831410E+01
  0
LINE
  8
0
  6
CENTER
 62
2
 10
7.15063197E+01
 20
3.40831410E+01
 11
7.15063197E+01
 21
2.71131410E+01
  0
LINE
  8
0
  6
CENTER
 62
2
 10
8.40063197E+01
 20
2.96931410E+01
 11
8.40063197E+01
 21
2.24731410E+01
  0
LINE
  8
0
 62
7
 10
6.87363197E+01
 20
2.96931410E+01
 11
8.72763197E+01
 21
2.96931410E+01
  0
LINE
  8
0
 62
7
 10
6.87363197E+01
 20
2.24731410E+01
 11
8.72763197E+01
 21
2.24731410E+01
  0
LINE
  8
0
 62
7
 10
8.72763197E+01
 20
3.20831410E+01
 11
8.72763197E+01
 21
2.96931410E+01
  0
LINE
  8
0
 62
7
 10
8.72763197E+01
 20
2.24731410E+01
 11
8.72763197E+01
 21
2.00831410E+01
  0
CIRCLE
  8
0
 62
7
 10
8.40128987E+01
 20
2.60881412E+01
 40
1.59999943E+00
  0
ARC
  8
0
 62
7
 10
8.43906741E+01
 20
2.60831410E+01
 40
4.62158529E+00
 50
3.08637016E+02
 51
3.57094839E+02
  0
LINE
  8
0
 62
6
 10
-1.90466812E+01
 20
3.56831410E+01
 11
-2.16466812E+01
 21
3.30831410E+01
  0
LINE
  8
0
 62
4
 10
-2.39836803E+01
 20
3.56831410E+01
 11
-2.39836803E+01
 21
3.30831410E+01
  0
LINE
  8
0
 62
4
 10
-2.69836803E+01
 20
3.63831410E+01
 11
-2.69836803E+01
 21
3.23831410E+01
  0
LINE
  8
0
 62
4
 10
-2.69836803E+01
 20
3.63831410E+01
 11
-2.39836803E+01
 21
3.56831410E+01
  0
LINE
  8
0
 62
4
 10
-2.69836803E+01
 20
3.23831410E+01
 11
-2.39836803E+01
 21
3.30831410E+01
  0
LINE
  8
0
 62
4
 10
-2.39836803E+01
 20
3.30831410E+01
 11
-2.16466812E+01
 21
3.30831410E+01
  0
LINE
  8
0
 62
4
 10
-2.39836803E+01
 20
3.56831410E+01
 11
-1.90466812E+01
 21
3.56831410E+01
  0
ARC
  8
0
 62
4
 10
-3.79853459E+01
 20
4.25814753E+01
 40
1.00166704E+00
 50
9.52762946E-02
 51
8.99047236E+01
  0
ARC
  8
0
 62
4
 10
-4.09828888E+01
 20
4.25823495E+01
 40
1.00079180E+00
 50
9.00000002E+01
 51
1.79954687E+02
  0
LINE
  8
0
 62
4
 10
-3.49836803E+01
 20
3.10831410E+01
 11
-3.24836803E+01
 21
3.10831410E+01
  0
LINE
  8
0
 62
4
 10
-4.64836803E+01
 20
3.10831410E+01
 11
-4.39836803E+01
 21
3.10831410E+01
  0
LINE
  8
0
 62
4
 10
-4.64836803E+01
 20
3.73831410E+01
 11
-4.64836803E+01
 21
3.45831410E+01
  0
LINE
  8
0
 62
4
 10
-3.24836803E+01
 20
3.73831410E+01
 11
-3.24836803E+01
 21
3.45831410E+01
  0
LINE
  8
0
 62
4
 10
-5.19836803E+01
 20
3.33831410E+01
 11
-5.09836803E+01
 21
3.23831410E+01
  0
LINE
  8
0
 62
4
 10
-5.19836803E+01
 20
3.53831410E+01
 11
-5.09836803E+01
 21
3.63831410E+01
  0
LINE
  8
0
 62
4
 10
-5.09836803E+01
 20
3.63831410E+01
 11
-5.09836803E+01
 21
3.23831410E+01
  0
LINE
  8
0
 62
4
 10
-4.19836803E+01
 20
4.25831410E+01
 11
-4.19836803E+01
 21
4.20831410E+01
  0
LINE
  8
0
 62
4
 10
-3.69836803E+01
 20
4.25831410E+01
 11
-3.69836803E+01
 21
4.20831410E+01
  0
LINE
  8
0
 62
4
 10
-4.09836803E+01
 20
4.35831410E+01
 11
-3.79836803E+01
 21
4.35831410E+01
  0
LINE
  8
0
 62
4
 10
-4.19836803E+01
 20
4.20831410E+01
 11
-3.69836803E+01
 21
4.20831410E+01
  0
LINE
  8
0
  6
CENTER
 62
6
 10
-3.94836803E+01
 20
4.60931410E+01
 11
-3.94836803E+01
 21
1.86631410E+01
  0
LINE
  8
0
 62
4
 10
-5.09836803E+01
 20
3.23831410E+01
 11
-4.64836803E+01
 21
3.23831410E+01
  0
LINE
  8
0
 62
4
 10
-5.19836803E+01
 20
3.53831410E+01
 11
-5.19836803E+01
 21
3.33831410E+01
  0
LINE
  8
0
 62
4
 10
-4.39836803E+01
 20
2.04331410E+01
 11
-3.49836803E+01
 21
2.04331410E+01
  0
LINE
  8
0
 62
4
 10
-3.49836803E+01
 20
3.45831410E+01
 11
-3.24836803E+01
 21
3.45831410E+01
  0
LINE
  8
0
 62
4
 10
-4.39836803E+01
 20
4.10831410E+01
 11
-3.49836803E+01
 21
4.10831410E+01
  0
LINE
  8
0
 62
4
 10
-4.39836803E+01
 20
3.45831410E+01
 11
-4.39836803E+01
 21
2.04331410E+01
  0
LINE
  8
0
 62
4
 10
-3.49836803E+01
 20
3.45831410E+01
 11
-3.49836803E+01
 21
2.04331410E+01
  0
LINE
  8
0
 62
4
 10
-4.64836803E+01
 20
3.63831410E+01
 11
-5.09836803E+01
 21
3.63831410E+01
  0
LINE
  8
0
 62
4
 10
-3.79836803E+01
 20
4.20831410E+01
 11
-3.79836803E+01
 21
4.10831410E+01
  0
LINE
  8
0
 62
4
 10
-4.09836803E+01
 20
4.20831410E+01
 11
-4.09836803E+01
 21
4.10831410E+01
  0
LINE
  8
0
 62
6
 10
-3.82536803E+01
 20
4.20831410E+01
 11
-3.82536803E+01
 21
4.10831410E+01
  0
LINE
  8
0
 62
6
 10
-4.07136803E+01
 20
4.20831410E+01
 11
-4.07136803E+01
 21
4.10831410E+01
  0
LINE
  8
0
 62
4
 10
-4.39836803E+01
 20
2.04370883E+01
 11
-3.49836803E+01
 21
2.04370883E+01
  0
LINE
  8
0
 62
4
 10
-4.64836803E+01
 20
3.41831410E+01
 11
-4.39836803E+01
 21
3.41831410E+01
  0
LINE
  8
0
 62
4
 10
-4.64836803E+01
 20
3.45831410E+01
 11
-4.39836803E+01
 21
3.45831410E+01
  0
LINE
  8
0
 62
4
 10
-4.64836803E+01
 20
3.73831410E+01
 11
-4.39836803E+01
 21
3.73831410E+01
  0
LINE
  8
0
 62
4
 10
-3.49836803E+01
 20
3.73831410E+01
 11
-3.24836803E+01
 21
3.73831410E+01
  0
LINE
  8
0
 62
4
 10
-3.49836803E+01
 20
3.41831410E+01
 11
-3.24836803E+01
 21
3.41831410E+01
  0
LINE
  8
0
 62
4
 10
-3.49836803E+01
 20
3.45831410E+01
 11
-3.49836803E+01
 21
4.10831410E+01
  0
LINE
  8
0
 62
4
 10
-4.39836803E+01
 20
3.45831410E+01
 11
-4.39836803E+01
 21
4.10831410E+01
  0
LINE
  8
0
 62
4
 10
-4.39836803E+01
 20
3.45831410E+01
 11
-3.49836803E+01
 21
3.45831410E+01
  0
LINE
  8
0
 62
4
 10
-3.24836803E+01
 20
3.41831410E+01
 11
-3.24836803E+01
 21
3.10831410E+01
  0
LINE
  8
0
 62
4
 10
-4.64836803E+01
 20
3.41831410E+01
 11
-4.64836803E+01
 21
3.10831410E+01
  0
LINE
  8
0
 62
4
 10
-3.24836803E+01
 20
3.23831410E+01
 11
-2.69836803E+01
 21
3.23831410E+01
  0
LINE
  8
0
 62
4
 10
-3.24836803E+01
 20
3.63831410E+01
 11
-2.69836803E+01
 21
3.63831410E+01
  0
LINE
  8
0
 62
6
 10
5.79433188E+01
 20
3.56831410E+01
 11
5.53433188E+01
 21
3.30831410E+01
  0
LINE
  8
0
 62
4
 10
5.30063197E+01
 20
3.56831410E+01
 11
5.30063197E+01
 21
3.30831410E+01
  0
LINE
  8
0
 62
4
 10
5.00063197E+01
 20
3.63831410E+01
 11
5.00063197E+01
 21
3.23831410E+01
  0
LINE
  8
0
 62
4
 10
5.00063197E+01
 20
3.63831410E+01
 11
5.30063197E+01
 21
3.56831410E+01
  0
LINE
  8
0
 62
4
 10
5.00063197E+01
 20
3.23831410E+01
 11
5.30063197E+01
 21
3.30831410E+01
  0
LINE
  8
0
 62
4
 10
5.30063197E+01
 20
3.30831410E+01
 11
5.53433188E+01
 21
3.30831410E+01
  0
LINE
  8
0
 62
4
 10
5.30063197E+01
 20
3.56831410E+01
 11
5.79433188E+01
 21
3.56831410E+01
  0
ARC
  8
0
 62
4
 10
3.90046541E+01
 20
4.25814753E+01
 40
1.00166704E+00
 50
9.52762946E-02
 51
8.99047236E+01
  0
ARC
  8
0
 62
4
 10
3.60071112E+01
 20
4.25823495E+01
 40
1.00079180E+00
 50
9.00000002E+01
 51
1.79954687E+02
  0
LINE
  8
0
 62
4
 10
4.20063197E+01
 20
3.10831410E+01
 11
4.45063197E+01
 21
3.10831410E+01
  0
LINE
  8
0
 62
4
 10
3.05063197E+01
 20
3.10831410E+01
 11
3.30063197E+01
 21
3.10831410E+01
  0
LINE
  8
0
 62
4
 10
3.05063197E+01
 20
3.73831410E+01
 11
3.05063197E+01
 21
3.45831410E+01
  0
LINE
  8
0
 62
4
 10
4.45063197E+01
 20
3.73831410E+01
 11
4.45063197E+01
 21
3.45831410E+01
  0
LINE
  8
0
 62
4
 10
2.50063197E+01
 20
3.33831410E+01
 11
2.60063197E+01
 21
3.23831410E+01
  0
LINE
  8
0
 62
4
 10
2.50063197E+01
 20
3.53831410E+01
 11
2.60063197E+01
 21
3.63831410E+01
  0
LINE
  8
0
 62
4
 10
2.60063197E+01
 20
3.63831410E+01
 11
2.60063197E+01
 21
3.23831410E+01
  0
LINE
  8
0
 62
4
 10
3.50063197E+01
 20
4.25831410E+01
 11
3.50063197E+01
 21
4.20831410E+01
  0
LINE
  8
0
 62
4
 10
4.00063197E+01
 20
4.25831410E+01
 11
4.00063197E+01
 21
4.20831410E+01
  0
LINE
  8
0
 62
4
 10
3.60063197E+01
 20
4.35831410E+01
 11
3.90063197E+01
 21
4.35831410E+01
  0
LINE
  8
0
 62
4
 10
3.50063197E+01
 20
4.20831410E+01
 11
4.00063197E+01
 21
4.20831410E+01
  0
LINE
  8
0
  6
CENTER
 62
6
 10
3.75063197E+01
 20
4.60931410E+01
 11
3.75063197E+01
 21
1.86631410E+01
  0
LINE
  8
0
 62
4
 10
2.60063197E+01
 20
3.23831410E+01
 11
3.05063197E+01
 21
3.23831410E+01
  0
LINE
  8
0
 62
4
 10
2.50063197E+01
 20
3.53831410E+01
 11
2.50063197E+01
 21
3.33831410E+01
  0
LINE
  8
0
 62
4
 10
3.30063197E+01
 20
2.04331410E+01
 11
4.20063197E+01
 21
2.04331410E+01
  0
LINE
  8
0
 62
4
 10
4.20063197E+01
 20
3.45831410E+01
 11
4.45063197E+01
 21
3.45831410E+01
  0
LINE
  8
0
 62
4
 10
3.30063197E+01
 20
4.10831410E+01
 11
4.20063197E+01
 21
4.10831410E+01
  0
LINE
  8
0
 62
4
 10
3.30063197E+01
 20
3.45831410E+01
 11
3.30063197E+01
 21
2.04331410E+01
  0
LINE
  8
0
 62
4
 10
4.20063197E+01
 20
3.45831410E+01
 11
4.20063197E+01
 21
2.04331410E+01
  0
LINE
  8
0
 62
4
 10
3.05063197E+01
 20
3.63831410E+01
 11
2.60063197E+01
 21
3.63831410E+01
  0
LINE
  8
0
 62
4
 10
3.90063197E+01
 20
4.20831410E+01
 11
3.90063197E+01
 21
4.10831410E+01
  0
LINE
  8
0
 62
4
 10
3.60063197E+01
 20
4.20831410E+01
 11
3.60063197E+01
 21
4.10831410E+01
  0
LINE
  8
0
 62
6
 10
3.87363197E+01
 20
4.20831410E+01
 11
3.87363197E+01
 21
4.10831410E+01
  0
LINE
  8
0
 62
6
 10
3.62763197E+01
 20
4.20831410E+01
 11
3.62763197E+01
 21
4.10831410E+01
  0
LINE
  8
0
 62
4
 10
3.30063197E+01
 20
2.04370883E+01
 11
4.20063197E+01
 21
2.04370883E+01
  0
LINE
  8
0
 62
4
 10
3.05063197E+01
 20
3.41831410E+01
 11
3.30063197E+01
 21
3.41831410E+01
  0
LINE
  8
0
 62
4
 10
3.05063197E+01
 20
3.45831410E+01
 11
3.30063197E+01
 21
3.45831410E+01
  0
LINE
  8
0
 62
4
 10
3.05063197E+01
 20
3.73831410E+01
 11
3.30063197E+01
 21
3.73831410E+01
  0
LINE
  8
0
 62
4
 10
4.20063197E+01
 20
3.73831410E+01
 11
4.45063197E+01
 21
3.73831410E+01
  0
LINE
  8
0
 62
4
 10
4.20063197E+01
 20
3.41831410E+01
 11
4.45063197E+01
 21
3.41831410E+01
  0
LINE
  8
0
 62
4
 10
4.20063197E+01
 20
3.45831410E+01
 11
4.20063197E+01
 21
4.10831410E+01
  0
LINE
  8
0
 62
4
 10
3.30063197E+01
 20
3.45831410E+01
 11
3.30063197E+01
 21
4.10831410E+01
  0
LINE
  8
0
 62
4
 10
3.30063197E+01
 20
3.45831410E+01
 11
4.20063197E+01
 21
3.45831410E+01
  0
LINE
  8
0
 62
4
 10
4.45063197E+01
 20
3.41831410E+01
 11
4.45063197E+01
 21
3.10831410E+01
  0
LINE
  8
0
 62
4
 10
3.05063197E+01
 20
3.41831410E+01
 11
3.05063197E+01
 21
3.10831410E+01
  0
LINE
  8
0
 62
4
 10
4.45063197E+01
 20
3.23831410E+01
 11
5.00063197E+01
 21
3.23831410E+01
  0
LINE
  8
0
 62
4
 10
4.45063197E+01
 20
3.63831410E+01
 11
5.00063197E+01
 21
3.63831410E+01
  0
LINE
  8
0
 62
7
 10
-3.24836803E+01
 20
3.15831410E+01
 11
-9.49368027E+00
 21
3.15831410E+01
  0
LINE
  8
0
 62
7
 10
-3.49836803E+01
 20
2.05831410E+01
 11
-6.99368027E+00
 21
2.05831410E+01
  0
LINE
  8
0
 62
7
 10
4.20063197E+01
 20
2.05831410E+01
 11
6.70063197E+01
 21
2.05831410E+01
  0
LINE
  8
0
 62
7
 10
3.05063197E+01
 20
3.15831410E+01
 11
2.30063197E+01
 21
3.15831410E+01
  0
LINE
  8
0
 62
6
 10
1.79433188E+01
 20
3.56831410E+01
 11
1.53433188E+01
 21
3.30831410E+01
  0
LINE
  8
0
 62
4
 10
1.30063197E+01
 20
3.56831410E+01
 11
1.30063197E+01
 21
3.30831410E+01
  0
LINE
  8
0
 62
4
 10
1.00063197E+01
 20
3.63831410E+01
 11
1.00063197E+01
 21
3.23831410E+01
  0
LINE
  8
0
 62
4
 10
1.00063197E+01
 20
3.63831410E+01
 11
1.30063197E+01
 21
3.56831410E+01
  0
LINE
  8
0
 62
4
 10
1.00063197E+01
 20
3.23831410E+01
 11
1.30063197E+01
 21
3.30831410E+01
  0
LINE
  8
0
 62
4
 10
1.30063197E+01
 20
3.30831410E+01
 11
1.53433188E+01
 21
3.30831410E+01
  0
LINE
  8
0
 62
4
 10
1.30063197E+01
 20
3.56831410E+01
 11
1.79433188E+01
 21
3.56831410E+01
  0
ARC
  8
0
 62
4
 10
-9.95345922E-01
 20
4.25814753E+01
 40
1.00166704E+00
 50
9.52762946E-02
 51
8.99047236E+01
  0
ARC
  8
0
 62
4
 10
-3.99288878E+00
 20
4.25823495E+01
 40
1.00079180E+00
 50
9.00000002E+01
 51
1.79954687E+02
  0
LINE
  8
0
 62
4
 10
2.00631973E+00
 20
3.10831410E+01
 11
4.50631973E+00
 21
3.10831410E+01
  0
LINE
  8
0
 62
4
 10
-9.49368027E+00
 20
3.10831410E+01
 11
-6.99368027E+00
 21
3.10831410E+01
  0
LINE
  8
0
 62
4
 10
-9.49368027E+00
 20
3.73831410E+01
 11
-9.49368027E+00
 21
3.45831410E+01
  0
LINE
  8
0
 62
4
 10
4.50631973E+00
 20
3.73831410E+01
 11
4.50631973E+00
 21
3.45831410E+01
  0
LINE
  8
0
 62
4
 10
-1.49936803E+01
 20
3.33831410E+01
 11
-1.39936803E+01
 21
3.23831410E+01
  0
LINE
  8
0
 62
4
 10
-1.49936803E+01
 20
3.53831410E+01
 11
-1.39936803E+01
 21
3.63831410E+01
  0
LINE
  8
0
 62
4
 10
-1.39936803E+01
 20
3.63831410E+01
 11
-1.39936803E+01
 21
3.23831410E+01
  0
LINE
  8
0
 62
4
 10
-4.99368027E+00
 20
4.25831410E+01
 11
-4.99368027E+00
 21
4.20831410E+01
  0
LINE
  8
0
 62
4
 10
6.31973476E-03
 20
4.25831410E+01
 11
6.31973476E-03
 21
4.20831410E+01
  0
LINE
  8
0
 62
4
 10
-3.99368027E+00
 20
4.35831410E+01
 11
-9.93680265E-01
 21
4.35831410E+01
  0
LINE
  8
0
 62
4
 10
-4.99368027E+00
 20
4.20831410E+01
 11
6.31973476E-03
 21
4.20831410E+01
  0
LINE
  8
0
  6
CENTER
 62
6
 10
-2.49368027E+00
 20
4.60931410E+01
 11
-2.49368027E+00
 21
1.86631410E+01
  0
LINE
  8
0
 62
4
 10
-1.39936803E+01
 20
3.23831410E+01
 11
-9.49368027E+00
 21
3.23831410E+01
  0
LINE
  8
0
 62
4
 10
-1.49936803E+01
 20
3.53831410E+01
 11
-1.49936803E+01
 21
3.33831410E+01
  0
LINE
  8
0
 62
4
 10
-6.99368027E+00
 20
2.04331410E+01
 11
2.00631973E+00
 21
2.04331410E+01
  0
LINE
  8
0
 62
4
 10
2.00631973E+00
 20
3.45831410E+01
 11
4.50631973E+00
 21
3.45831410E+01
  0
LINE
  8
0
 62
4
 10
-6.99368027E+00
 20
4.10831410E+01
 11
2.00631973E+00
 21
4.10831410E+01
  0
LINE
  8
0
 62
4
 10
-6.99368027E+00
 20
3.45831410E+01
 11
-6.99368027E+00
 21
2.04331410E+01
  0
LINE
  8
0
 62
4
 10
2.00631973E+00
 20
3.45831410E+01
 11
2.00631973E+00
 21
2.04331410E+01
  0
LINE
  8
0
 62
4
 10
-9.49368027E+00
 20
3.63831410E+01
 11
-1.39936803E+01
 21
3.63831410E+01
  0
LINE
  8
0
 62
4
 10
-9.93680265E-01
 20
4.20831410E+01
 11
-9.93680265E-01
 21
4.10831410E+01
  0
LINE
  8
0
 62
4
 10
-3.99368027E+00
 20
4.20831410E+01
 11
-3.99368027E+00
 21
4.10831410E+01
  0
LINE
  8
0
 62
6
 10
-1.26368027E+00
 20
4.20831410E+01
 11
-1.26368027E+00
 21
4.10831410E+01
  0
LINE
  8
0
 62
6
 10
-3.72368027E+00
 20
4.20831410E+01
 11
-3.72368027E+00
 21
4.10831410E+01
  0
LINE
  8
0
 62
4
 10
-6.99368027E+00
 20
2.04370883E+01
 11
2.00631973E+00
 21
2.04370883E+01
  0
LINE
  8
0
 62
4
 10
-9.49368027E+00
 20
3.41831410E+01
 11
-6.99368027E+00
 21
3.41831410E+01
  0
LINE
  8
0
 62
4
 10
-9.49368027E+00
 20
3.45831410E+01
 11
-6.99368027E+00
 21
3.45831410E+01
  0
LINE
  8
0
 62
4
 10
-9.49368027E+00
 20
3.73831410E+01
 11
-6.99368027E+00
 21
3.73831410E+01
  0
LINE
  8
0
 62
4
 10
2.00631973E+00
 20
3.73831410E+01
 11
4.50631973E+00
 21
3.73831410E+01
  0
LINE
  8
0
 62
4
 10
2.00631973E+00
 20
3.41831410E+01
 11
4.50631973E+00
 21
3.41831410E+01
  0
LINE
  8
0
 62
4
 10
2.00631973E+00
 20
3.45831410E+01
 11
2.00631973E+00
 21
4.10831410E+01
  0
LINE
  8
0
 62
4
 10
-6.99368027E+00
 20
3.45831410E+01
 11
-6.99368027E+00
 21
4.10831410E+01
  0
LINE
  8
0
 62
4
 10
-6.99368027E+00
 20
3.45831410E+01
 11
2.00631973E+00
 21
3.45831410E+01
  0
LINE
  8
0
 62
4
 10
4.50631973E+00
 20
3.41831410E+01
 11
4.50631973E+00
 21
3.10831410E+01
  0
LINE
  8
0
 62
4
 10
-9.49368027E+00
 20
3.41831410E+01
 11
-9.49368027E+00
 21
3.10831410E+01
  0
LINE
  8
0
 62
4
 10
4.50631973E+00
 20
3.23831410E+01
 11
1.00063197E+01
 21
3.23831410E+01
  0
LINE
  8
0
 62
4
 10
4.50631973E+00
 20
3.63831410E+01
 11
1.00063197E+01
 21
3.63831410E+01
  0
LINE
  8
0
 62
7
 10
4.50631973E+00
 20
3.15831410E+01
 11
1.00063197E+01
 21
3.15831410E+01
  0
LINE
  8
0
 62
7
 10
2.00631973E+00
 20
2.05831410E+01
 11
1.00063197E+01
 21
2.05831410E+01
  0
ARC
  8
0
 62
7
 10
8.43906741E+01
 20
2.60831410E+01
 40
4.62158529E+00
 50
2.90516077E+00
 51
5.13629840E+01
  0
LINE
  8
0
  6
CENTER
 62
2
 10
-1.30893680E+02
 20
4.48378765E+01
 11
-1.30893680E+02
 21
1.80831410E+01
  0
LINE
  8
0
 62
4
 10
-1.28843680E+02
 20
3.23831410E+01
 11
-1.32943680E+02
 21
3.23831410E+01
  0
ARC
  8
0
 62
4
 10
-1.32401307E+02
 20
4.25907677E+01
 40
9.92402587E-01
 50
8.95596718E+01
 51
1.80440329E+02
  0
ARC
  8
0
 62
4
 10
-1.29393810E+02
 20
4.25830114E+01
 40
1.00012957E+00
 50
7.42247612E-03
 51
9.00000002E+01
  0
ARC
  8
0
 62
4
 10
-1.34401305E+02
 20
4.02907662E+01
 40
7.92411497E-01
 50
8.94486475E+01
 51
1.80551352E+02
  0
ARC
  8
0
 62
4
 10
-1.27393819E+02
 20
4.02830026E+01
 40
8.00138358E-01
 50
9.90662024E-03
 51
9.00000002E+01
  0
ARC
  8
0
 62
4
 10
-1.33901305E+02
 20
3.97907662E+01
 40
4.92433852E-01
 50
8.91127567E+01
 51
1.80887243E+02
  0
ARC
  8
0
 62
4
 10
-1.27893840E+02
 20
3.97829808E+01
 40
5.00160181E-01
 50
1.83465799E-02
 51
9.00000002E+01
  0
LINE
  8
0
 62
4
 10
-1.32393680E+02
 20
3.95831410E+01
 11
-1.32393680E+02
 21
3.83831410E+01
  0
LINE
  8
0
 62
6
 10
-1.32123680E+02
 20
3.95831410E+01
 11
-1.32123680E+02
 21
3.81131410E+01
  0
LINE
  8
0
 62
6
 10
-1.29663680E+02
 20
3.95831410E+01
 11
-1.29663680E+02
 21
3.81131410E+01
  0
LINE
  8
0
 62
4
 10
-1.29393680E+02
 20
3.95831410E+01
 11
-1.29393680E+02
 21
3.83831410E+01
  0
LINE
  8
0
 62
4
 10
-1.29393680E+02
 20
4.35831410E+01
 11
-1.32393680E+02
 21
4.35831410E+01
  0
LINE
  8
0
 62
4
 10
-1.28393680E+02
 20
4.25831410E+01
 11
-1.28393680E+02
 21
4.20831410E+01
  0
LINE
  8
0
 62
4
 10
-1.33393680E+02
 20
4.25831410E+01
 11
-1.33393680E+02
 21
4.20831410E+01
  0
LINE
  8
0
 62
6
 10
-1.29663680E+02
 20
4.20831410E+01
 11
-1.29663680E+02
 21
4.10831410E+01
  0
LINE
  8
0
 62
6
 10
-1.32123680E+02
 20
4.20831410E+01
 11
-1.32123680E+02
 21
4.10831410E+01
  0
LINE
  8
0
 62
4
 10
-1.32393680E+02
 20
4.20831410E+01
 11
-1.32393680E+02
 21
4.10831410E+01
  0
LINE
  8
0
 62
4
 10
-1.29393680E+02
 20
4.20831410E+01
 11
-1.29393680E+02
 21
4.10831410E+01
  0
LINE
  8
0
 62
4
 10
-1.36051572E+02
 20
3.65737348E+01
 11
-1.36793680E+02
 21
3.70131410E+01
  0
LINE
  8
0
 62
4
 10
-1.35965829E+02
 20
3.74545737E+01
 11
-1.35993680E+02
 21
3.74731410E+01
  0
LINE
  8
0
 62
4
 10
-1.27393680E+02
 20
3.97831410E+01
 11
-1.27543680E+02
 21
3.97831410E+01
  0
LINE
  8
0
 62
4
 10
-1.27543680E+02
 20
3.97831410E+01
 11
-1.27543680E+02
 21
3.45831410E+01
  0
LINE
  8
0
 62
4
 10
-1.35193680E+02
 20
3.70131410E+01
 11
-1.35490390E+02
 21
3.71779799E+01
  0
LINE
  8
0
 62
4
 10
-1.35993680E+02
 20
3.93831410E+01
 11
-1.35993680E+02
 21
3.74731410E+01
  0
LINE
  8
0
 62
4
 10
-1.35993680E+02
 20
3.93831410E+01
 11
-1.36793680E+02
 21
3.93831410E+01
  0
LINE
  8
0
 62
4
 10
-1.36793680E+02
 20
3.93831410E+01
 11
-1.36793680E+02
 21
3.70131410E+01
  0
LINE
  8
0
 62
4
 10
-1.35193680E+02
 20
3.60831410E+01
 11
-1.35575295E+02
 21
3.63057496E+01
  0
LINE
  8
0
 62
4
 10
-1.34393680E+02
 20
3.38831410E+01
 11
-1.35193680E+02
 21
3.38831410E+01
  0
LINE
  8
0
 62
4
 10
-1.26593680E+02
 20
3.45831410E+01
 11
-1.27393680E+02
 21
3.45831410E+01
  0
LINE
  8
0
 62
4
 10
-1.28833680E+02
 20
4.02831410E+01
 11
-1.28893680E+02
 21
3.95831410E+01
  0
LINE
  8
0
 62
4
 10
-1.32953680E+02
 20
4.02831410E+01
 11
-1.32893680E+02
 21
3.95831410E+01
  0
LINE
  8
0
 62
4
 10
-1.26593680E+02
 20
4.02831410E+01
 11
-1.26593680E+02
 21
3.45831410E+01
  0
LINE
  8
0
 62
4
 10
-1.35193680E+02
 20
4.02831410E+01
 11
-1.35193680E+02
 21
3.38831410E+01
  0
LINE
  8
0
 62
4
 10
-1.27893680E+02
 20
4.02831410E+01
 11
-1.33893680E+02
 21
4.02831410E+01
  0
LINE
  8
0
 62
4
 10
-1.28893680E+02
 20
3.95831410E+01
 11
-1.32893680E+02
 21
3.95831410E+01
  0
LINE
  8
0
 62
4
 10
-1.27393680E+02
 20
4.10831410E+01
 11
-1.34393680E+02
 21
4.10831410E+01
  0
LINE
  8
0
 62
4
 10
-1.28393680E+02
 20
4.20831410E+01
 11
-1.33393680E+02
 21
4.20831410E+01
  0
LINE
  8
0
 62
4
 10
-1.27393680E+02
 20
3.97831410E+01
 11
-1.27393680E+02
 21
3.45831410E+01
  0
LINE
  8
0
 62
4
 10
-1.34393680E+02
 20
3.97831410E+01
 11
-1.34393680E+02
 21
3.38831410E+01
  0
LINE
  8
0
 62
4
 10
-1.27643680E+02
 20
3.45831410E+01
 11
-1.28843680E+02
 21
3.45831410E+01
  0
LINE
  8
0
 62
4
 10
-1.27643680E+02
 20
3.41831410E+01
 11
-1.28843680E+02
 21
3.41831410E+01
  0
LINE
  8
0
 62
4
 10
-1.27643680E+02
 20
3.73831410E+01
 11
-1.34143680E+02
 21
3.73831410E+01
  0
LINE
  8
0
 62
4
 10
-1.29893680E+02
 20
3.66831410E+01
 11
-1.31893680E+02
 21
3.66831410E+01
  0
LINE
  8
0
 62
4
 10
-1.31893680E+02
 20
3.66831410E+01
 11
-1.31893680E+02
 21
3.63831410E+01
  0
LINE
  8
0
 62
4
 10
-1.29893680E+02
 20
3.66831410E+01
 11
-1.29893680E+02
 21
3.63831410E+01
  0
LINE
  8
0
 62
4
 10
-1.28843680E+02
 20
3.63831410E+01
 11
-1.32943680E+02
 21
3.63831410E+01
  0
LINE
  8
0
 62
4
 10
-1.27643680E+02
 20
3.80831410E+01
 11
-1.34143680E+02
 21
3.80831410E+01
  0
LINE
  8
0
 62
4
 10
-1.27643680E+02
 20
3.80831410E+01
 11
-1.27643680E+02
 21
3.45831410E+01
  0
LINE
  8
0
 62
4
 10
-1.35723680E+02
 20
3.32331410E+01
 11
-1.35872975E+02
 21
3.32476736E+01
  0
LINE
  8
0
 62
4
 10
-1.35243227E+02
 20
3.97170954E+01
 11
-1.35740875E+02
 21
3.97655375E+01
  0
LINE
  8
0
 62
4
 10
-1.32393680E+02
 20
3.83831410E+01
 11
-1.32093680E+02
 21
3.80831410E+01
  0
LINE
  8
0
 62
4
 10
-1.29393680E+02
 20
3.83831410E+01
 11
-1.29693680E+02
 21
3.80831410E+01
  0
LINE
  8
0
 62
4
 10
-1.31943680E+02
 20
3.53831410E+01
 11
-1.31943680E+02
 21
3.33831410E+01
  0
LINE
  8
0
 62
4
 10
-1.29843680E+02
 20
3.53831410E+01
 11
-1.29843680E+02
 21
3.33831410E+01
  0
LINE
  8
0
 62
4
 10
-1.29843680E+02
 20
3.53831410E+01
 11
-1.31943680E+02
 21
3.53831410E+01
  0
LINE
  8
0
 62
4
 10
-1.29843680E+02
 20
3.33831410E+01
 11
-1.31943680E+02
 21
3.33831410E+01
  0
LINE
  8
0
 62
4
 10
-1.32943680E+02
 20
3.63831410E+01
 11
-1.31943680E+02
 21
3.53831410E+01
  0
LINE
  8
0
 62
4
 10
-1.28843680E+02
 20
3.63831410E+01
 11
-1.29843680E+02
 21
3.53831410E+01
  0
LINE
  8
0
 62
4
 10
-1.29843680E+02
 20
3.33831410E+01
 11
-1.28843680E+02
 21
3.23831410E+01
  0
LINE
  8
0
 62
4
 10
-1.32943680E+02
 20
3.23831410E+01
 11
-1.31943680E+02
 21
3.33831410E+01
  0
LINE
  8
0
 62
4
 10
-1.35740875E+02
 20
3.97655375E+01
 11
-1.36690353E+02
 21
3.00115082E+01
  0
LINE
  8
0
 62
4
 10
-1.35243227E+02
 20
3.97170954E+01
 11
-1.36116312E+02
 21
3.07478547E+01
  0
LINE
  8
0
 62
4
 10
-1.35723680E+02
 20
3.32331410E+01
 11
-1.35947887E+02
 21
3.09298505E+01
  0
LINE
  8
0
 62
4
 10
-1.27393680E+02
 20
3.45831410E+01
 11
-1.26557192E+02
 21
3.15761482E+01
  0
LINE
  8
0
 62
4
 10
-1.27543680E+02
 20
3.45831410E+01
 11
-1.26750304E+02
 21
3.17227924E+01
  0
LINE
  8
0
 62
4
 10
-1.34143680E+02
 20
3.80831410E+01
 11
-1.34143680E+02
 21
3.20831410E+01
  0
LINE
  8
0
 62
4
 10
-1.32943680E+02
 20
3.63831410E+01
 11
-1.32943680E+02
 21
3.23831410E+01
  0
LINE
  8
0
 62
4
 10
-1.27643680E+02
 20
3.41831410E+01
 11
-1.27643680E+02
 21
3.20831410E+01
  0
LINE
  8
0
 62
4
 10
-1.28843680E+02
 20
3.63831410E+01
 11
-1.28843680E+02
 21
3.23831410E+01
  0
CIRCLE
  8
0
 62
7
 10
-1.30900721E+02
 20
2.60881412E+01
 40
6.00000000E+00
  0
ARC
  8
0
 62
7
 10
-1.30892152E+02
 20
2.60966895E+01
 40
7.00797842E+00
 50
3.00896048E+02
 51
3.28864721E+02
  0
ARC
  8
0
 62
7
 10
-1.30894697E+02
 20
2.60821241E+01
 40
7.00089694E+00
 50
2.11031080E+02
 51
2.38968920E+02
  0
ARC
  8
0
 62
7
 10
-1.30899701E+02
 20
2.60891615E+01
 40
6.99403020E+00
 50
1.21017086E+02
 51
1.48982914E+02
  0
ARC
  8
0
 62
7
 10
-1.30887162E+02
 20
2.60746026E+01
 40
7.00111741E+00
 50
3.11212950E+01
 51
5.91179354E+01
  0
ARC
  8
0
 62
7
 10
-1.30897851E+02
 20
2.60898019E+01
 40
3.99405895E+00
 50
9.10878539E+01
 51
1.49062795E+02
  0
ARC
  8
0
 62
7
 10
-1.30900534E+02
 20
2.60880327E+01
 40
3.99584741E+00
 50
3.09514121E+01
 51
8.88979394E+01
  0
ARC
  8
0
 62
7
 10
-1.30900724E+02
 20
2.60831410E+01
 40
4.00786175E+00
 50
3.31049840E+02
 51
2.89501602E+01
  0
ARC
  8
0
 62
7
 10
-1.30904872E+02
 20
2.60857403E+01
 40
4.00342272E+00
 50
2.71162073E+02
 51
3.28988576E+02
  0
ARC
  8
0
 62
7
 10
-1.30893511E+02
 20
2.60839744E+01
 40
4.00163661E+00
 50
2.10997298E+02
 51
2.68852053E+02
  0
ARC
  8
0
 62
7
 10
-1.30900719E+02
 20
2.60831410E+01
 40
3.99554522E+00
 50
1.50952093E+02
 51
2.09047906E+02
  0
CIRCLE
  8
0
 62
4
 10
-1.30900721E+02
 20
2.60881412E+01
 40
3.50000000E+00
  0
CIRCLE
  8
0
 62
7
 10
-1.30900721E+02
 20
2.60881412E+01
 40
2.00000000E+00
  0
LINE
  8
0
 62
7
 10
-1.24893680E+02
 20
2.96931410E+01
 11
-1.24893680E+02
 21
2.24731410E+01
  0
LINE
  8
0
 62
7
 10
-1.36893680E+02
 20
2.96931410E+01
 11
-1.36893680E+02
 21
2.24731410E+01
  0
LINE
  8
0
 62
7
 10
-1.34503680E+02
 20
3.20831410E+01
 11
-1.27293680E+02
 21
3.20831410E+01
  0
LINE
  8
0
 62
7
 10
-1.34503680E+02
 20
2.00831410E+01
 11
-1.27293680E+02
 21
2.00831410E+01
  0
LINE
  8
0
 62
4
 10
-1.27393680E+02
 20
2.81031410E+01
 11
-1.30893680E+02
 21
3.01231410E+01
  0
LINE
  8
0
 62
4
 10
-1.27393680E+02
 20
2.40631410E+01
 11
-1.27393680E+02
 21
2.81031410E+01
  0
LINE
  8
0
 62
4
 10
-1.30893680E+02
 20
2.20431410E+01
 11
-1.27393680E+02
 21
2.40631410E+01
  0
LINE
  8
0
 62
4
 10
-1.34393680E+02
 20
2.40631410E+01
 11
-1.30893680E+02
 21
2.20431410E+01
  0
LINE
  8
0
 62
4
 10
-1.34393680E+02
 20
2.81031410E+01
 11
-1.34393680E+02
 21
2.40631410E+01
  0
LINE
  8
0
 62
4
 10
-1.30893680E+02
 20
3.01231410E+01
 11
-1.34393680E+02
 21
2.81031410E+01
  0
LINE
  8
0
  6
CENTER
 62
2
 10
-1.38893680E+02
 20
2.60831410E+01
 11
-1.22893680E+02
 21
2.60831410E+01
  0
CIRCLE
  8
0
 62
2
 10
-1.30893680E+02
 20
2.60831410E+01
 40
1.62100000E+00
  0
LINE
  8
0
  6
CENTER
 62
2
 10
1.29296320E+02
 20
3.40831410E+01
 11
1.29296320E+02
 21
1.80831410E+01
  0
ARC
  8
0
 62
7
 10
1.29296575E+02
 20
2.60882210E+01
 40
7.00469417E+00
 50
2.11062510E+02
 51
2.39014061E+02
  0
ARC
  8
0
 62
7
 10
1.29306692E+02
 20
2.60784731E+01
 40
6.99581746E+00
 50
3.11104736E+01
 51
5.91287569E+01
  0
ARC
  8
0
 62
7
 10
1.29297002E+02
 20
2.60831410E+01
 40
5.99718423E+00
 50
2.85466694E+02
 51
7.45333053E+01
  0
ARC
  8
0
 62
7
 10
1.29293585E+02
 20
2.60831510E+01
 40
7.00087420E+00
 50
1.21014783E+02
 51
1.48941962E+02
  0
ARC
  8
0
 62
7
 10
1.29297003E+02
 20
2.60831410E+01
 40
5.99754832E+00
 50
1.05479260E+02
 51
2.54520740E+02
  0
LINE
  8
0
 62
7
 10
1.27696320E+02
 20
3.20831410E+01
 11
1.27696320E+02
 21
2.00831410E+01
  0
LINE
  8
0
 62
7
 10
1.30896320E+02
 20
3.20831410E+01
 11
1.30896320E+02
 21
2.00831410E+01
  0
LINE
  8
0
 62
7
 10
1.25686320E+02
 20
2.00831410E+01
 11
1.32896320E+02
 21
2.00831410E+01
  0
LINE
  8
0
 62
7
 10
1.25686320E+02
 20
3.20831410E+01
 11
1.32896320E+02
 21
3.20831410E+01
  0
LINE
  8
0
 62
7
 10
1.23296320E+02
 20
2.96931410E+01
 11
1.23296320E+02
 21
2.24731410E+01
  0
LINE
  8
0
 62
7
 10
1.35296320E+02
 20
2.96931410E+01
 11
1.35296320E+02
 21
2.24731410E+01
  0
ARC
  8
0
 62
7
 10
1.29296575E+02
 20
2.60882210E+01
 40
7.00469417E+00
 50
3.00985939E+02
 51
3.28929398E+02
  0
LINE
  8
0
  6
CENTER
 62
2
 10
1.21090003E+02
 20
2.60831410E+01
 11
1.37338681E+02
 21
2.60831410E+01
  0
ARC
  8
0
 62
4
 10
1.30803946E+02
 20
4.25907677E+01
 40
9.92402587E-01
 50
3.59559672E+02
 51
9.04403286E+01
  0
ARC
  8
0
 62
4
 10
1.27796449E+02
 20
4.25830114E+01
 40
1.00012957E+00
 50
9.00000002E+01
 51
1.79992578E+02
  0
ARC
  8
0
 62
4
 10
1.32803945E+02
 20
4.02907662E+01
 40
7.92411497E-01
 50
3.59448647E+02
 51
9.05513523E+01
  0
ARC
  8
0
 62
4
 10
1.25796458E+02
 20
4.02830026E+01
 40
8.00138358E-01
 50
9.00000002E+01
 51
1.79990093E+02
  0
ARC
  8
0
 62
4
 10
1.32303945E+02
 20
3.97907662E+01
 40
4.92433852E-01
 50
3.59112757E+02
 51
9.08872431E+01
  0
ARC
  8
0
 62
4
 10
1.26296480E+02
 20
3.97829808E+01
 40
5.00160181E-01
 50
9.00000002E+01
 51
1.79981654E+02
  0
LINE
  8
0
 62
4
 10
1.30596320E+02
 20
3.30831410E+01
 11
1.31346320E+02
 21
3.23831410E+01
  0
LINE
  8
0
 62
4
 10
1.27996320E+02
 20
3.30831410E+01
 11
1.27246320E+02
 21
3.23831410E+01
  0
LINE
  8
0
 62
4
 10
1.30596320E+02
 20
3.56831410E+01
 11
1.31346320E+02
 21
3.63831410E+01
  0
LINE
  8
0
 62
4
 10
1.27246320E+02
 20
3.63831410E+01
 11
1.27996320E+02
 21
3.56831410E+01
  0
LINE
  8
0
 62
4
 10
1.27996320E+02
 20
3.56831410E+01
 11
1.27996320E+02
 21
3.30831410E+01
  0
LINE
  8
0
 62
4
 10
1.30596320E+02
 20
3.56831410E+01
 11
1.30596320E+02
 21
3.30831410E+01
  0
LINE
  8
0
 62
4
 10
1.27996320E+02
 20
3.56831410E+01
 11
1.30596320E+02
 21
3.56831410E+01
  0
LINE
  8
0
 62
4
 10
1.27996320E+02
 20
3.30831410E+01
 11
1.30596320E+02
 21
3.30831410E+01
  0
LINE
  8
0
 62
4
 10
1.30796320E+02
 20
3.95831410E+01
 11
1.30796320E+02
 21
3.83831410E+01
  0
LINE
  8
0
 62
6
 10
1.30526320E+02
 20
3.95831410E+01
 11
1.30526320E+02
 21
3.81131410E+01
  0
LINE
  8
0
 62
6
 10
1.28066320E+02
 20
3.95831410E+01
 11
1.28066320E+02
 21
3.81131410E+01
  0
LINE
  8
0
 62
4
 10
1.27796320E+02
 20
3.95831410E+01
 11
1.27796320E+02
 21
3.83831410E+01
  0
LINE
  8
0
 62
4
 10
1.27796320E+02
 20
4.35831410E+01
 11
1.30796320E+02
 21
4.35831410E+01
  0
LINE
  8
0
 62
4
 10
1.26796320E+02
 20
4.25831410E+01
 11
1.26796320E+02
 21
4.20831410E+01
  0
LINE
  8
0
 62
4
 10
1.31796320E+02
 20
4.25831410E+01
 11
1.31796320E+02
 21
4.20831410E+01
  0
LINE
  8
0
 62
6
 10
1.28066320E+02
 20
4.20831410E+01
 11
1.28066320E+02
 21
4.10831410E+01
  0
LINE
  8
0
 62
6
 10
1.30526320E+02
 20
4.20831410E+01
 11
1.30526320E+02
 21
4.10831410E+01
  0
LINE
  8
0
 62
4
 10
1.30796320E+02
 20
4.20831410E+01
 11
1.30796320E+02
 21
4.10831410E+01
  0
LINE
  8
0
 62
4
 10
1.27796320E+02
 20
4.20831410E+01
 11
1.27796320E+02
 21
4.10831410E+01
  0
LINE
  8
0
 62
4
 10
1.34454212E+02
 20
3.65737348E+01
 11
1.35196320E+02
 21
3.70131410E+01
  0
LINE
  8
0
 62
4
 10
1.34368469E+02
 20
3.74545737E+01
 11
1.34396320E+02
 21
3.74731410E+01
  0
LINE
  8
0
 62
4
 10
1.25796320E+02
 20
3.97831410E+01
 11
1.25946320E+02
 21
3.97831410E+01
  0
LINE
  8
0
 62
4
 10
1.25946320E+02
 20
3.97831410E+01
 11
1.25946320E+02
 21
3.45831410E+01
  0
LINE
  8
0
 62
4
 10
1.33596320E+02
 20
3.70131410E+01
 11
1.33893030E+02
 21
3.71779799E+01
  0
LINE
  8
0
 62
4
 10
1.34396320E+02
 20
3.93831410E+01
 11
1.34396320E+02
 21
3.74731410E+01
  0
LINE
  8
0
 62
4
 10
1.34396320E+02
 20
3.93831410E+01
 11
1.35196320E+02
 21
3.93831410E+01
  0
LINE
  8
0
 62
4
 10
1.35196320E+02
 20
3.93831410E+01
 11
1.35196320E+02
 21
3.70131410E+01
  0
LINE
  8
0
 62
4
 10
1.33596320E+02
 20
3.60831410E+01
 11
1.33977934E+02
 21
3.63057496E+01
  0
LINE
  8
0
 62
4
 10
1.32796320E+02
 20
3.38831410E+01
 11
1.33596320E+02
 21
3.38831410E+01
  0
LINE
  8
0
 62
4
 10
1.24996320E+02
 20
3.45831410E+01
 11
1.25796320E+02
 21
3.45831410E+01
  0
LINE
  8
0
 62
4
 10
1.27236320E+02
 20
4.02831410E+01
 11
1.27296320E+02
 21
3.95831410E+01
  0
LINE
  8
0
 62
4
 10
1.31356320E+02
 20
4.02831410E+01
 11
1.31296320E+02
 21
3.95831410E+01
  0
LINE
  8
0
 62
4
 10
1.24996320E+02
 20
4.02831410E+01
 11
1.24996320E+02
 21
3.45831410E+01
  0
LINE
  8
0
 62
4
 10
1.33596320E+02
 20
4.02831410E+01
 11
1.33596320E+02
 21
3.38831410E+01
  0
LINE
  8
0
 62
4
 10
1.26296320E+02
 20
4.02831410E+01
 11
1.32296320E+02
 21
4.02831410E+01
  0
LINE
  8
0
 62
4
 10
1.27296320E+02
 20
3.95831410E+01
 11
1.31296320E+02
 21
3.95831410E+01
  0
LINE
  8
0
 62
4
 10
1.25796320E+02
 20
4.10831410E+01
 11
1.32796320E+02
 21
4.10831410E+01
  0
LINE
  8
0
 62
4
 10
1.26796320E+02
 20
4.20831410E+01
 11
1.31796320E+02
 21
4.20831410E+01
  0
LINE
  8
0
 62
4
 10
1.25796320E+02
 20
3.97831410E+01
 11
1.25796320E+02
 21
3.45831410E+01
  0
LINE
  8
0
 62
4
 10
1.32796320E+02
 20
3.97831410E+01
 11
1.32796320E+02
 21
3.38831410E+01
  0
LINE
  8
0
 62
4
 10
1.27246320E+02
 20
3.63831410E+01
 11
1.27246320E+02
 21
3.23831410E+01
  0
LINE
  8
0
 62
4
 10
1.26046320E+02
 20
3.41831410E+01
 11
1.26046320E+02
 21
3.20831410E+01
  0
LINE
  8
0
 62
4
 10
1.26046320E+02
 20
3.45831410E+01
 11
1.27246320E+02
 21
3.45831410E+01
  0
LINE
  8
0
 62
4
 10
1.26046320E+02
 20
3.41831410E+01
 11
1.27246320E+02
 21
3.41831410E+01
  0
LINE
  8
0
 62
4
 10
1.26046320E+02
 20
3.73831410E+01
 11
1.32546320E+02
 21
3.73831410E+01
  0
LINE
  8
0
 62
4
 10
1.30296320E+02
 20
3.23831410E+01
 11
1.30296320E+02
 21
3.20831410E+01
  0
LINE
  8
0
 62
4
 10
1.28296320E+02
 20
3.23831410E+01
 11
1.28296320E+02
 21
3.20831410E+01
  0
LINE
  8
0
 62
4
 10
1.28296320E+02
 20
3.20831410E+01
 11
1.30296320E+02
 21
3.20831410E+01
  0
LINE
  8
0
 62
4
 10
1.28296320E+02
 20
3.66831410E+01
 11
1.30296320E+02
 21
3.66831410E+01
  0
LINE
  8
0
 62
4
 10
1.30296320E+02
 20
3.66831410E+01
 11
1.30296320E+02
 21
3.63831410E+01
  0
LINE
  8
0
 62
4
 10
1.28296320E+02
 20
3.66831410E+01
 11
1.28296320E+02
 21
3.63831410E+01
  0
LINE
  8
0
 62
4
 10
1.27246320E+02
 20
3.63831410E+01
 11
1.31346320E+02
 21
3.63831410E+01
  0
LINE
  8
0
 62
4
 10
1.31346320E+02
 20
3.63831410E+01
 11
1.31346320E+02
 21
3.23831410E+01
  0
LINE
  8
0
 62
4
 10
1.27246320E+02
 20
3.23831410E+01
 11
1.31346320E+02
 21
3.23831410E+01
  0
LINE
  8
0
 62
4
 10
1.26046320E+02
 20
3.80831410E+01
 11
1.32546320E+02
 21
3.80831410E+01
  0
LINE
  8
0
 62
4
 10
1.26046320E+02
 20
3.80831410E+01
 11
1.26046320E+02
 21
3.45831410E+01
  0
LINE
  8
0
 62
4
 10
1.32546320E+02
 20
3.80831410E+01
 11
1.32546320E+02
 21
3.20831410E+01
  0
CIRCLE
  8
0
 62
4
 10
1.29296320E+02
 20
3.43831410E+01
 40
1.30000000E+00
  0
LINE
  8
0
 62
4
 10
1.25946320E+02
 20
3.45831410E+01
 11
1.25154849E+02
 21
3.17296640E+01
  0
LINE
  8
0
 62
4
 10
1.25796320E+02
 20
3.45831410E+01
 11
1.24961705E+02
 21
3.15828837E+01
  0
LINE
  8
0
 62
4
 10
1.34126320E+02
 20
3.32331410E+01
 11
1.34350914E+02
 21
3.09258732E+01
  0
LINE
  8
0
 62
4
 10
1.33645867E+02
 20
3.97170954E+01
 11
1.34519295E+02
 21
3.07443318E+01
  0
LINE
  8
0
 62
4
 10
1.34126320E+02
 20
3.32331410E+01
 11
1.34275614E+02
 21
3.32476736E+01
  0
LINE
  8
0
 62
4
 10
1.34143515E+02
 20
3.97655375E+01
 11
1.35093116E+02
 21
3.00102356E+01
  0
LINE
  8
0
 62
4
 10
1.33645867E+02
 20
3.97170954E+01
 11
1.34143515E+02
 21
3.97655375E+01
  0
LINE
  8
0
 62
4
 10
1.30796320E+02
 20
3.83831410E+01
 11
1.30496320E+02
 21
3.80831410E+01
  0
LINE
  8
0
 62
4
 10
1.27796320E+02
 20
3.83831410E+01
 11
1.28096320E+02
 21
3.80831410E+01
  0
LINE
  8
0
  6
PHANTOM
 10
-1.74320466E+01
 20
5.02617350E+01
 11
-1.74320466E+01
 21
8.75229964E+01
  0
LINE
  8
0
  6
PHANTOM
 10
6.25679534E+01
 20
4.98028053E+01
 11
6.25679534E+01
 21
8.75229964E+01
  0
TEXT
  8
0
 62
7
 10
-3.23196178E+01
 20
6.66831410E+01
 40
1.50000000E+00
  1
PBDATS10-7
 41
1.00000000E+00
  7
MONOTXT
  0
ARC
  8
0
 62
7
 10
-6.23648614E+01
 20
7.10831410E+01
 40
4.62356726E+00
 50
1.82596937E+02
 51
2.31332268E+02
  0
LINE
  8
0
  6
CENTER
 62
2
 10
-9.69054387E+01
 20
7.10831410E+01
 11
7.76042657E+01
 21
7.10831410E+01
  0
LINE
  8
0
 62
2
 10
-9.46626803E+01
 20
7.27041410E+01
 11
-9.04036803E+01
 21
7.27041410E+01
  0
LINE
  8
0
 62
2
 10
-9.46626803E+01
 20
6.94621410E+01
 11
-9.04036803E+01
 21
6.94621410E+01
  0
LINE
  8
0
 62
2
 10
-8.72036803E+01
 20
7.27041410E+01
 11
-7.99836803E+01
 21
7.27041410E+01
  0
LINE
  8
0
 62
2
 10
-8.72036803E+01
 20
6.94621410E+01
 11
-7.99836803E+01
 21
6.94621410E+01
  0
CIRCLE
  8
0
 62
7
 10
7.15063197E+01
 20
7.10831410E+01
 40
2.06700000E+00
  0
CIRCLE
  8
0
 62
7
 10
-5.84836803E+01
 20
7.10831410E+01
 40
2.06700000E+00
  0
ARC
  8
0
 62
7
 10
8.43929011E+01
 20
7.10850529E+01
 40
4.61870138E+00
 50
2.02430813E+01
 51
5.13697542E+01
  0
ARC
  8
0
 62
7
 10
7.16351386E+01
 20
7.10831410E+01
 40
4.62982188E+00
 50
1.28764356E+02
 51
2.31235644E+02
  0
CIRCLE
  8
0
 62
2
 10
7.15128987E+01
 20
7.10881412E+01
 40
2.50000000E+00
  0
ARC
  8
0
 62
7
 10
8.43881568E+01
 20
7.10846516E+01
 40
4.62433716E+00
 50
3.08649693E+02
 51
3.39737471E+02
  0
CIRCLE
  8
0
 62
2
 10
-5.84870860E+01
 20
7.10881412E+01
 40
2.50000000E+00
  0
ARC
  8
0
 62
7
 10
-5.86093106E+01
 20
7.10831410E+01
 40
4.62782618E+00
 50
3.08733576E+02
 51
5.12664237E+01
  0
ARC
  8
0
 62
7
 10
-6.23648614E+01
 20
7.10831410E+01
 40
4.62356726E+00
 50
1.28667732E+02
 51
1.77403063E+02
  0
LINE
  8
0
 62
7
 10
8.90063197E+01
 20
6.94831410E+01
 11
8.90063197E+01
 21
6.50831410E+01
  0
LINE
  8
0
 62
7
 10
7.60063197E+01
 20
7.26831410E+01
 11
7.60063197E+01
 21
6.94831410E+01
  0
LINE
  8
0
 62
7
 10
7.60063197E+01
 20
7.26831410E+01
 11
8.90063197E+01
 21
7.26831410E+01
  0
LINE
  8
0
 62
7
 10
7.60063197E+01
 20
6.94831410E+01
 11
8.90063197E+01
 21
6.94831410E+01
  0
LINE
  8
0
 62
7
 10
6.87363197E+01
 20
6.74731410E+01
 11
6.87363197E+01
 21
6.50831410E+01
  0
LINE
  8
0
 62
7
 10
6.87363197E+01
 20
7.70831410E+01
 11
6.87363197E+01
 21
7.46931410E+01
  0
LINE
  8
0
 62
7
 10
6.70063197E+01
 20
7.70831410E+01
 11
6.70063197E+01
 21
6.50831410E+01
  0
LINE
  8
0
  6
CENTER
 62
2
 10
8.40063197E+01
 20
7.88366740E+01
 11
8.40063197E+01
 21
6.30960081E+01
  0
LINE
  8
0
  6
CENTER
 62
2
 10
7.15063197E+01
 20
7.44631410E+01
 11
7.15063197E+01
 21
6.73031410E+01
  0
LINE
  8
0
 62
7
 10
8.72763197E+01
 20
6.74731410E+01
 11
8.72763197E+01
 21
6.50831410E+01
  0
LINE
  8
0
 62
7
 10
8.72763197E+01
 20
7.70831410E+01
 11
8.72763197E+01
 21
7.46931410E+01
  0
LINE
  8
0
 62
7
 10
6.70063197E+01
 20
6.50831410E+01
 11
8.90063197E+01
 21
6.50831410E+01
  0
LINE
  8
0
 62
7
 10
6.87363197E+01
 20
6.74731410E+01
 11
8.72763197E+01
 21
6.74731410E+01
  0
LINE
  8
0
 62
7
 10
6.87363197E+01
 20
7.46931410E+01
 11
8.72763197E+01
 21
7.46931410E+01
  0
LINE
  8
0
 62
7
 10
6.70063197E+01
 20
7.70831410E+01
 11
8.90063197E+01
 21
7.70831410E+01
  0
LINE
  8
0
 62
7
 10
8.90063197E+01
 20
7.70831410E+01
 11
8.90063197E+01
 21
7.26831410E+01
  0
LINE
  8
0
 62
7
 10
-8.72036803E+01
 20
6.90831410E+01
 11
-7.49836803E+01
 21
6.90831410E+01
  0
LINE
  8
0
 62
7
 10
-8.72036803E+01
 20
7.30831410E+01
 11
-7.49836803E+01
 21
7.30831410E+01
  0
LINE
  8
0
 62
7
 10
-9.42836803E+01
 20
7.30831410E+01
 11
-9.42836803E+01
 21
6.90831410E+01
  0
LINE
  8
0
 62
7
 10
-9.49836803E+01
 20
6.97831410E+01
 11
-9.42836803E+01
 21
6.90831410E+01
  0
LINE
  8
0
 62
7
 10
-9.42836803E+01
 20
7.30831410E+01
 11
-9.49836803E+01
 21
7.23831410E+01
  0
LINE
  8
0
 62
7
 10
-9.42836803E+01
 20
6.90831410E+01
 11
-9.04036803E+01
 21
6.90831410E+01
  0
LINE
  8
0
 62
7
 10
-9.42836803E+01
 20
7.30831410E+01
 11
-9.04036803E+01
 21
7.30831410E+01
  0
LINE
  8
0
 62
7
 10
-7.99836803E+01
 20
7.30831410E+01
 11
-7.99836803E+01
 21
6.90831410E+01
  0
LINE
  8
0
 62
7
 10
-9.49836803E+01
 20
7.23831410E+01
 11
-9.49836803E+01
 21
6.97831410E+01
  0
LINE
  8
0
  6
CENTER
 62
2
 10
-5.84836803E+01
 20
7.46931410E+01
 11
-5.84836803E+01
 21
6.74731410E+01
  0
LINE
  8
0
 62
7
 10
-5.57136803E+01
 20
6.74731410E+01
 11
-5.57136803E+01
 21
6.50831410E+01
  0
LINE
  8
0
 62
7
 10
-6.52536803E+01
 20
6.74731410E+01
 11
-6.52536803E+01
 21
6.50831410E+01
  0
LINE
  8
0
 62
7
 10
-5.57136803E+01
 20
7.70831410E+01
 11
-5.57136803E+01
 21
7.46931410E+01
  0
LINE
  8
0
 62
7
 10
-6.52536803E+01
 20
7.70831410E+01
 11
-6.52536803E+01
 21
7.46931410E+01
  0
LINE
  8
0
 62
7
 10
-6.52536803E+01
 20
6.74731410E+01
 11
-5.57136803E+01
 21
6.74731410E+01
  0
LINE
  8
0
 62
7
 10
-6.52536803E+01
 20
7.46931410E+01
 11
-5.57136803E+01
 21
7.46931410E+01
  0
LINE
  8
0
 62
7
 10
-6.69836803E+01
 20
7.70831410E+01
 11
-6.69836803E+01
 21
6.50831410E+01
  0
LINE
  8
0
 62
7
 10
-6.69836803E+01
 20
6.50831410E+01
 11
-5.39836803E+01
 21
6.50831410E+01
  0
LINE
  8
0
 62
7
 10
-6.69836803E+01
 20
7.70831410E+01
 11
-5.39836803E+01
 21
7.70831410E+01
  0
LINE
  8
0
 62
7
 10
-5.39836803E+01
 20
7.70831410E+01
 11
-5.39836803E+01
 21
6.50831410E+01
  0
LINE
  8
0
 62
7
 10
-5.39836803E+01
 20
7.65831410E+01
 11
-4.39836803E+01
 21
7.65831410E+01
  0
LINE
  8
0
 62
7
 10
-5.39836803E+01
 20
6.55831410E+01
 11
-4.39836803E+01
 21
6.55831410E+01
  0
LINE
  8
0
 62
7
 10
-7.41836803E+01
 20
7.50831410E+01
 11
-7.41836803E+01
 21
6.70831410E+01
  0
LINE
  8
0
 62
7
 10
-7.41836803E+01
 20
7.50831410E+01
 11
-6.69836803E+01
 21
7.50831410E+01
  0
LINE
  8
0
 62
7
 10
-7.49836803E+01
 20
7.42831410E+01
 11
-7.49836803E+01
 21
6.78831410E+01
  0
LINE
  8
0
 62
2
 10
-7.48601803E+01
 20
7.44066410E+01
 11
-6.84836803E+01
 21
7.44066410E+01
  0
LINE
  8
0
 62
7
 10
-7.41836803E+01
 20
7.50831410E+01
 11
-7.49836803E+01
 21
7.42831410E+01
  0
LINE
  8
0
 62
7
 10
-7.41836803E+01
 20
6.70831410E+01
 11
-6.69836803E+01
 21
6.70831410E+01
  0
LINE
  8
0
 62
2
 10
-7.48601803E+01
 20
6.77596410E+01
 11
-6.84836803E+01
 21
6.77596410E+01
  0
LINE
  8
0
 62
7
 10
-7.49836803E+01
 20
6.78831410E+01
 11
-7.41836803E+01
 21
6.70831410E+01
  0
LINE
  8
0
 62
7
 10
-6.84836803E+01
 20
7.50831410E+01
 11
-6.84836803E+01
 21
6.70831410E+01
  0
LINE
  8
0
 62
7
 10
2.12763197E+01
 20
6.74731410E+01
 11
1.17363197E+01
 21
6.74731410E+01
  0
LINE
  8
0
 62
7
 10
2.12763197E+01
 20
7.46931410E+01
 11
1.17363197E+01
 21
7.46931410E+01
  0
LINE
  8
0
 62
7
 10
2.30063197E+01
 20
6.50831410E+01
 11
1.00063197E+01
 21
6.50831410E+01
  0
LINE
  8
0
 62
7
 10
2.30063197E+01
 20
7.70831410E+01
 11
1.00063197E+01
 21
7.70831410E+01
  0
LINE
  8
0
 62
7
 10
1.00063197E+01
 20
7.70831410E+01
 11
1.00063197E+01
 21
7.30831410E+01
  0
LINE
  8
0
 62
7
 10
1.17363197E+01
 20
7.70831410E+01
 11
1.17363197E+01
 21
7.46931410E+01
  0
LINE
  8
0
 62
7
 10
1.17363197E+01
 20
6.74731410E+01
 11
1.17363197E+01
 21
6.50831410E+01
  0
LINE
  8
0
  6
CENTER
 62
2
 10
1.45063197E+01
 20
7.46931410E+01
 11
1.45063197E+01
 21
6.74731410E+01
  0
ARC
  8
0
 62
7
 10
1.46319501E+01
 20
7.10831410E+01
 40
4.62782618E+00
 50
2.04305240E+02
 51
2.31266424E+02
  0
ARC
  8
0
 62
2
 10
1.45097255E+01
 20
7.10881412E+01
 40
2.50000000E+00
 50
2.14954389E+02
 51
7.77939067E+00
  0
ARC
  8
0
 62
7
 10
1.45063197E+01
 20
7.10831410E+01
 40
2.06700000E+00
 50
2.19722587E+02
 51
3.58025257E+02
  0
LINE
  8
0
 62
7
 10
2.12763197E+01
 20
6.74731410E+01
 11
2.12763197E+01
 21
6.50831410E+01
  0
ARC
  8
0
 62
7
 10
1.83875009E+01
 20
7.10831410E+01
 40
4.62356726E+00
 50
3.08667732E+02
 51
5.13322683E+01
  0
LINE
  8
0
 62
7
 10
2.12763197E+01
 20
7.70831410E+01
 11
2.12763197E+01
 21
7.46931410E+01
  0
LINE
  8
0
 62
7
 10
2.30063197E+01
 20
7.70831410E+01
 11
2.30063197E+01
 21
6.50831410E+01
  0
LINE
  8
0
 62
7
 10
2.30063197E+01
 20
7.65831410E+01
 11
3.30063197E+01
 21
7.65831410E+01
  0
LINE
  8
0
 62
7
 10
2.30063197E+01
 20
6.55831410E+01
 11
3.30063197E+01
 21
6.55831410E+01
  0
LINE
  8
0
 62
4
 10
-9.04036803E+01
 20
7.45831410E+01
 11
-9.04036803E+01
 21
6.75831410E+01
  0
LINE
  8
0
 62
4
 10
-8.72036803E+01
 20
7.45831410E+01
 11
-8.72036803E+01
 21
6.75831410E+01
  0
LINE
  8
0
 62
4
 10
-9.04036803E+01
 20
7.45831410E+01
 11
-8.72036803E+01
 21
7.45831410E+01
  0
LINE
  8
0
 62
4
 10
-9.04036803E+01
 20
6.75831410E+01
 11
-8.72036803E+01
 21
6.75831410E+01
  0
LINE
  8
0
 62
4
 10
-9.00336803E+01
 20
7.10831410E+01
 11
-8.75736803E+01
 21
7.10831410E+01
  0
ARC
  8
0
 62
4
 10
-8.60801668E+01
 20
7.28331410E+01
 40
4.32351351E+00
 50
1.56123699E+02
 51
2.03876301E+02
  0
ARC
  8
0
 62
4
 10
-8.60801668E+01
 20
6.93331410E+01
 40
4.32351351E+00
 50
1.56123699E+02
 51
2.03876301E+02
  0
ARC
  8
0
 62
4
 10
-9.15271938E+01
 20
7.28331410E+01
 40
4.32351351E+00
 50
3.36123699E+02
 51
2.38763010E+01
  0
ARC
  8
0
 62
4
 10
-9.15271938E+01
 20
6.93331410E+01
 40
4.32351351E+00
 50
3.36123699E+02
 51
2.38763010E+01
  0
LINE
  8
0
 62
4
 10
-4.14836803E+01
 20
7.59303359E+01
 11
-4.14836803E+01
 21
7.69476199E+01
  0
LINE
  8
0
 62
4
 10
-4.39836802E+01
 20
7.69476199E+01
 11
-3.49836802E+01
 21
7.69476199E+01
  0
LINE
  8
0
 62
4
 10
-4.14836803E+01
 20
7.61831410E+01
 11
-3.74836803E+01
 21
7.61831410E+01
  0
CIRCLE
  8
0
 62
4
 10
-3.94845555E+01
 20
7.10806825E+01
 40
2.50000000E+00
  0
LINE
  8
0
 62
4
 10
-3.24836803E+01
 20
6.90831410E+01
 11
-2.69836803E+01
 21
6.90831410E+01
  0
LINE
  8
0
 62
4
 10
-3.24836803E+01
 20
7.30831410E+01
 11
-2.69836803E+01
 21
7.30831410E+01
  0
LINE
  8
0
 62
4
 10
-3.49836803E+01
 20
6.78331410E+01
 11
-3.24836803E+01
 21
6.78331410E+01
  0
LINE
  8
0
 62
4
 10
-3.49836803E+01
 20
7.43331410E+01
 11
-3.24836803E+01
 21
7.43331410E+01
  0
LINE
  8
0
 62
4
 10
-3.24836803E+01
 20
6.78331410E+01
 11
-3.24836803E+01
 21
7.43331410E+01
  0
LINE
  8
0
 62
4
 10
-4.64836803E+01
 20
7.43331410E+01
 11
-4.39836803E+01
 21
7.43331410E+01
  0
LINE
  8
0
 62
4
 10
-4.64836803E+01
 20
6.78331410E+01
 11
-4.39836803E+01
 21
6.78331410E+01
  0
LINE
  8
0
 62
4
 10
-5.19836803E+01
 20
7.00831410E+01
 11
-5.09836803E+01
 21
6.90831410E+01
  0
LINE
  8
0
 62
4
 10
-5.19836803E+01
 20
7.20831410E+01
 11
-5.09836803E+01
 21
7.30831410E+01
  0
LINE
  8
0
 62
4
 10
-5.09836803E+01
 20
7.30831410E+01
 11
-5.09836803E+01
 21
6.90831410E+01
  0
LINE
  8
0
 62
4
 10
-5.09836803E+01
 20
7.30831410E+01
 11
-4.64836803E+01
 21
7.30831410E+01
  0
LINE
  8
0
 62
4
 10
-5.09836803E+01
 20
6.90831410E+01
 11
-4.64836803E+01
 21
6.90831410E+01
  0
LINE
  8
0
 62
4
 10
-5.19836803E+01
 20
7.20831410E+01
 11
-5.19836803E+01
 21
7.00831410E+01
  0
LINE
  8
0
 62
4
 10
-2.69836803E+01
 20
7.30831410E+01
 11
-2.69836803E+01
 21
6.90831410E+01
  0
LINE
  8
0
 62
4
 10
-3.84736803E+01
 20
7.00831410E+01
 11
-4.05436803E+01
 21
7.21431410E+01
  0
LINE
  8
0
 62
4
 10
-4.05436803E+01
 20
7.00231410E+01
 11
-3.84236803E+01
 21
7.21431410E+01
  0
LINE
  8
0
 62
4
 10
-3.83736803E+01
 20
6.99831410E+01
 11
-3.84236803E+01
 21
7.00231410E+01
  0
LINE
  8
0
 62
4
 10
-4.39836803E+01
 20
6.54331410E+01
 11
-3.49836803E+01
 21
6.54331410E+01
  0
LINE
  8
0
 62
4
 10
-4.64836803E+01
 20
6.78331410E+01
 11
-4.64836803E+01
 21
7.43331410E+01
  0
LINE
  8
0
 62
4
 10
-4.39836803E+01
 20
6.67831410E+01
 11
-3.49836803E+01
 21
6.67831410E+01
  0
LINE
  8
0
 62
4
 10
-4.39836803E+01
 20
7.53831777E+01
 11
-3.49836803E+01
 21
7.53831777E+01
  0
LINE
  8
0
 62
4
 10
-2.69836803E+01
 20
7.30831410E+01
 11
-2.39836803E+01
 21
7.23831410E+01
  0
LINE
  8
0
 62
4
 10
-2.39836803E+01
 20
7.23831410E+01
 11
-1.90466812E+01
 21
7.23831410E+01
  0
LINE
  8
0
 62
4
 10
-2.39836803E+01
 20
6.97831410E+01
 11
-2.16466812E+01
 21
6.97831410E+01
  0
LINE
  8
0
 62
4
 10
-2.39836803E+01
 20
7.23831410E+01
 11
-2.39836803E+01
 21
6.97831410E+01
  0
LINE
  8
0
 62
4
 10
-2.69836803E+01
 20
6.90831410E+01
 11
-2.39836803E+01
 21
6.97831410E+01
  0
LINE
  8
0
 62
6
 10
-1.90466812E+01
 20
7.23831410E+01
 11
-2.16466812E+01
 21
6.97831410E+01
  0
LINE
  8
0
 62
4
 10
-4.39836802E+01
 20
7.59303359E+01
 11
-3.49836802E+01
 21
7.59303359E+01
  0
LINE
  8
0
 62
4
 10
-4.39836803E+01
 20
6.54331410E+01
 11
-4.39836803E+01
 21
7.69476199E+01
  0
LINE
  8
0
 62
4
 10
-3.49836803E+01
 20
6.54331410E+01
 11
-3.49836803E+01
 21
7.69476199E+01
  0
LINE
  8
0
 62
4
 10
-3.74836803E+01
 20
7.69476199E+01
 11
-3.74836803E+01
 21
7.59303359E+01
  0
LINE
  8
0
  6
CENTER
 62
6
 10
-3.94836803E+01
 20
7.83831410E+01
 11
-3.94836803E+01
 21
6.29031410E+01
  0
LINE
  8
0
 62
4
 10
3.55063197E+01
 20
7.59303359E+01
 11
3.55063197E+01
 21
7.69476199E+01
  0
LINE
  8
0
 62
4
 10
3.30063198E+01
 20
7.69476199E+01
 11
4.20063198E+01
 21
7.69476199E+01
  0
LINE
  8
0
 62
4
 10
3.55063197E+01
 20
7.61831410E+01
 11
3.95063197E+01
 21
7.61831410E+01
  0
CIRCLE
  8
0
 62
4
 10
3.75054445E+01
 20
7.10806825E+01
 40
2.50000000E+00
  0
LINE
  8
0
 62
4
 10
4.45063197E+01
 20
6.90831410E+01
 11
5.00063197E+01
 21
6.90831410E+01
  0
LINE
  8
0
 62
4
 10
4.45063197E+01
 20
7.30831410E+01
 11
5.00063197E+01
 21
7.30831410E+01
  0
LINE
  8
0
 62
4
 10
4.20063197E+01
 20
6.78331410E+01
 11
4.45063197E+01
 21
6.78331410E+01
  0
LINE
  8
0
 62
4
 10
4.20063197E+01
 20
7.43331410E+01
 11
4.45063197E+01
 21
7.43331410E+01
  0
LINE
  8
0
 62
4
 10
4.45063197E+01
 20
6.78331410E+01
 11
4.45063197E+01
 21
7.43331410E+01
  0
LINE
  8
0
 62
4
 10
3.05063197E+01
 20
7.43331410E+01
 11
3.30063197E+01
 21
7.43331410E+01
  0
LINE
  8
0
 62
4
 10
3.05063197E+01
 20
6.78331410E+01
 11
3.30063197E+01
 21
6.78331410E+01
  0
LINE
  8
0
 62
4
 10
2.50063197E+01
 20
7.00831410E+01
 11
2.60063197E+01
 21
6.90831410E+01
  0
LINE
  8
0
 62
4
 10
2.50063197E+01
 20
7.20831410E+01
 11
2.60063197E+01
 21
7.30831410E+01
  0
LINE
  8
0
 62
4
 10
2.60063197E+01
 20
7.30831410E+01
 11
2.60063197E+01
 21
6.90831410E+01
  0
LINE
  8
0
 62
4
 10
2.60063197E+01
 20
7.30831410E+01
 11
3.05063197E+01
 21
7.30831410E+01
  0
LINE
  8
0
 62
4
 10
2.60063197E+01
 20
6.90831410E+01
 11
3.05063197E+01
 21
6.90831410E+01
  0
LINE
  8
0
 62
4
 10
2.50063197E+01
 20
7.20831410E+01
 11
2.50063197E+01
 21
7.00831410E+01
  0
LINE
  8
0
 62
4
 10
5.00063197E+01
 20
7.30831410E+01
 11
5.00063197E+01
 21
6.90831410E+01
  0
LINE
  8
0
 62
4
 10
3.85163197E+01
 20
7.00831410E+01
 11
3.64463197E+01
 21
7.21431410E+01
  0
LINE
  8
0
 62
4
 10
3.64463197E+01
 20
7.00231410E+01
 11
3.85663197E+01
 21
7.21431410E+01
  0
LINE
  8
0
 62
4
 10
3.86163197E+01
 20
6.99831410E+01
 11
3.85663197E+01
 21
7.00231410E+01
  0
LINE
  8
0
 62
4
 10
3.30063197E+01
 20
6.54331410E+01
 11
4.20063197E+01
 21
6.54331410E+01
  0
LINE
  8
0
 62
4
 10
3.05063197E+01
 20
6.78331410E+01
 11
3.05063197E+01
 21
7.43331410E+01
  0
LINE
  8
0
 62
4
 10
3.30063197E+01
 20
6.67831410E+01
 11
4.20063197E+01
 21
6.67831410E+01
  0
LINE
  8
0
 62
4
 10
3.30063197E+01
 20
7.53831777E+01
 11
4.20063197E+01
 21
7.53831777E+01
  0
LINE
  8
0
 62
4
 10
5.00063197E+01
 20
7.30831410E+01
 11
5.30063197E+01
 21
7.23831410E+01
  0
LINE
  8
0
 62
4
 10
5.30063197E+01
 20
7.23831410E+01
 11
5.79433188E+01
 21
7.23831410E+01
  0
LINE
  8
0
 62
4
 10
5.30063197E+01
 20
6.97831410E+01
 11
5.53433188E+01
 21
6.97831410E+01
  0
LINE
  8
0
 62
4
 10
5.30063197E+01
 20
7.23831410E+01
 11
5.30063197E+01
 21
6.97831410E+01
  0
LINE
  8
0
 62
4
 10
5.00063197E+01
 20
6.90831410E+01
 11
5.30063197E+01
 21
6.97831410E+01
  0
LINE
  8
0
 62
6
 10
5.79433188E+01
 20
7.23831410E+01
 11
5.53433188E+01
 21
6.97831410E+01
  0
LINE
  8
0
 62
4
 10
3.30063198E+01
 20
7.59303359E+01
 11
4.20063198E+01
 21
7.59303359E+01
  0
LINE
  8
0
 62
4
 10
3.30063197E+01
 20
6.54331410E+01
 11
3.30063197E+01
 21
7.69476199E+01
  0
LINE
  8
0
 62
4
 10
4.20063197E+01
 20
6.54331410E+01
 11
4.20063197E+01
 21
7.69476199E+01
  0
LINE
  8
0
 62
4
 10
3.95063197E+01
 20
7.69476199E+01
 11
3.95063197E+01
 21
7.59303359E+01
  0
LINE
  8
0
  6
CENTER
 62
6
 10
3.75063197E+01
 20
7.83831410E+01
 11
3.75063197E+01
 21
6.29031410E+01
  0
LINE
  8
0
 62
7
 10
-3.49836803E+01
 20
6.55831410E+01
 11
-6.99368027E+00
 21
6.55831410E+01
  0
LINE
  8
0
 62
7
 10
-3.49836803E+01
 20
7.65831410E+01
 11
-6.99368027E+00
 21
7.65831410E+01
  0
LINE
  8
0
 62
7
 10
4.20063197E+01
 20
6.55831410E+01
 11
6.70063197E+01
 21
6.55831410E+01
  0
LINE
  8
0
 62
7
 10
4.20063197E+01
 20
7.65831410E+01
 11
6.70063197E+01
 21
7.65831410E+01
  0
LINE
  8
0
 62
4
 10
-4.49368027E+00
 20
7.59303359E+01
 11
-4.49368027E+00
 21
7.69476199E+01
  0
LINE
  8
0
 62
4
 10
-6.99368024E+00
 20
7.69476199E+01
 11
2.00631976E+00
 21
7.69476199E+01
  0
LINE
  8
0
 62
4
 10
-4.49368027E+00
 20
7.61831410E+01
 11
-4.93680275E-01
 21
7.61831410E+01
  0
CIRCLE
  8
0
 62
4
 10
-2.49455551E+00
 20
7.10806825E+01
 40
2.50000000E+00
  0
LINE
  8
0
 62
4
 10
4.50631973E+00
 20
6.90831410E+01
 11
1.00063197E+01
 21
6.90831410E+01
  0
LINE
  8
0
 62
4
 10
4.50631973E+00
 20
7.30831410E+01
 11
1.00063197E+01
 21
7.30831410E+01
  0
LINE
  8
0
 62
4
 10
2.00631973E+00
 20
6.78331410E+01
 11
4.50631973E+00
 21
6.78331410E+01
  0
LINE
  8
0
 62
4
 10
2.00631973E+00
 20
7.43331410E+01
 11
4.50631973E+00
 21
7.43331410E+01
  0
LINE
  8
0
 62
4
 10
4.50631973E+00
 20
6.78331410E+01
 11
4.50631973E+00
 21
7.43331410E+01
  0
LINE
  8
0
 62
4
 10
-9.49368027E+00
 20
7.43331410E+01
 11
-6.99368027E+00
 21
7.43331410E+01
  0
LINE
  8
0
 62
4
 10
-9.49368027E+00
 20
6.78331410E+01
 11
-6.99368027E+00
 21
6.78331410E+01
  0
LINE
  8
0
 62
4
 10
-1.49936803E+01
 20
7.00831410E+01
 11
-1.39936803E+01
 21
6.90831410E+01
  0
LINE
  8
0
 62
4
 10
-1.49936803E+01
 20
7.20831410E+01
 11
-1.39936803E+01
 21
7.30831410E+01
  0
LINE
  8
0
 62
4
 10
-1.39936803E+01
 20
7.30831410E+01
 11
-1.39936803E+01
 21
6.90831410E+01
  0
LINE
  8
0
 62
4
 10
-1.39936803E+01
 20
7.30831410E+01
 11
-9.49368027E+00
 21
7.30831410E+01
  0
LINE
  8
0
 62
4
 10
-1.39936803E+01
 20
6.90831410E+01
 11
-9.49368027E+00
 21
6.90831410E+01
  0
LINE
  8
0
 62
4
 10
-1.49936803E+01
 20
7.20831410E+01
 11
-1.49936803E+01
 21
7.00831410E+01
  0
LINE
  8
0
 62
4
 10
1.00063197E+01
 20
7.30831410E+01
 11
1.00063197E+01
 21
6.90831410E+01
  0
LINE
  8
0
 62
4
 10
-1.48368027E+00
 20
7.00831410E+01
 11
-3.55368027E+00
 21
7.21431410E+01
  0
LINE
  8
0
 62
4
 10
-3.55368027E+00
 20
7.00231410E+01
 11
-1.43368027E+00
 21
7.21431410E+01
  0
LINE
  8
0
 62
4
 10
-1.38368027E+00
 20
6.99831410E+01
 11
-1.43368027E+00
 21
7.00231410E+01
  0
LINE
  8
0
 62
4
 10
-6.99368027E+00
 20
6.54331410E+01
 11
2.00631973E+00
 21
6.54331410E+01
  0
LINE
  8
0
 62
4
 10
-9.49368027E+00
 20
6.78331410E+01
 11
-9.49368027E+00
 21
7.43331410E+01
  0
LINE
  8
0
 62
4
 10
-6.99368027E+00
 20
6.67831410E+01
 11
2.00631973E+00
 21
6.67831410E+01
  0
LINE
  8
0
 62
4
 10
-6.99368027E+00
 20
7.53831777E+01
 11
2.00631973E+00
 21
7.53831777E+01
  0
LINE
  8
0
 62
4
 10
1.00063197E+01
 20
7.30831410E+01
 11
1.30063197E+01
 21
7.23831410E+01
  0
LINE
  8
0
 62
4
 10
1.30063197E+01
 20
7.23831410E+01
 11
1.79433188E+01
 21
7.23831410E+01
  0
LINE
  8
0
 62
4
 10
1.30063197E+01
 20
6.97831410E+01
 11
1.53433188E+01
 21
6.97831410E+01
  0
LINE
  8
0
 62
4
 10
1.30063197E+01
 20
7.23831410E+01
 11
1.30063197E+01
 21
6.97831410E+01
  0
LINE
  8
0
 62
4
 10
1.00063197E+01
 20
6.90831410E+01
 11
1.30063197E+01
 21
6.97831410E+01
  0
LINE
  8
0
 62
6
 10
1.79433188E+01
 20
7.23831410E+01
 11
1.53433188E+01
 21
6.97831410E+01
  0
LINE
  8
0
 62
4
 10
-6.99368024E+00
 20
7.59303359E+01
 11
2.00631976E+00
 21
7.59303359E+01
  0
LINE
  8
0
 62
4
 10
-6.99368027E+00
 20
6.54331410E+01
 11
-6.99368027E+00
 21
7.69476199E+01
  0
LINE
  8
0
 62
4
 10
2.00631973E+00
 20
6.54331410E+01
 11
2.00631973E+00
 21
7.69476199E+01
  0
LINE
  8
0
 62
4
 10
-4.93680265E-01
 20
7.69476199E+01
 11
-4.93680265E-01
 21
7.59303359E+01
  0
LINE
  8
0
  6
CENTER
 62
6
 10
-2.49368027E+00
 20
7.83831410E+01
 11
-2.49368027E+00
 21
6.29031410E+01
  0
LINE
  8
0
 62
7
 10
2.00631973E+00
 20
7.65831410E+01
 11
1.00063197E+01
 21
7.65831410E+01
  0
LINE
  8
0
 62
7
 10
2.00631973E+00
 20
6.55831410E+01
 11
1.00063197E+01
 21
6.55831410E+01
  0
LINE
  8
0
 62
7
 10
1.00063197E+01
 20
6.90831410E+01
 11
1.00063197E+01
 21
6.50831410E+01
  0
ARC
  8
0
 62
7
 10
1.46319501E+01
 20
7.10831410E+01
 40
4.62782618E+00
 50
1.28733576E+02
 51
1.55694760E+02
  0
ARC
  8
0
 62
7
 10
1.45063197E+01
 20
7.10831410E+01
 40
2.06700000E+00
 50
3.89712842E+01
 51
1.40277413E+02
  0
ARC
  8
0
 62
2
 10
1.45097255E+01
 20
7.10881412E+01
 40
2.50000000E+00
 50
3.11981857E+01
 51
1.45285832E+02
  0
LINE
  8
0
 62
4
 10
-3.93033486E+01
 20
-9.83791250E+01
 11
-3.93033486E+01
 21
-1.00379125E+02
  0
LINE
  8
0
 62
4
 10
-4.93033486E+01
 20
-9.83791250E+01
 11
-3.93033486E+01
 21
-9.83791250E+01
  0
LINE
  8
0
 62
4
 10
-5.03033486E+01
 20
-9.53791250E+01
 11
-5.03033486E+01
 21
-9.73791250E+01
  0
LINE
  8
0
 62
4
 10
-5.23033486E+01
 20
-9.53791250E+01
 11
-5.23033486E+01
 21
-9.73791250E+01
  0
LINE
  8
0
 62
4
 10
-4.93033486E+01
 20
-1.00379125E+02
 11
-3.93033486E+01
 21
-1.00379125E+02
  0
LINE
  8
0
 62
4
 10
-6.83033486E+01
 20
-9.53791250E+01
 11
-6.83033486E+01
 21
-9.73791250E+01
  0
LINE
  8
0
 62
4
 10
-6.93033486E+01
 20
-9.83791250E+01
 11
-7.93033486E+01
 21
-9.83791250E+01
  0
LINE
  8
0
 62
4
 10
-7.93033486E+01
 20
-9.83791250E+01
 11
-7.93033486E+01
 21
-1.00379125E+02
  0
LINE
  8
0
 62
4
 10
-6.93033486E+01
 20
-1.00379125E+02
 11
-7.93033486E+01
 21
-1.00379125E+02
  0
LINE
  8
0
 62
4
 10
-6.63033486E+01
 20
-9.53791250E+01
 11
-6.63033486E+01
 21
-9.73791250E+01
  0
LINE
  8
0
 62
4
 10
-6.34033486E+01
 20
-1.00379125E+02
 11
-5.52033486E+01
 21
-1.00379125E+02
  0
LINE
  8
0
 62
4
 10
-6.34033486E+01
 20
-9.53791250E+01
 11
-5.52033486E+01
 21
-9.53791250E+01
  0
LINE
  8
0
  6
CENTER
 62
6
 10
-7.44033486E+01
 20
-9.53791250E+01
 11
-7.44033486E+01
 21
-1.03379125E+02
  0
LINE
  8
0
  6
CENTER
 62
6
 10
-4.42033486E+01
 20
-9.53791250E+01
 11
-4.42033486E+01
 21
-1.03379125E+02
  0
ARC
  8
0
 62
4
 10
-6.93033486E+01
 20
-9.73791250E+01
 40
3.00000000E+00
 50
2.70000000E+02
 51
0.00000000E+00
  0
ARC
  8
0
 62
4
 10
-6.93033486E+01
 20
-9.73791250E+01
 40
1.00000000E+00
 50
2.70000000E+02
 51
0.00000000E+00
  0
ARC
  8
0
 62
4
 10
-4.93033486E+01
 20
-9.73791250E+01
 40
1.00000000E+00
 50
1.80000000E+02
 51
2.70000000E+02
  0
ARC
  8
0
 62
4
 10
-4.93033486E+01
 20
-9.73791250E+01
 40
3.00000000E+00
 50
1.80000000E+02
 51
2.70000000E+02
  0
LINE
  8
0
 62
4
 10
-5.77533486E+01
 20
-8.33791250E+01
 11
-5.33033486E+01
 21
-8.33791250E+01
  0
LINE
  8
0
  6
CENTER
 62
6
 10
-6.38533486E+01
 20
-7.13791250E+01
 11
-5.47533486E+01
 21
-7.13791250E+01
  0
LINE
  8
0
 62
4
 10
-6.08533486E+01
 20
-6.43791250E+01
 11
-5.77533486E+01
 21
-6.43791250E+01
  0
LINE
  8
0
 62
4
 10
-5.33033486E+01
 20
-8.33791250E+01
 11
-5.33033486E+01
 21
-9.23791250E+01
  0
LINE
  8
0
 62
4
 10
-5.77533486E+01
 20
-6.43791250E+01
 11
-5.77533486E+01
 21
-8.33791250E+01
  0
LINE
  8
0
 62
4
 10
-6.53033486E+01
 20
-9.23791250E+01
 11
-5.33033486E+01
 21
-9.23791250E+01
  0
LINE
  8
0
 62
4
 10
-6.53033486E+01
 20
-9.43791250E+01
 11
-5.33033486E+01
 21
-9.43791250E+01
  0
LINE
  8
0
 62
4
 10
-6.08533486E+01
 20
-6.43791250E+01
 11
-6.08533486E+01
 21
-8.33791250E+01
  0
LINE
  8
0
 62
4
 10
-6.08533486E+01
 20
-8.33791250E+01
 11
-6.53033486E+01
 21
-8.33791250E+01
  0
LINE
  8
0
 62
4
 10
-6.53033486E+01
 20
-8.33791250E+01
 11
-6.53033486E+01
 21
-9.23791250E+01
  0
LINE
  8
0
 62
4
 10
-6.08533486E+01
 20
-6.59891250E+01
 11
-5.77533486E+01
 21
-6.59891250E+01
  0
LINE
  8
0
  6
CENTER
 62
6
 10
-5.93033486E+01
 20
-6.13791250E+01
 11
-5.93033486E+01
 21
-1.03379125E+02
  0
LINE
  8
0
 62
4
 10
-6.34033486E+01
 20
-9.43791250E+01
 11
-6.34033486E+01
 21
-1.00379125E+02
  0
LINE
  8
0
 62
4
 10
-5.52033486E+01
 20
-9.43791250E+01
 11
-5.52033486E+01
 21
-1.00379125E+02
  0
ARC
  8
0
 62
4
 10
-6.53033486E+01
 20
-9.53791250E+01
 40
1.00000000E+00
 50
9.00000002E+01
 51
1.80000000E+02
  0
ARC
  8
0
 62
4
 10
-6.53033486E+01
 20
-9.53791250E+01
 40
3.00000000E+00
 50
9.00000002E+01
 51
1.80000000E+02
  0
ARC
  8
0
 62
4
 10
-5.33033486E+01
 20
-9.53791250E+01
 40
1.00000000E+00
 50
0.00000000E+00
 51
9.00000002E+01
  0
ARC
  8
0
 62
4
 10
-5.33033486E+01
 20
-9.53791250E+01
 40
3.00000000E+00
 50
0.00000000E+00
 51
9.00000002E+01
  0
LINE
  8
0
 62
4
 10
-1.16403349E+02
 20
-9.83741248E+01
 11
-1.16403349E+02
 21
-1.00374125E+02
  0
LINE
  8
0
 62
4
 10
-1.12203349E+02
 20
-9.83741248E+01
 11
-1.12203349E+02
 21
-1.00374125E+02
  0
LINE
  8
0
  6
CENTER
 62
6
 10
-1.14303349E+02
 20
-9.53741248E+01
 11
-1.14303349E+02
 21
-1.03374125E+02
  0
LINE
  8
0
 62
4
 10
-1.28403349E+02
 20
-9.83741248E+01
 11
-1.28403349E+02
 21
-1.00374125E+02
  0
LINE
  8
0
 62
4
 10
-1.24203349E+02
 20
-9.83741248E+01
 11
-1.24203349E+02
 21
-1.00374125E+02
  0
LINE
  8
0
  6
CENTER
 62
6
 10
-1.26303349E+02
 20
-9.53741248E+01
 11
-1.26303349E+02
 21
-1.03374125E+02
  0
LINE
  8
0
 62
4
 10
-1.31303349E+02
 20
-1.00374125E+02
 11
-1.09303349E+02
 21
-1.00374125E+02
  0
LINE
  8
0
 62
4
 10
-1.31303349E+02
 20
-9.83741248E+01
 11
-1.09303349E+02
 21
-9.83741248E+01
  0
LINE
  8
0
  6
CENTER
 62
6
 10
-1.29303349E+02
 20
-7.13741248E+01
 11
-1.11303349E+02
 21
-7.13741248E+01
  0
LINE
  8
0
 62
4
 10
-1.26303349E+02
 20
-8.33741248E+01
 11
-1.14303349E+02
 21
-8.33741248E+01
  0
LINE
  8
0
 62
4
 10
-1.31303349E+02
 20
-9.23741248E+01
 11
-1.09303349E+02
 21
-9.23741248E+01
  0
LINE
  8
0
 62
4
 10
-1.14303349E+02
 20
-6.59841248E+01
 11
-1.14303349E+02
 21
-9.23741248E+01
  0
LINE
  8
0
 62
4
 10
-1.26303349E+02
 20
-6.59841248E+01
 11
-1.26303349E+02
 21
-9.23741248E+01
  0
CIRCLE
  8
0
 62
4
 10
-1.20303349E+02
 20
-7.13741248E+01
 40
1.64999962E+00
  0
ARC
  8
0
 62
4
 10
-1.20303349E+02
 20
-7.63741267E+01
 40
1.19980057E+01
 50
5.99945013E+01
 51
1.20005499E+02
  0
LINE
  8
0
  6
CENTER
 62
6
 10
-1.20303349E+02
 20
-6.13741248E+01
 11
-1.20303349E+02
 21
-1.03374125E+02
  0
LINE
  8
0
 62
4
 10
-1.09303349E+02
 20
-9.23741248E+01
 11
-1.09303349E+02
 21
-1.00374125E+02
  0
LINE
  8
0
 62
4
 10
-1.31303349E+02
 20
-9.23741248E+01
 11
-1.31303349E+02
 21
-1.00374125E+02
  0
LINE
  8
0
  6
CENTER
 62
6
 10
-7.44033486E+01
 20
-1.96715904E+01
 11
-7.44033486E+01
 21
-4.32965692E+01
  0
LINE
  8
0
  6
CENTER
 62
6
 10
-4.42033486E+01
 20
-1.94884510E+01
 11
-4.42033486E+01
 21
-4.32965692E+01
  0
LINE
  8
0
 62
4
 10
-3.93033486E+01
 20
-2.03791307E+01
 11
-3.93033486E+01
 21
-2.32791307E+01
  0
LINE
  8
0
 62
4
 10
-5.03033486E+01
 20
-2.03791307E+01
 11
-5.03033486E+01
 21
-4.23791307E+01
  0
LINE
  8
0
  6
CENTER
 62
6
 10
-5.93033486E+01
 20
-1.96715904E+01
 11
-5.93033486E+01
 21
-4.32965692E+01
  0
LINE
  8
0
 62
4
 10
-6.83033486E+01
 20
-2.03791307E+01
 11
-6.83033486E+01
 21
-4.23791307E+01
  0
LINE
  8
0
 62
4
 10
-7.93033486E+01
 20
-2.03791307E+01
 11
-7.93033486E+01
 21
-2.32791307E+01
  0
LINE
  8
0
 62
4
 10
-6.53033486E+01
 20
-2.53791307E+01
 11
-6.53033486E+01
 21
-3.73791307E+01
  0
LINE
  8
0
 62
4
 10
-5.33033486E+01
 20
-2.53791307E+01
 11
-5.33033486E+01
 21
-3.73791307E+01
  0
LINE
  8
0
  6
CENTER
 62
6
 10
-3.63033486E+01
 20
-3.13791307E+01
 11
-8.23033486E+01
 21
-3.13791307E+01
  0
LINE
  8
0
 62
4
 10
-5.33033486E+01
 20
-3.73791307E+01
 11
-6.53033486E+01
 21
-3.73791307E+01
  0
LINE
  8
0
 62
4
 10
-3.93033486E+01
 20
-4.23791307E+01
 11
-7.93033486E+01
 21
-4.23791307E+01
  0
LINE
  8
0
 62
4
 10
-5.33033486E+01
 20
-2.53791307E+01
 11
-6.53033486E+01
 21
-2.53791307E+01
  0
LINE
  8
0
 62
4
 10
-3.93033486E+01
 20
-2.32791307E+01
 11
-4.42033486E+01
 21
-2.32791307E+01
  0
LINE
  8
0
 62
4
 10
-3.93033486E+01
 20
-2.74791307E+01
 11
-4.42033486E+01
 21
-2.74791307E+01
  0
LINE
  8
0
 62
4
 10
-3.93033486E+01
 20
-3.52791307E+01
 11
-4.42033486E+01
 21
-3.52791307E+01
  0
LINE
  8
0
 62
4
 10
-3.93033486E+01
 20
-3.94791307E+01
 11
-4.42033486E+01
 21
-3.94791307E+01
  0
LINE
  8
0
 62
4
 10
-5.77533486E+01
 20
-2.53791307E+01
 11
-5.77533486E+01
 21
-3.73791307E+01
  0
LINE
  8
0
 62
4
 10
-6.08533486E+01
 20
-2.53791307E+01
 11
-6.08533486E+01
 21
-3.73791307E+01
  0
LINE
  8
0
  6
CENTER
 62
6
 10
-3.63033486E+01
 20
-2.53791307E+01
 11
-4.93033486E+01
 21
-2.53791307E+01
  0
LINE
  8
0
  6
CENTER
 62
6
 10
-3.63033486E+01
 20
-3.73791307E+01
 11
-4.93033486E+01
 21
-3.73791307E+01
  0
LINE
  8
0
 62
4
 10
-7.44033486E+01
 20
-2.32791307E+01
 11
-7.93033486E+01
 21
-2.32791307E+01
  0
LINE
  8
0
 62
4
 10
-7.44033486E+01
 20
-2.74791307E+01
 11
-7.93033486E+01
 21
-2.74791307E+01
  0
LINE
  8
0
 62
4
 10
-7.44033486E+01
 20
-3.52791307E+01
 11
-7.93033486E+01
 21
-3.52791307E+01
  0
LINE
  8
0
 62
4
 10
-7.44033486E+01
 20
-3.94791307E+01
 11
-7.93033486E+01
 21
-3.94791307E+01
  0
LINE
  8
0
 62
4
 10
-3.93033486E+01
 20
-2.76391307E+01
 11
-3.93033486E+01
 21
-3.52791307E+01
  0
LINE
  8
0
 62
4
 10
-3.93033486E+01
 20
-3.94791307E+01
 11
-3.93033486E+01
 21
-4.23791307E+01
  0
LINE
  8
0
 62
4
 10
-7.93033486E+01
 20
-2.74791307E+01
 11
-7.93033486E+01
 21
-3.52791307E+01
  0
LINE
  8
0
 62
4
 10
-7.93033486E+01
 20
-3.94791307E+01
 11
-7.93033486E+01
 21
-4.23791307E+01
  0
LINE
  8
0
  6
CENTER
 62
6
 10
-6.93033486E+01
 20
-2.53791307E+01
 11
-8.23033486E+01
 21
-2.53791307E+01
  0
LINE
  8
0
  6
CENTER
 62
6
 10
-6.93033486E+01
 20
-3.73791307E+01
 11
-8.23033486E+01
 21
-3.73791307E+01
  0
ARC
  8
0
 62
4
 10
-4.42033486E+01
 20
-3.73791307E+01
 40
2.10000000E+00
 50
9.00000002E+01
 51
2.70000000E+02
  0
ARC
  8
0
 62
4
 10
-7.44033486E+01
 20
-3.73791307E+01
 40
2.10000000E+00
 50
2.70000000E+02
 51
9.00000002E+01
  0
ARC
  8
0
 62
4
 10
-7.44033486E+01
 20
-2.53791307E+01
 40
2.10000000E+00
 50
2.70000000E+02
 51
9.00000002E+01
  0
ARC
  8
0
 62
4
 10
-4.42033486E+01
 20
-2.53791307E+01
 40
2.10000000E+00
 50
9.00000002E+01
 51
2.70000000E+02
  0
LINE
  8
0
 62
4
 10
-3.93033486E+01
 20
-2.03791307E+01
 11
-7.93033486E+01
 21
-2.03791307E+01
  0
LINE
  8
0
 62
4
 10
4.14850511E+00
 20
-4.22763430E+01
 11
4.14850511E+00
 21
-4.37763430E+01
  0
LINE
  8
0
 62
4
 10
-3.85149489E+00
 20
-4.22763430E+01
 11
4.14850511E+00
 21
-4.22763430E+01
  0
LINE
  8
0
 62
4
 10
-3.85149489E+00
 20
-3.72763430E+01
 11
4.14850511E+00
 21
-3.72763430E+01
  0
LINE
  8
0
 62
4
 10
4.14850511E+00
 20
-3.57763430E+01
 11
4.14850511E+00
 21
-3.72763430E+01
  0
LINE
  8
0
  6
CENTER
 62
6
 10
8.14850511E+00
 20
-3.66976438E+01
 11
8.14850511E+00
 21
-4.30046291E+01
  0
LINE
  8
0
 62
4
 10
4.14850511E+00
 20
-4.37763430E+01
 11
9.14850511E+00
 21
-4.37763430E+01
  0
LINE
  8
0
 62
4
 10
4.14850511E+00
 20
-3.57763430E+01
 11
9.14850511E+00
 21
-3.57763430E+01
  0
CIRCLE
  8
0
 62
4
 10
8.14850511E+00
 20
-3.97763430E+01
 40
1.10000000E+00
  0
CIRCLE
  8
0
 62
4
 10
8.14850511E+00
 20
-3.97763430E+01
 40
1.59999943E+00
  0
LINE
  8
0
 62
4
 10
-8.85149489E+00
 20
-4.62763430E+01
 11
-3.85149489E+00
 21
-4.62763430E+01
  0
LINE
  8
0
 62
4
 10
-3.85149489E+00
 20
-3.35463430E+01
 11
-3.85149489E+00
 21
-4.62763430E+01
  0
LINE
  8
0
 62
4
 10
-8.85149489E+00
 20
-3.35463430E+01
 11
-8.85149489E+00
 21
-4.62763430E+01
  0
LINE
  8
0
 62
4
 10
-8.85149489E+00
 20
-3.54463430E+01
 11
-3.85149489E+00
 21
-3.54463430E+01
  0
LINE
  8
0
 62
4
 10
-8.85149489E+00
 20
-3.35463430E+01
 11
-3.85149489E+00
 21
-3.35463430E+01
  0
LINE
  8
0
 62
4
 10
-8.85149489E+00
 20
-3.39063430E+01
 11
-3.85149489E+00
 21
-3.39063430E+01
  0
LINE
  8
0
  6
CENTER
 62
6
 10
-1.08348043E+01
 20
-3.97763430E+01
 11
1.50060062E+01
 21
-3.97763430E+01
  0
ARC
  8
0
 62
4
 10
9.14850511E+00
 20
-3.97763430E+01
 40
4.00000000E+00
 50
2.70000000E+02
 51
9.00000002E+01
  0
LINE
  8
0
  6
CENTER
 62
6
 10
5.04319261E+01
 20
-3.37952536E+01
 11
5.04319261E+01
 21
-4.91872810E+01
  0
LINE
  8
0
  6
CENTER
 62
6
 10
4.08513313E+01
 20
-3.97763430E+01
 11
5.96514160E+01
 21
-3.97763430E+01
  0
LINE
  8
0
 62
4
 10
5.65319261E+01
 20
-4.37763430E+01
 11
5.69319261E+01
 21
-4.37763430E+01
  0
LINE
  8
0
 62
4
 10
4.35319261E+01
 20
-3.81763430E+01
 11
4.35319261E+01
 21
-4.13763430E+01
  0
LINE
  8
0
 62
4
 10
4.35319261E+01
 20
-3.81763430E+01
 11
4.30319261E+01
 21
-3.86763430E+01
  0
LINE
  8
0
 62
4
 10
4.30319261E+01
 20
-3.86763430E+01
 11
4.30319261E+01
 21
-4.08763430E+01
  0
LINE
  8
0
 62
4
 10
4.35319261E+01
 20
-4.13763430E+01
 11
4.30319261E+01
 21
-4.08763430E+01
  0
LINE
  8
0
 62
4
 10
4.35319261E+01
 20
-4.13763430E+01
 11
5.65319261E+01
 21
-4.13763430E+01
  0
LINE
  8
0
 62
4
 10
4.35319261E+01
 20
-3.81763430E+01
 11
5.65319261E+01
 21
-3.81763430E+01
  0
ARC
  8
0
 62
4
 10
5.04291911E+01
 20
-3.97763329E+01
 40
7.00087420E+00
 50
1.47744798E+02
 51
1.66788784E+02
  0
ARC
  8
0
 62
4
 10
5.04321814E+01
 20
-3.97712630E+01
 40
7.00469417E+00
 50
1.93246650E+02
 51
3.30552688E+02
  0
ARC
  8
0
 62
4
 10
5.04217279E+01
 20
-3.98122910E+01
 40
6.99693101E+00
 50
3.38502920E+02
 51
3.52080472E+02
  0
ARC
  8
0
 62
4
 10
5.04291931E+01
 20
-3.97813825E+01
 40
7.49903105E+00
 50
3.30128328E+02
 51
3.52375597E+02
  0
LINE
  8
0
 62
4
 10
5.69319261E+01
 20
-4.07763430E+01
 11
5.80319261E+01
 21
-4.07763430E+01
  0
LINE
  8
0
 62
4
 10
5.80319261E+01
 20
-3.87763430E+01
 11
5.80319261E+01
 21
-4.07763430E+01
  0
LINE
  8
0
 62
4
 10
5.69319261E+01
 20
-3.87763430E+01
 11
5.80319261E+01
 21
-3.87763430E+01
  0
ARC
  8
0
 62
4
 10
5.04322436E+01
 20
-3.97702681E+01
 40
7.49587013E+00
 50
7.61965181E+00
 51
2.98764230E+01
  0
LINE
  8
0
 62
4
 10
5.65319261E+01
 20
-3.57763430E+01
 11
5.69319261E+01
 21
-3.57763430E+01
  0
ARC
  8
0
 62
4
 10
5.72307823E+01
 20
-3.55630722E+01
 40
5.05997495E-01
 50
1.35170308E+02
 51
2.04928438E+02
  0
ARC
  8
0
 62
4
 10
5.72315200E+01
 20
-3.55600773E+01
 40
9.99382529E-01
 50
1.35237547E+02
 51
2.25570897E+02
  0
ARC
  8
0
 62
4
 10
5.04242336E+01
 20
-3.97397373E+01
 40
6.99435861E+00
 50
7.91701914E+00
 51
2.14995887E+01
  0
LINE
  8
0
 62
4
 10
5.69319261E+01
 20
-3.57763430E+01
 11
5.69319261E+01
 21
-4.37763430E+01
  0
LINE
  8
0
 62
4
 10
5.65219261E+01
 20
-3.48563430E+01
 11
5.78219261E+01
 21
-3.35463430E+01
  0
LINE
  8
0
 62
4
 10
5.78219261E+01
 20
-3.35463430E+01
 11
5.81719261E+01
 21
-3.39063430E+01
  0
LINE
  8
0
 62
4
 10
5.68719261E+01
 20
-3.52063430E+01
 11
5.81719261E+01
 21
-3.39063430E+01
  0
ARC
  8
0
 62
4
 10
5.04312190E+01
 20
-3.97704744E+01
 40
7.50010334E+00
 50
1.48272703E+02
 51
3.27716530E+02
  0
ARC
  8
0
 62
4
 10
4.36343531E+01
 20
-3.55655592E+01
 40
9.94784285E-01
 50
3.28431721E+02
 51
4.54741939E+01
  0
ARC
  8
0
 62
4
 10
4.36336227E+01
 20
-3.55596192E+01
 40
4.96104207E-01
 50
3.27477101E+02
 51
4.54060996E+01
  0
LINE
  8
0
 62
4
 10
4.30319261E+01
 20
-3.35463430E+01
 11
4.26819261E+01
 21
-3.39063430E+01
  0
LINE
  8
0
 62
4
 10
4.30319261E+01
 20
-3.35463430E+01
 11
4.43319261E+01
 21
-3.48563430E+01
  0
LINE
  8
0
 62
4
 10
4.26819261E+01
 20
-3.39063430E+01
 11
4.39819261E+01
 21
-3.52063430E+01
  0
LINE
  8
0
 62
4
 10
5.65319261E+01
 20
-3.57763430E+01
 11
5.65319261E+01
 21
-4.37763430E+01
  0
TEXT
  8
0
 10
4.04701729E+01
 20
9.09863316E+01
 40
3.20000005E+00
  1
STRETCH LINE A
 41
1.09375000E+00
  7
MONOTXT
  0
TEXT
  8
0
 10
-3.95298271E+01
 20
9.09863316E+01
 40
3.20000005E+00
  1
STRETCH LINE B
 41
1.09375000E+00
  7
MONOTXT
  0
TEXT
  8
0
 62
7
 10
-1.85214688E+02
 20
1.05350006E+02
 40
4.50000000E+00
  1
MODEL:PBDATS10*ST1(20)*ST2(20)-7-ZC230
 41
1.00000000E+00
  7
MONOTXT
  0
TEXT
  8
0
 62
7
 10
1.34942863E+02
 20
1.22850006E+02
 40
4.50000000E+00
  1
Ver. 1.1
 41
1.08108085E+00
  7
MONOTXT
  0
TEXT
  8
0
 62
7
 10
-1.87107344E+02
 20
1.22850006E+02
 40
4.50000000E+00
  1
NEW PEN CYLINDER
 41
1.08108108E+00
  7
MONOTXT
  0
TEXT
  8
0
 62
7
 10
5.35570026E+01
 20
-6.88802818E+01
 40
3.20000005E+00
  1
STRETCH LIST(ST1)
 41
1.03658537E+00
  7
MONOTXT
  0
TEXT
  8
0
 62
7
 10
1.53453808E+02
 20
-6.88802818E+01
 40
3.20000005E+00
  1
(mm)
 41
1.00000000E+00
  7
MONOTXT
  0
TEXT
  8
0
 62
7
 10
2.55500030E+01
 20
-1.15100000E+02
 40
3.20000005E+00
  1
0
 41
1.00000000E+00
  7
MONOTXT
  0
LINE
  8
0
 62
7
 10
1.04800003E+02
 20
-1.04500000E+02
 11
1.04800003E+02
 21
-1.28500000E+02
  0
LINE
  8
0
 62
7
 10
9.28000031E+01
 20
-1.04500000E+02
 11
9.28000031E+01
 21
-1.28500000E+02
  0
LINE
  8
0
 62
7
 10
8.08000031E+01
 20
-1.04500000E+02
 11
8.08000031E+01
 21
-1.28500000E+02
  0
TEXT
  8
0
 62
7
 10
9.60625279E+01
 20
-1.27100000E+02
 40
3.20000005E+00
  1
10
 41
1.00000000E+00
  7
MONOTXT
  0
TEXT
  8
0
 62
7
 10
9.60625279E+01
 20
-1.15096377E+02
 40
3.20000005E+00
  1
30
 41
1.00000000E+00
  7
MONOTXT
  0
TEXT
  8
0
 62
7
 10
8.56625279E+01
 20
-1.27100000E+02
 40
3.20000005E+00
  1
5
 41
1.00000000E+00
  7
MONOTXT
  0
TEXT
  8
0
 62
7
 10
8.40625279E+01
 20
-1.15096377E+02
 40
3.20000005E+00
  1
25
 41
1.00000000E+00
  7
MONOTXT
  0
TEXT
  8
0
 62
7
 10
7.16252795E+00
 20
-1.27100000E+02
 40
3.20000005E+00
  1
B
 41
1.00000000E+00
  7
MONOTXT
  0
TEXT
  8
0
 62
7
 10
-3.04100308E+00
 20
-1.16676375E+02
 40
3.20000005E+00
  1
STRETCH
 41
1.00000000E+00
  7
MONOTXT
  0
TEXT
  8
0
 62
7
 10
-3.04100308E+00
 20
-1.21476375E+02
 40
3.20000005E+00
  1
  PLACE
 41
1.20689655E+00
  7
MONOTXT
  0
TEXT
  8
0
 62
7
 10
3.44625279E+01
 20
-1.27100000E+02
 40
3.20000005E+00
  1
-15
 41
1.00000000E+00
  7
MONOTXT
  0
TEXT
  8
0
 62
7
 10
4.64625279E+01
 20
-1.27100000E+02
 40
3.20000005E+00
  1
-10
 41
1.00000000E+00
  7
MONOTXT
  0
TEXT
  8
0
 62
7
 10
6.00625279E+01
 20
-1.27100000E+02
 40
3.20000005E+00
  1
-5
 41
1.00000000E+00
  7
MONOTXT
  0
TEXT
  8
0
 62
7
 10
7.36625279E+01
 20
-1.27100000E+02
 40
3.20000005E+00
  1
0
 41
1.00000000E+00
  7
MONOTXT
  0
TEXT
  8
0
 62
7
 10
3.76625279E+01
 20
-1.15096377E+02
 40
3.20000005E+00
  1
5
 41
1.00000000E+00
  7
MONOTXT
  0
TEXT
  8
0
 62
7
 10
4.80625279E+01
 20
-1.15096377E+02
 40
3.20000005E+00
  1
10
 41
1.00000000E+00
  7
MONOTXT
  0
TEXT
  8
0
 62
7
 10
6.00625279E+01
 20
-1.15096377E+02
 40
3.20000005E+00
  1
15
 41
1.00000000E+00
  7
MONOTXT
  0
TEXT
  8
0
 62
7
 10
7.20625279E+01
 20
-1.15096377E+02
 40
3.20000005E+00
  1
20
 41
1.00000000E+00
  7
MONOTXT
  0
TEXT
  8
0
 62
7
 10
1.62527831E-01
 20
-1.09096381E+02
 40
3.20000005E+00
  1
STROKE
 41
1.00000000E+00
  7
MONOTXT
  0
LINE
  8
0
 62
7
 10
-4.19999695E+00
 20
-1.04500000E+02
 11
-4.19999695E+00
 21
-1.28500000E+02
  0
LINE
  8
0
 62
7
 10
-4.19999695E+00
 20
-1.10500000E+02
 11
1.86900031E+01
 21
-1.10500000E+02
  0
LINE
  8
0
 62
7
 10
2.08000031E+01
 20
-1.22500000E+02
 11
1.86900031E+01
 21
-1.10500000E+02
  0
LINE
  8
0
 62
7
 10
-4.19999695E+00
 20
-1.22500000E+02
 11
1.04800003E+02
 21
-1.22500000E+02
  0
LINE
  8
0
 62
7
 10
-4.19999695E+00
 20
-1.04500000E+02
 11
1.04800003E+02
 21
-1.04500000E+02
  0
LINE
  8
0
 62
7
 10
6.88000031E+01
 20
-1.04500000E+02
 11
6.88000031E+01
 21
-1.28500000E+02
  0
LINE
  8
0
 62
7
 10
5.68000031E+01
 20
-1.04500000E+02
 11
5.68000031E+01
 21
-1.28500000E+02
  0
LINE
  8
0
 62
7
 10
4.48000031E+01
 20
-1.04500000E+02
 11
4.48000031E+01
 21
-1.28500000E+02
  0
LINE
  8
0
 62
7
 10
3.28000031E+01
 20
-1.04500000E+02
 11
3.28000031E+01
 21
-1.28500000E+02
  0
LINE
  8
0
 62
7
 10
2.08000031E+01
 20
-1.04500000E+02
 11
2.08000031E+01
 21
-1.28500000E+02
  0
LINE
  8
0
 62
7
 10
-4.19999695E+00
 20
-1.28500000E+02
 11
1.04800003E+02
 21
-1.28500000E+02
  0
TEXT
  8
0
 62
7
 10
9.34538078E+01
 20
-1.02880282E+02
 40
3.20000005E+00
  1
(mm)
 41
1.00000000E+00
  7
MONOTXT
  0
TEXT
  8
0
 62
7
 10
2.35570026E+01
 20
-1.02880282E+02
 40
3.20000005E+00
  1
STRETCH LIST(ST2)
 41
1.03658537E+00
  7
MONOTXT
  0
LINE
  8
0
 62
7
 10
-4.19999695E+00
 20
-9.45000000E+01
 11
1.64800003E+02
 21
-9.45000000E+01
  0
LINE
  8
0
 62
7
 10
2.08000031E+01
 20
-7.05000000E+01
 11
2.08000031E+01
 21
-9.45000000E+01
  0
LINE
  8
0
 62
7
 10
3.28000031E+01
 20
-7.05000000E+01
 11
3.28000031E+01
 21
-9.45000000E+01
  0
LINE
  8
0
 62
7
 10
4.48000031E+01
 20
-7.05000000E+01
 11
4.48000031E+01
 21
-9.45000000E+01
  0
LINE
  8
0
 62
7
 10
5.68000031E+01
 20
-7.05000000E+01
 11
5.68000031E+01
 21
-9.45000000E+01
  0
LINE
  8
0
 62
7
 10
6.88000031E+01
 20
-7.05000000E+01
 11
6.88000031E+01
 21
-9.45000000E+01
  0
LINE
  8
0
 62
7
 10
-4.19999695E+00
 20
-7.05000000E+01
 11
1.64800003E+02
 21
-7.05000000E+01
  0
LINE
  8
0
 62
7
 10
-4.19999695E+00
 20
-8.85000000E+01
 11
1.64800003E+02
 21
-8.85000000E+01
  0
LINE
  8
0
 62
7
 10
2.08000031E+01
 20
-8.85000000E+01
 11
1.86900031E+01
 21
-7.65000000E+01
  0
LINE
  8
0
 62
7
 10
-4.19999695E+00
 20
-7.65000000E+01
 11
1.86900031E+01
 21
-7.65000000E+01
  0
LINE
  8
0
 62
7
 10
-4.19999695E+00
 20
-7.05000000E+01
 11
-4.19999695E+00
 21
-9.45000000E+01
  0
TEXT
  8
0
 62
7
 10
1.62527831E-01
 20
-7.50963812E+01
 40
3.20000005E+00
  1
STROKE
 41
1.00000000E+00
  7
MONOTXT
  0
TEXT
  8
0
 62
7
 10
6.00625279E+01
 20
-8.10963774E+01
 40
3.20000005E+00
  1
20
 41
1.00000000E+00
  7
MONOTXT
  0
TEXT
  8
0
 62
7
 10
4.80625279E+01
 20
-8.10963774E+01
 40
3.20000005E+00
  1
15
 41
1.00000000E+00
  7
MONOTXT
  0
TEXT
  8
0
 62
7
 10
3.60625279E+01
 20
-8.10963774E+01
 40
3.20000005E+00
  1
10
 41
1.00000000E+00
  7
MONOTXT
  0
TEXT
  8
0
 62
7
 10
2.56625279E+01
 20
-8.10963774E+01
 40
3.20000005E+00
  1
5
 41
1.00000000E+00
  7
MONOTXT
  0
TEXT
  8
0
 62
7
 10
6.16625279E+01
 20
-9.31000000E+01
 40
3.20000005E+00
  1
0
 41
1.00000000E+00
  7
MONOTXT
  0
TEXT
  8
0
 62
7
 10
4.80625279E+01
 20
-9.31000000E+01
 40
3.20000005E+00
  1
-5
 41
1.00000000E+00
  7
MONOTXT
  0
TEXT
  8
0
 62
7
 10
3.44625279E+01
 20
-9.31000000E+01
 40
3.20000005E+00
  1
-10
 41
1.00000000E+00
  7
MONOTXT
  0
TEXT
  8
0
 62
7
 10
2.24625279E+01
 20
-9.31000000E+01
 40
3.20000005E+00
  1
-15
 41
1.00000000E+00
  7
MONOTXT
  0
TEXT
  8
0
 62
7
 10
-3.04100308E+00
 20
-8.26763750E+01
 40
3.20000005E+00
  1
STRETCH
 41
1.00000000E+00
  7
MONOTXT
  0
TEXT
  8
0
 62
7
 10
-3.04100308E+00
 20
-8.74763751E+01
 40
3.20000005E+00
  1
  PLACE
 41
1.20689655E+00
  7
MONOTXT
  0
TEXT
  8
0
 62
7
 10
7.16252795E+00
 20
-9.31000000E+01
 40
3.20000005E+00
  1
A
 41
1.00000000E+00
  7
MONOTXT
  0
TEXT
  8
0
 62
7
 10
7.20625279E+01
 20
-8.10963774E+01
 40
3.20000005E+00
  1
25
 41
1.00000000E+00
  7
MONOTXT
  0
TEXT
  8
0
 62
7
 10
7.36625279E+01
 20
-9.31000000E+01
 40
3.20000005E+00
  1
5
 41
1.00000000E+00
  7
MONOTXT
  0
TEXT
  8
0
 62
7
 10
8.40625279E+01
 20
-8.10963774E+01
 40
3.20000005E+00
  1
30
 41
1.00000000E+00
  7
MONOTXT
  0
TEXT
  8
0
 62
7
 10
8.40625279E+01
 20
-9.31000000E+01
 40
3.20000005E+00
  1
10
 41
1.00000000E+00
  7
MONOTXT
  0
TEXT
  8
0
 62
7
 10
9.60625279E+01
 20
-8.10963774E+01
 40
3.20000005E+00
  1
35
 41
1.00000000E+00
  7
MONOTXT
  0
TEXT
  8
0
 62
7
 10
9.60625279E+01
 20
-9.31000000E+01
 40
3.20000005E+00
  1
15
 41
1.00000000E+00
  7
MONOTXT
  0
TEXT
  8
0
 62
7
 10
1.08062528E+02
 20
-8.10963774E+01
 40
3.20000005E+00
  1
40
 41
1.00000000E+00
  7
MONOTXT
  0
TEXT
  8
0
 62
7
 10
1.08062528E+02
 20
-9.31000000E+01
 40
3.20000005E+00
  1
20
 41
1.00000000E+00
  7
MONOTXT
  0
TEXT
  8
0
 62
7
 10
1.20062528E+02
 20
-8.10963774E+01
 40
3.20000005E+00
  1
45
 41
1.00000000E+00
  7
MONOTXT
  0
TEXT
  8
0
 62
7
 10
1.20062528E+02
 20
-9.31000000E+01
 40
3.20000005E+00
  1
25
 41
1.00000000E+00
  7
MONOTXT
  0
TEXT
  8
0
 62
7
 10
1.32062528E+02
 20
-8.10963774E+01
 40
3.20000005E+00
  1
50
 41
1.00000000E+00
  7
MONOTXT
  0
TEXT
  8
0
 62
7
 10
1.32062528E+02
 20
-9.31000000E+01
 40
3.20000005E+00
  1
30
 41
1.00000000E+00
  7
MONOTXT
  0
TEXT
  8
0
 62
7
 10
1.44062528E+02
 20
-8.10963774E+01
 40
3.20000005E+00
  1
55
 41
1.00000000E+00
  7
MONOTXT
  0
TEXT
  8
0
 62
7
 10
1.44062528E+02
 20
-9.31000000E+01
 40
3.20000005E+00
  1
35
 41
1.00000000E+00
  7
MONOTXT
  0
TEXT
  8
0
 62
7
 10
1.56062528E+02
 20
-8.10963774E+01
 40
3.20000005E+00
  1
60
 41
1.00000000E+00
  7
MONOTXT
  0
TEXT
  8
0
 62
7
 10
1.56062528E+02
 20
-9.31000000E+01
 40
3.20000005E+00
  1
40
 41
1.00000000E+00
  7
MONOTXT
  0
LINE
  8
0
 62
7
 10
8.08000031E+01
 20
-7.05000000E+01
 11
8.08000031E+01
 21
-9.45000000E+01
  0
LINE
  8
0
 62
7
 10
9.28000031E+01
 20
-7.05000000E+01
 11
9.28000031E+01
 21
-9.45000000E+01
  0
LINE
  8
0
 62
7
 10
1.04800003E+02
 20
-7.05000000E+01
 11
1.04800003E+02
 21
-9.45000000E+01
  0
LINE
  8
0
 62
7
 10
1.16800003E+02
 20
-7.05000000E+01
 11
1.16800003E+02
 21
-9.45000000E+01
  0
LINE
  8
0
 62
7
 10
1.28800003E+02
 20
-7.05000000E+01
 11
1.28800003E+02
 21
-9.45000000E+01
  0
LINE
  8
0
 62
7
 10
1.40800003E+02
 20
-7.05000000E+01
 11
1.40800003E+02
 21
-9.45000000E+01
  0
LINE
  8
0
 62
7
 10
1.52800003E+02
 20
-7.05000000E+01
 11
1.52800003E+02
 21
-9.45000000E+01
  0
LINE
  8
0
 62
7
 10
1.64800003E+02
 20
-7.05000000E+01
 11
1.64800003E+02
 21
-9.45000000E+01
  0
TEXT
  8
0
 62
7
 10
2.23500030E+01
 20
-1.27100000E+02
 40
3.20000005E+00
  1
-20
 41
1.00000000E+00
  7
MONOTXT
  0
LINE
  8
0
 62
7
 10
1.09800003E+02
 20
-1.18500000E+02
 11
1.09800003E+02
 21
-1.33500000E+02
  0
LINE
  8
0
 62
7
 10
1.09800003E+02
 20
-1.18500000E+02
 11
1.94800003E+02
 21
-1.18500000E+02
  0
LINE
  8
0
 62
7
 10
1.09800003E+02
 20
1.32600006E+02
 11
1.09800003E+02
 21
1.17600006E+02
  0
LINE
  8
0
 62
7
 10
1.09800003E+02
 20
1.17600006E+02
 11
1.94800003E+02
 21
1.17600006E+02
  0
LINE
  8
0
 62
7
 10
-1.94250000E+02
 20
1.17600006E+02
 11
-1.09250000E+02
 21
1.17600006E+02
  0
LINE
  8
0
 62
7
 10
-1.09250000E+02
 20
1.32600006E+02
 11
-1.09250000E+02
 21
1.17600006E+02
  0
TEXT
  8
0
 62
7
 10
1.15249721E+02
 20
-1.29150000E+02
 40
6.30000019E+00
  1
KOGANEI CORP.
 41
1.04838710E+00
  7
MONOTXT
  0
LINE
  8
0
 62
7
 10
-1.94250000E+02
 20
1.32600006E+02
 11
1.94800003E+02
 21
1.32600006E+02
  0
LINE
  8
0
 62
7
 10
1.94800003E+02
 20
1.32600006E+02
 11
1.94800003E+02
 21
-1.33500000E+02
  0
LINE
  8
0
 62
7
 10
-1.94250000E+02
 20
1.32600006E+02
 11
-1.94250000E+02
 21
-1.33500000E+02
  0
LINE
  8
0
 62
7
 10
-1.94250000E+02
 20
-1.33500000E+02
 11
1.94800003E+02
 21
-1.33500000E+02
  0
ENDSEC
  0
EOF
