  0
SECTION
  2
HEADER
  9
$ACADVER
  1
AC1003
  9
$EXTMIN
 10
-1.94250000E+02
 20
-1.33500000E+02
  9
$EXTMAX
 10
1.94800003E+02
 20
1.32600006E+02
  9
$LIMMIN
 10
-1.94251000E+02
 20
-1.33501000E+02
  9
$LIMMAX
 10
1.94801003E+02
 20
1.32601006E+02
  9
$SNAPUNIT
 10
1
 20
1
  9
$SNAPBASE
 10
0
 20
0
  9
$GRIDMODE
 70
0
  9
$GRIDUNIT
 10
0
 20
0
  9
$LTSCALE
 40
6.48416672E+00
  9
$TEXTSIZE
 40
3.2
  9
$DIMTAD
 70
0
  9
$LUNITS
 70
2
  9
$LUPREC
 70
4
  9
$FILLETRAD
 40
0
  9
$AUNITS
 70
0
  9
$AUPREC
 70
0
  0
ENDSEC
  0
SECTION
  2
TABLES
  0
TABLE
  2
LTYPE
 70
2
  0
LTYPE
  2
CONTINUOUS
 70
64
  3
Solid-Line
 72
65
 73
0
 40
0
  0
LTYPE
  2
DASHED
 70
64
  3
DASHED
 72
65
 73
2
 40
.75
 49
.5
 49
-.25
  0
LTYPE
  2
HIDDEN
 70
64
  3
HIDDEN
 72
65
 73
2
 40
.375
 49
.25
 49
-.125
  0
LTYPE
  2
CENTER
 70
64
  3
CENTER
 72
65
 73
4
 40
2
 49
1.25
 49
-.25
 49
.25
 49
-.25
  0
LTYPE
  2
PHANTOM
 70
64
  3
PHANTOM
 72
65
 73
6
 40
2.5
 49
1.25
 49
-.25
 49
.25
 49
-.25
 49
.25
 49
-.25
  0
ENDTAB
  0
TABLE
  2
LAYER
 70
1
  0
LAYER
  2
1
 70
0
 62
7
  6
CONTINUOUS
 0
ENDTAB
  0
TABLE
  2
STYLE
 70
2
  0
STYLE
  2
MONOTXT
 70
0
 40
0
 41
1
 50
0
 71
0
 42
.2
  3
monotxt
  0
STYLE
  2
BIGFONT
 70
0
 40
0
 41
1
 50
0
 71
0
 42
.2
  3
txt
  4
bigfont
  0
ENDTAB
  0
ENDSEC
  0
SECTION
  2
ENTITIES
  0
LINE
  8
0
  6
CENTER
 62
2
 10
-8.86684169E+01
 20
4.66842853E+01
 11
8.61954151E+01
 21
4.66842853E+01
  0
LINE
  8
0
  6
CENTER
 62
6
 10
-3.21103911E+01
 20
6.99942853E+01
 11
-3.21103911E+01
 21
3.69496262E+01
  0
LINE
  8
0
 62
4
 10
-3.66103911E+01
 20
5.78842853E+01
 11
-3.66103911E+01
 21
6.46842853E+01
  0
LINE
  8
0
 62
4
 10
-2.76103911E+01
 20
5.78842853E+01
 11
-2.76103911E+01
 21
6.46842853E+01
  0
LINE
  8
0
  6
CENTER
 62
6
 10
4.78796089E+01
 20
6.99942853E+01
 11
4.78796089E+01
 21
3.69496262E+01
  0
LINE
  8
0
 62
4
 10
4.33796089E+01
 20
5.78842853E+01
 11
4.33796089E+01
 21
6.46842853E+01
  0
LINE
  8
0
 62
4
 10
5.23796089E+01
 20
5.78842853E+01
 11
5.23796089E+01
 21
6.46842853E+01
  0
LINE
  8
0
  6
CENTER
 62
6
 10
7.87960890E+00
 20
6.99942853E+01
 11
7.87960890E+00
 21
3.69496262E+01
  0
LINE
  8
0
 62
4
 10
3.37960890E+00
 20
5.78842853E+01
 11
3.37960890E+00
 21
6.46842853E+01
  0
LINE
  8
0
 62
4
 10
1.23796089E+01
 20
5.78842853E+01
 11
1.23796089E+01
 21
6.46842853E+01
  0
LINE
  8
0
  6
PHANTOM
 10
-8.21174751E+00
 20
3.34264889E+01
 11
-8.21174751E+00
 21
6.72521342E+01
  0
LINE
  8
0
  6
PHANTOM
 10
7.07882525E+01
 20
3.34264889E+01
 11
7.07882525E+01
 21
6.72521342E+01
  0
TEXT
  8
0
 62
7
 10
-2.54463286E+01
 20
3.92843007E+01
 40
1.50000000E+00
  1
PBDATS16
 41
1.00000000E+00
  7
MONOTXT
  0
LINE
  8
0
 62
7
 10
1.23796089E+01
 20
3.81842853E+01
 11
4.33796089E+01
 21
3.81842853E+01
  0
LINE
  8
0
 62
7
 10
1.48796089E+01
 20
5.51842853E+01
 11
4.08796089E+01
 21
5.51842853E+01
  0
LINE
  8
0
 62
4
 10
-1.96103911E+01
 20
5.99842853E+01
 11
-1.96103911E+01
 21
5.59842853E+01
  0
LINE
  8
0
 62
4
 10
-3.62039110E+00
 20
5.99842853E+01
 11
-3.62039110E+00
 21
5.59842853E+01
  0
LINE
  8
0
 62
7
 10
5.23796089E+01
 20
3.81842853E+01
 11
7.83796089E+01
 21
3.81842853E+01
  0
LINE
  8
0
 62
7
 10
5.48796089E+01
 20
5.51842853E+01
 11
7.83796089E+01
 21
5.51842853E+01
  0
LINE
  8
0
 62
7
 10
-2.76103911E+01
 20
3.81842853E+01
 11
3.37960890E+00
 21
3.81842853E+01
  0
LINE
  8
0
 62
7
 10
-2.51103911E+01
 20
5.51842853E+01
 11
8.79608901E-01
 21
5.51842853E+01
  0
LINE
  8
0
 62
4
 10
1.48796089E+01
 20
5.99842853E+01
 11
2.03796089E+01
 21
5.99842853E+01
  0
LINE
  8
0
 62
4
 10
1.48796089E+01
 20
5.59842853E+01
 11
2.03796089E+01
 21
5.59842853E+01
  0
LINE
  8
0
 62
4
 10
8.79608901E-01
 20
5.77842853E+01
 11
8.79608901E-01
 21
5.47161675E+01
  0
LINE
  8
0
 62
4
 10
1.48796089E+01
 20
5.77842853E+01
 11
1.48796089E+01
 21
5.47161675E+01
  0
LINE
  8
0
 62
4
 10
3.37960890E+00
 20
5.81842853E+01
 11
1.23796089E+01
 21
5.81842853E+01
  0
LINE
  8
0
 62
4
 10
8.79608922E-01
 20
5.47161675E+01
 11
3.37960892E+00
 21
5.47161675E+01
  0
LINE
  8
0
 62
4
 10
1.48796089E+01
 20
5.47161675E+01
 11
1.23796089E+01
 21
5.47161675E+01
  0
LINE
  8
0
 62
4
 10
1.23796089E+01
 20
5.77842853E+01
 11
1.48796089E+01
 21
5.77842853E+01
  0
LINE
  8
0
 62
4
 10
1.23796089E+01
 20
5.81842853E+01
 11
1.48796089E+01
 21
5.81842853E+01
  0
LINE
  8
0
 62
4
 10
1.23796089E+01
 20
6.09842853E+01
 11
1.48796089E+01
 21
6.09842853E+01
  0
LINE
  8
0
 62
4
 10
8.79608891E-01
 20
5.77842853E+01
 11
3.37960890E+00
 21
5.77842853E+01
  0
LINE
  8
0
 62
4
 10
8.79608891E-01
 20
5.81842853E+01
 11
3.37960890E+00
 21
5.81842853E+01
  0
LINE
  8
0
 62
4
 10
8.79608891E-01
 20
6.09842853E+01
 11
3.37960890E+00
 21
6.09842853E+01
  0
LINE
  8
0
 62
4
 10
3.37960889E+00
 20
3.80343007E+01
 11
1.23796089E+01
 21
3.80343007E+01
  0
LINE
  8
0
 62
4
 10
1.48796089E+01
 20
6.09842853E+01
 11
1.48796089E+01
 21
5.81842853E+01
  0
LINE
  8
0
 62
4
 10
8.79608901E-01
 20
6.09842853E+01
 11
8.79608901E-01
 21
5.81842853E+01
  0
LINE
  8
0
 62
4
 10
-4.62039110E+00
 20
5.89842853E+01
 11
-3.62039110E+00
 21
5.99842853E+01
  0
LINE
  8
0
 62
4
 10
-4.62039110E+00
 20
5.89842853E+01
 11
-4.62039110E+00
 21
5.69842853E+01
  0
LINE
  8
0
 62
4
 10
-3.62039110E+00
 20
5.59842853E+01
 11
8.79608901E-01
 21
5.59842853E+01
  0
LINE
  8
0
 62
4
 10
-3.62039110E+00
 20
5.99842853E+01
 11
8.79608901E-01
 21
5.99842853E+01
  0
LINE
  8
0
 62
4
 10
-4.62039110E+00
 20
5.69842853E+01
 11
-3.62039110E+00
 21
5.59842853E+01
  0
LINE
  8
0
 62
4
 10
1.23796089E+01
 20
5.78842853E+01
 11
1.23796089E+01
 21
3.80343007E+01
  0
LINE
  8
0
 62
4
 10
3.37960890E+00
 20
5.78842853E+01
 11
3.37960890E+00
 21
3.80343007E+01
  0
LINE
  8
0
 62
4
 10
2.03796089E+01
 20
5.99842853E+01
 11
2.33796089E+01
 21
5.92842853E+01
  0
LINE
  8
0
 62
4
 10
2.03796089E+01
 20
5.59842853E+01
 11
2.33796089E+01
 21
5.66842853E+01
  0
LINE
  8
0
 62
4
 10
2.03796089E+01
 20
5.99842853E+01
 11
2.03796089E+01
 21
5.59842853E+01
  0
LINE
  8
0
 62
6
 10
2.83166080E+01
 20
5.92842853E+01
 11
2.57166080E+01
 21
5.66842853E+01
  0
LINE
  8
0
 62
4
 10
2.33796089E+01
 20
5.66842853E+01
 11
2.57166080E+01
 21
5.66842853E+01
  0
LINE
  8
0
 62
4
 10
2.33796089E+01
 20
5.92842853E+01
 11
2.33796089E+01
 21
5.66842853E+01
  0
LINE
  8
0
 62
4
 10
2.33796089E+01
 20
5.92842853E+01
 11
2.83166080E+01
 21
5.92842853E+01
  0
LINE
  8
0
 62
4
 10
5.48796089E+01
 20
5.99842853E+01
 11
6.03796089E+01
 21
5.99842853E+01
  0
LINE
  8
0
 62
4
 10
5.48796089E+01
 20
5.59842853E+01
 11
6.03796089E+01
 21
5.59842853E+01
  0
LINE
  8
0
 62
4
 10
4.08796089E+01
 20
5.77842853E+01
 11
4.08796089E+01
 21
5.47161675E+01
  0
LINE
  8
0
 62
4
 10
5.48796089E+01
 20
5.77842853E+01
 11
5.48796089E+01
 21
5.47161675E+01
  0
LINE
  8
0
 62
4
 10
4.33796089E+01
 20
5.81842853E+01
 11
5.23796089E+01
 21
5.81842853E+01
  0
LINE
  8
0
 62
4
 10
4.08796089E+01
 20
5.47161675E+01
 11
4.33796089E+01
 21
5.47161675E+01
  0
LINE
  8
0
 62
4
 10
5.48796089E+01
 20
5.47161675E+01
 11
5.23796089E+01
 21
5.47161675E+01
  0
LINE
  8
0
 62
4
 10
5.23796089E+01
 20
5.77842853E+01
 11
5.48796089E+01
 21
5.77842853E+01
  0
LINE
  8
0
 62
4
 10
5.23796089E+01
 20
5.81842853E+01
 11
5.48796089E+01
 21
5.81842853E+01
  0
LINE
  8
0
 62
4
 10
5.23796089E+01
 20
6.09842853E+01
 11
5.48796089E+01
 21
6.09842853E+01
  0
LINE
  8
0
 62
4
 10
4.08796089E+01
 20
5.77842853E+01
 11
4.33796089E+01
 21
5.77842853E+01
  0
LINE
  8
0
 62
4
 10
4.08796089E+01
 20
5.81842853E+01
 11
4.33796089E+01
 21
5.81842853E+01
  0
LINE
  8
0
 62
4
 10
4.08796089E+01
 20
6.09842853E+01
 11
4.33796089E+01
 21
6.09842853E+01
  0
LINE
  8
0
 62
4
 10
4.33796089E+01
 20
3.80343007E+01
 11
5.23796089E+01
 21
3.80343007E+01
  0
LINE
  8
0
 62
4
 10
5.48796089E+01
 20
6.09842853E+01
 11
5.48796089E+01
 21
5.81842853E+01
  0
LINE
  8
0
 62
4
 10
4.08796089E+01
 20
6.09842853E+01
 11
4.08796089E+01
 21
5.81842853E+01
  0
LINE
  8
0
 62
4
 10
3.53796089E+01
 20
5.89842853E+01
 11
3.63796089E+01
 21
5.99842853E+01
  0
LINE
  8
0
 62
4
 10
3.53796089E+01
 20
5.89842853E+01
 11
3.53796089E+01
 21
5.69842853E+01
  0
LINE
  8
0
 62
4
 10
3.63796089E+01
 20
5.59842853E+01
 11
4.08796089E+01
 21
5.59842853E+01
  0
LINE
  8
0
 62
4
 10
3.63796089E+01
 20
5.99842853E+01
 11
4.08796089E+01
 21
5.99842853E+01
  0
LINE
  8
0
 62
4
 10
3.53796089E+01
 20
5.69842853E+01
 11
3.63796089E+01
 21
5.59842853E+01
  0
LINE
  8
0
 62
4
 10
3.63796089E+01
 20
5.99842853E+01
 11
3.63796089E+01
 21
5.59842853E+01
  0
LINE
  8
0
 62
4
 10
5.23796089E+01
 20
5.78842853E+01
 11
5.23796089E+01
 21
3.80343007E+01
  0
LINE
  8
0
 62
4
 10
4.33796089E+01
 20
5.78842853E+01
 11
4.33796089E+01
 21
3.80343007E+01
  0
LINE
  8
0
 62
4
 10
6.03796089E+01
 20
5.99842853E+01
 11
6.33796089E+01
 21
5.92842853E+01
  0
LINE
  8
0
 62
4
 10
6.03796089E+01
 20
5.59842853E+01
 11
6.33796089E+01
 21
5.66842853E+01
  0
LINE
  8
0
 62
4
 10
6.03796089E+01
 20
5.99842853E+01
 11
6.03796089E+01
 21
5.59842853E+01
  0
LINE
  8
0
 62
6
 10
6.83166080E+01
 20
5.92842853E+01
 11
6.57166080E+01
 21
5.66842853E+01
  0
LINE
  8
0
 62
4
 10
6.33796089E+01
 20
5.66842853E+01
 11
6.57166080E+01
 21
5.66842853E+01
  0
LINE
  8
0
 62
4
 10
6.33796089E+01
 20
5.92842853E+01
 11
6.33796089E+01
 21
5.66842853E+01
  0
LINE
  8
0
 62
4
 10
6.33796089E+01
 20
5.92842853E+01
 11
6.83166080E+01
 21
5.92842853E+01
  0
LINE
  8
0
 62
4
 10
-2.51103911E+01
 20
5.99842853E+01
 11
-1.96103911E+01
 21
5.99842853E+01
  0
LINE
  8
0
 62
4
 10
-2.51103911E+01
 20
5.59842853E+01
 11
-1.96103911E+01
 21
5.59842853E+01
  0
LINE
  8
0
 62
4
 10
-3.91103911E+01
 20
5.77842853E+01
 11
-3.91103911E+01
 21
5.47161675E+01
  0
LINE
  8
0
 62
4
 10
-2.51103911E+01
 20
5.77842853E+01
 11
-2.51103911E+01
 21
5.47161675E+01
  0
LINE
  8
0
 62
4
 10
-3.66103911E+01
 20
5.81842853E+01
 11
-2.76103911E+01
 21
5.81842853E+01
  0
LINE
  8
0
 62
4
 10
-3.91103911E+01
 20
5.47161675E+01
 11
-3.66103911E+01
 21
5.47161675E+01
  0
LINE
  8
0
 62
4
 10
-2.51103911E+01
 20
5.47161675E+01
 11
-2.76103911E+01
 21
5.47161675E+01
  0
LINE
  8
0
 62
4
 10
-2.76103911E+01
 20
5.77842853E+01
 11
-2.51103911E+01
 21
5.77842853E+01
  0
LINE
  8
0
 62
4
 10
-2.76103911E+01
 20
5.81842853E+01
 11
-2.51103911E+01
 21
5.81842853E+01
  0
LINE
  8
0
 62
4
 10
-2.76103911E+01
 20
6.09842853E+01
 11
-2.51103911E+01
 21
6.09842853E+01
  0
LINE
  8
0
 62
4
 10
-3.91103911E+01
 20
5.77842853E+01
 11
-3.66103911E+01
 21
5.77842853E+01
  0
LINE
  8
0
 62
4
 10
-3.91103911E+01
 20
5.81842853E+01
 11
-3.66103911E+01
 21
5.81842853E+01
  0
LINE
  8
0
 62
4
 10
-3.91103911E+01
 20
6.09842853E+01
 11
-3.66103911E+01
 21
6.09842853E+01
  0
LINE
  8
0
 62
4
 10
-3.66103911E+01
 20
3.80343007E+01
 11
-2.76103911E+01
 21
3.80343007E+01
  0
LINE
  8
0
 62
4
 10
-2.51103911E+01
 20
6.09842853E+01
 11
-2.51103911E+01
 21
5.81842853E+01
  0
LINE
  8
0
 62
4
 10
-3.91103911E+01
 20
6.09842853E+01
 11
-3.91103911E+01
 21
5.81842853E+01
  0
LINE
  8
0
 62
4
 10
-4.46103911E+01
 20
5.89842853E+01
 11
-4.36103911E+01
 21
5.99842853E+01
  0
LINE
  8
0
 62
4
 10
-4.46103911E+01
 20
5.89842853E+01
 11
-4.46103911E+01
 21
5.69842853E+01
  0
LINE
  8
0
 62
4
 10
-4.36103911E+01
 20
5.59842853E+01
 11
-3.91103911E+01
 21
5.59842853E+01
  0
LINE
  8
0
 62
4
 10
-4.36103911E+01
 20
5.99842853E+01
 11
-3.91103911E+01
 21
5.99842853E+01
  0
LINE
  8
0
 62
4
 10
-4.46103911E+01
 20
5.69842853E+01
 11
-4.36103911E+01
 21
5.59842853E+01
  0
LINE
  8
0
 62
4
 10
-4.36103911E+01
 20
5.99842853E+01
 11
-4.36103911E+01
 21
5.59842853E+01
  0
LINE
  8
0
 62
4
 10
-2.76103911E+01
 20
5.78842853E+01
 11
-2.76103911E+01
 21
3.80343007E+01
  0
LINE
  8
0
 62
4
 10
-3.66103911E+01
 20
5.78842853E+01
 11
-3.66103911E+01
 21
3.80343007E+01
  0
LINE
  8
0
 62
4
 10
-1.96103911E+01
 20
5.99842853E+01
 11
-1.66103911E+01
 21
5.92842853E+01
  0
LINE
  8
0
 62
4
 10
-1.96103911E+01
 20
5.59842853E+01
 11
-1.66103911E+01
 21
5.66842853E+01
  0
LINE
  8
0
 62
6
 10
-1.16733920E+01
 20
5.92842853E+01
 11
-1.42733920E+01
 21
5.66842853E+01
  0
LINE
  8
0
 62
4
 10
-1.66103911E+01
 20
5.66842853E+01
 11
-1.42733920E+01
 21
5.66842853E+01
  0
LINE
  8
0
 62
4
 10
-1.66103911E+01
 20
5.92842853E+01
 11
-1.66103911E+01
 21
5.66842853E+01
  0
LINE
  8
0
 62
4
 10
-1.66103911E+01
 20
5.92842853E+01
 11
-1.16733920E+01
 21
5.92842853E+01
  0
LINE
  8
0
 62
4
 10
7.83796089E+01
 20
3.81842853E+01
 11
8.38796089E+01
 21
3.81842853E+01
  0
LINE
  8
0
 62
4
 10
7.83796089E+01
 20
5.51842853E+01
 11
8.38796089E+01
 21
5.51842853E+01
  0
LINE
  8
0
 62
7
 10
-4.93603911E+01
 20
4.24442853E+01
 11
-4.93603911E+01
 21
3.81842853E+01
  0
LINE
  8
0
 62
7
 10
-4.93603911E+01
 20
5.09242853E+01
 11
-4.93603911E+01
 21
5.51842853E+01
  0
LINE
  8
0
  6
CENTER
 62
2
 10
2.28892305E+01
 20
5.03417694E+01
 11
2.28892305E+01
 21
4.30017694E+01
  0
CIRCLE
  8
0
 62
7
 10
2.28892305E+01
 20
4.66817694E+01
 40
2.06700000E+00
  0
CIRCLE
  8
0
 62
2
 10
2.28834022E+01
 20
4.66817709E+01
 40
2.50000000E+00
  0
LINE
  8
0
  6
CENTER
 62
2
 10
-5.21107543E+01
 20
5.03417694E+01
 11
-5.21107543E+01
 21
4.30017694E+01
  0
CIRCLE
  8
0
 62
7
 10
-5.21107543E+01
 20
4.66817694E+01
 40
2.06700000E+00
  0
CIRCLE
  8
0
 62
2
 10
-5.21165825E+01
 20
4.66817709E+01
 40
2.50000000E+00
  0
LINE
  8
0
 62
7
 10
1.83796089E+01
 20
5.51842853E+01
 11
1.83796089E+01
 21
3.81842853E+01
  0
LINE
  8
0
 62
7
 10
-5.91103911E+01
 20
3.81842853E+01
 11
-3.66103911E+01
 21
3.81842853E+01
  0
LINE
  8
0
 62
7
 10
-5.73603911E+01
 20
4.24442853E+01
 11
-4.93603911E+01
 21
4.24442853E+01
  0
LINE
  8
0
 62
4
 10
8.43796089E+01
 20
5.46842853E+01
 11
8.43796089E+01
 21
3.86842853E+01
  0
LINE
  8
0
 62
4
 10
8.38796089E+01
 20
5.51842853E+01
 11
8.43796089E+01
 21
5.46842853E+01
  0
LINE
  8
0
 62
4
 10
8.38796089E+01
 20
3.81842853E+01
 11
8.43796089E+01
 21
3.86842853E+01
  0
LINE
  8
0
 62
7
 10
-5.73603911E+01
 20
4.24442853E+01
 11
-5.73603911E+01
 21
3.81842853E+01
  0
LINE
  8
0
 62
7
 10
3.23796089E+01
 20
5.51842853E+01
 11
3.23796089E+01
 21
3.81842853E+01
  0
LINE
  8
0
 62
7
 10
2.01296089E+01
 20
4.24442853E+01
 11
2.01296089E+01
 21
3.81842853E+01
  0
LINE
  8
0
 62
7
 10
3.06296089E+01
 20
4.24442853E+01
 11
2.01296089E+01
 21
4.24442853E+01
  0
LINE
  8
0
 62
7
 10
3.06296089E+01
 20
4.24442853E+01
 11
3.06296089E+01
 21
3.81842853E+01
  0
LINE
  8
0
 62
7
 10
-4.76103911E+01
 20
3.81842853E+01
 11
-4.76103911E+01
 21
5.51842853E+01
  0
LINE
  8
0
 62
7
 10
-5.91103911E+01
 20
3.81842853E+01
 11
-5.91103911E+01
 21
5.51842853E+01
  0
LINE
  8
0
 62
7
 10
-5.91103911E+01
 20
5.51842853E+01
 11
-3.91103911E+01
 21
5.51842853E+01
  0
LINE
  8
0
 62
7
 10
-5.73603911E+01
 20
5.09242853E+01
 11
-4.93603911E+01
 21
5.09242853E+01
  0
LINE
  8
0
 62
4
 10
8.38796089E+01
 20
3.81842853E+01
 11
8.38796089E+01
 21
5.51842853E+01
  0
LINE
  8
0
 62
7
 10
-5.73603911E+01
 20
5.09242853E+01
 11
-5.73603911E+01
 21
5.51842853E+01
  0
LINE
  8
0
 62
4
 10
7.83796089E+01
 20
3.81842853E+01
 11
7.83796089E+01
 21
5.51842853E+01
  0
LINE
  8
0
 62
7
 10
2.01296089E+01
 20
5.09242853E+01
 11
2.01296089E+01
 21
5.51842853E+01
  0
LINE
  8
0
 62
7
 10
3.06296089E+01
 20
5.09242853E+01
 11
2.01296089E+01
 21
5.09242853E+01
  0
LINE
  8
0
 62
7
 10
3.06296089E+01
 20
5.09242853E+01
 11
3.06296089E+01
 21
5.51842853E+01
  0
LINE
  8
0
  6
CENTER
 62
2
 10
3.08796089E+01
 20
4.88742853E+01
 11
3.08796089E+01
 21
4.40142853E+01
  0
ARC
  8
0
 62
7
 10
2.43989010E+01
 20
4.66875191E+01
 40
6.01929298E+00
 50
1.35219089E+02
 51
2.24824608E+02
  0
ARC
  8
0
 62
7
 10
2.63668142E+01
 20
4.66848374E+01
 40
6.01279475E+00
 50
3.15149871E+02
 51
4.48426686E+01
  0
ARC
  8
0
 62
7
 10
-5.36335034E+01
 20
4.66794748E+01
 40
6.02311420E+00
 50
3.15255374E+02
 51
4.48096288E+01
  0
ARC
  8
0
 62
7
 10
-5.30978724E+01
 20
4.66838471E+01
 40
6.01251875E+00
 50
1.35148786E+02
 51
2.24845293E+02
  0
CIRCLE
  8
0
 62
7
 10
3.08834022E+01
 20
4.66817709E+01
 40
6.00000024E-01
  0
LINE
  8
0
 62
2
 10
-6.10803911E+01
 20
4.24962853E+01
 11
-6.06103911E+01
 21
4.24962853E+01
  0
LINE
  8
0
 62
2
 10
-6.10803911E+01
 20
5.08722853E+01
 11
-6.06103911E+01
 21
5.08722853E+01
  0
LINE
  8
0
 62
2
 10
-6.69223911E+01
 20
4.24962853E+01
 11
-6.50803911E+01
 21
4.24962853E+01
  0
LINE
  8
0
 62
2
 10
-6.69223911E+01
 20
5.08722853E+01
 11
-6.50803911E+01
 21
5.08722853E+01
  0
LINE
  8
0
 62
2
 10
-7.91403911E+01
 20
4.46172853E+01
 11
-7.21103911E+01
 21
4.46172853E+01
  0
LINE
  8
0
 62
2
 10
-7.91403911E+01
 20
4.87512853E+01
 11
-7.21103911E+01
 21
4.87512853E+01
  0
LINE
  8
0
 62
2
 10
-8.70433911E+01
 20
4.87512853E+01
 11
-8.31403911E+01
 21
4.87512853E+01
  0
LINE
  8
0
 62
2
 10
-8.70433911E+01
 20
4.46172853E+01
 11
-8.31403911E+01
 21
4.46172853E+01
  0
LINE
  8
0
 62
7
 10
-6.71103911E+01
 20
5.06842853E+01
 11
-6.71103911E+01
 21
4.26842853E+01
  0
LINE
  8
0
 62
7
 10
-6.61103911E+01
 20
4.16842853E+01
 11
-6.50803911E+01
 21
4.16842853E+01
  0
LINE
  8
0
 62
7
 10
-6.61103911E+01
 20
5.16842853E+01
 11
-6.50803911E+01
 21
5.16842853E+01
  0
LINE
  8
0
 62
7
 10
-6.71103911E+01
 20
5.06842853E+01
 11
-6.61103911E+01
 21
5.16842853E+01
  0
LINE
  8
0
 62
7
 10
-6.71103911E+01
 20
4.26842853E+01
 11
-6.61103911E+01
 21
4.16842853E+01
  0
LINE
  8
0
 62
7
 10
-6.06103911E+01
 20
5.16842853E+01
 11
-6.06103911E+01
 21
4.16842853E+01
  0
LINE
  8
0
 62
7
 10
-6.61103911E+01
 20
5.16842853E+01
 11
-6.61103911E+01
 21
4.16842853E+01
  0
LINE
  8
0
 62
7
 10
-8.66103911E+01
 20
4.91842853E+01
 11
-8.31403911E+01
 21
4.91842853E+01
  0
LINE
  8
0
 62
7
 10
-8.66103911E+01
 20
4.41842853E+01
 11
-8.31403911E+01
 21
4.41842853E+01
  0
LINE
  8
0
 62
7
 10
-8.71103911E+01
 20
4.86842853E+01
 11
-8.71103911E+01
 21
4.46842853E+01
  0
LINE
  8
0
 62
7
 10
-7.21103911E+01
 20
4.91842853E+01
 11
-7.21103911E+01
 21
4.41842853E+01
  0
LINE
  8
0
 62
7
 10
-8.71103911E+01
 20
4.86842853E+01
 11
-8.66103911E+01
 21
4.91842853E+01
  0
LINE
  8
0
 62
7
 10
-8.71103911E+01
 20
4.46842853E+01
 11
-8.66103911E+01
 21
4.41842853E+01
  0
LINE
  8
0
 62
7
 10
-8.66103911E+01
 20
4.91842853E+01
 11
-8.66103911E+01
 21
4.41842853E+01
  0
LINE
  8
0
 62
4
 10
-8.31403911E+01
 20
5.00742853E+01
 11
-8.31403911E+01
 21
4.33042853E+01
  0
LINE
  8
0
 62
4
 10
-7.91403911E+01
 20
5.00742853E+01
 11
-7.91403911E+01
 21
4.33042853E+01
  0
LINE
  8
0
 62
4
 10
-8.26403911E+01
 20
4.21842853E+01
 11
-7.96403911E+01
 21
4.21842853E+01
  0
LINE
  8
0
 62
4
 10
-8.26403911E+01
 20
5.11842853E+01
 11
-7.96403911E+01
 21
5.11842853E+01
  0
LINE
  8
0
 62
7
 10
-7.91403911E+01
 20
4.41842853E+01
 11
-6.71103911E+01
 21
4.41842853E+01
  0
LINE
  8
0
 62
7
 10
-7.91403911E+01
 20
4.91842853E+01
 11
-6.71103911E+01
 21
4.91842853E+01
  0
LINE
  8
0
 62
7
 10
-6.10803911E+01
 20
5.16842853E+01
 11
-5.91103911E+01
 21
5.16842853E+01
  0
LINE
  8
0
 62
7
 10
-6.10803911E+01
 20
4.16842853E+01
 11
-5.91103911E+01
 21
4.16842853E+01
  0
LINE
  8
0
 62
4
 10
-8.26403911E+01
 20
4.89642853E+01
 11
-7.96403911E+01
 21
4.89642853E+01
  0
LINE
  8
0
 62
4
 10
-8.26403911E+01
 20
4.44142853E+01
 11
-7.96403911E+01
 21
4.44142853E+01
  0
LINE
  8
0
 62
4
 10
-6.46803911E+01
 20
5.46842853E+01
 11
-6.14803911E+01
 21
5.46842853E+01
  0
LINE
  8
0
 62
4
 10
-6.46803911E+01
 20
5.06642853E+01
 11
-6.14803911E+01
 21
5.06642853E+01
  0
LINE
  8
0
 62
4
 10
-6.50803911E+01
 20
5.26742853E+01
 11
-6.50803911E+01
 21
4.07042853E+01
  0
LINE
  8
0
 62
4
 10
-6.46803911E+01
 20
4.27142853E+01
 11
-6.14803911E+01
 21
4.27142853E+01
  0
LINE
  8
0
 62
4
 10
-6.46803911E+01
 20
3.86842853E+01
 11
-6.14803911E+01
 21
3.86842853E+01
  0
LINE
  8
0
 62
4
 10
-6.10803911E+01
 20
5.26742853E+01
 11
-6.10803911E+01
 21
4.07042853E+01
  0
ARC
  8
0
 62
4
 10
-7.77371028E+01
 20
4.66941782E+01
 40
5.40329733E+00
 50
1.55156974E+02
 51
1.80104903E+02
  0
ARC
  8
0
 62
4
 10
-7.77391983E+01
 20
4.66839093E+01
 40
5.40119281E+00
 50
1.79996011E+02
 51
2.04847715E+02
  0
ARC
  8
0
 62
4
 10
-8.16556972E+01
 20
4.33031169E+01
 40
1.48469438E+00
 50
1.31546682E+02
 51
1.79954909E+02
  0
ARC
  8
0
 62
4
 10
-8.16563116E+01
 20
4.32952136E+01
 40
1.48410722E+00
 50
1.79649775E+02
 51
2.28464923E+02
  0
ARC
  8
0
 62
4
 10
-8.16594447E+01
 20
5.00737656E+01
 40
1.48094647E+00
 50
1.79979895E+02
 51
2.28518513E+02
  0
ARC
  8
0
 62
4
 10
-8.16562865E+01
 20
5.00733823E+01
 40
1.48410487E+00
 50
1.31536451E+02
 51
1.79965140E+02
  0
ARC
  8
0
 62
4
 10
-8.45606312E+01
 20
4.66904607E+01
 40
5.42024357E+00
 50
3.59934721E+02
 51
2.48034017E+01
  0
ARC
  8
0
 62
4
 10
-8.06361310E+01
 20
5.00804294E+01
 40
1.49575246E+00
 50
3.11736944E+02
 51
3.59764647E+02
  0
ARC
  8
0
 62
4
 10
-8.45585354E+01
 20
4.66876431E+01
 40
5.41814532E+00
 50
3.35191782E+02
 51
3.59964492E+02
  0
ARC
  8
0
 62
4
 10
-8.06398415E+01
 20
4.32964698E+01
 40
1.49947071E+00
 50
2.98635695E-01
 51
4.81997731E+01
  0
ARC
  8
0
 62
4
 10
-8.06392773E+01
 20
4.33018238E+01
 40
1.49888818E+00
 50
3.11791208E+02
 51
9.40935745E-02
  0
ARC
  8
0
 62
4
 10
-8.06392579E+01
 20
5.00667327E+01
 40
1.49888586E+00
 50
2.88704672E-01
 51
4.82097042E+01
  0
ARC
  8
0
 62
4
 10
-6.63476197E+01
 20
4.07008816E+01
 40
5.26722966E+00
 50
3.70246508E-02
 51
2.24731834E+01
  0
ARC
  8
0
 62
4
 10
-4.51311128E+01
 20
4.66894332E+01
 40
1.99492789E+01
 50
1.68507018E+02
 51
1.80014785E+02
  0
ARC
  8
0
 62
4
 10
-5.98233558E+01
 20
5.26756605E+01
 40
5.25703545E+00
 50
1.80014988E+02
 51
2.02495220E+02
  0
ARC
  8
0
 62
4
 10
-5.98224448E+01
 20
5.26727288E+01
 40
5.25794651E+00
 50
1.57506753E+02
 51
1.79983039E+02
  0
ARC
  8
0
 62
4
 10
-6.63466167E+01
 20
5.26710812E+01
 40
5.26622655E+00
 50
3.48600779E-02
 51
2.24753479E+01
  0
ARC
  8
0
 62
4
 10
-6.63457071E+01
 20
5.26773084E+01
 40
5.26531686E+00
 50
3.37522688E+02
 51
3.59967104E+02
  0
ARC
  8
0
 62
4
 10
-5.98224490E+01
 20
4.06958580E+01
 40
5.25794885E+00
 50
1.79908168E+02
 51
2.02493428E+02
  0
ARC
  8
0
 62
4
 10
-6.63466156E+01
 20
4.06974981E+01
 40
5.26622888E+00
 50
3.37524561E+02
 51
7.38440165E-02
  0
ARC
  8
0
 62
4
 10
-5.98214403E+01
 20
4.07025289E+01
 40
5.25895115E+00
 50
1.57508928E+02
 51
1.79980864E+02
  0
ARC
  8
0
 62
4
 10
-4.51321087E+01
 20
4.66890367E+01
 40
1.99482829E+01
 50
1.80013647E+02
 51
1.91493268E+02
  0
ARC
  8
0
 62
4
 10
-8.10371944E+01
 20
4.66898952E+01
 40
1.99568041E+01
 50
3.48509191E+02
 51
3.59983894E+02
  0
ARC
  8
0
 62
4
 10
-8.10381903E+01
 20
4.66885768E+01
 40
1.99577996E+01
 50
3.59987680E+02
 51
1.14905173E+01
  0
ARC
  8
0
 62
4
 10
9.37794324E+00
 20
6.61826196E+01
 40
1.00166704E+00
 50
9.52762946E-02
 51
8.99047236E+01
  0
ARC
  8
0
 62
4
 10
6.38040039E+00
 20
6.61834938E+01
 40
1.00079180E+00
 50
9.00000002E+01
 51
1.79954687E+02
  0
LINE
  8
0
 62
6
 10
6.64960890E+00
 20
6.56842853E+01
 11
6.64960890E+00
 21
6.46842853E+01
  0
LINE
  8
0
 62
6
 10
9.10960890E+00
 20
6.56842853E+01
 11
9.10960890E+00
 21
6.46842853E+01
  0
LINE
  8
0
 62
4
 10
6.37960890E+00
 20
6.56842853E+01
 11
6.37960890E+00
 21
6.46842853E+01
  0
LINE
  8
0
 62
4
 10
9.37960890E+00
 20
6.56842853E+01
 11
9.37960890E+00
 21
6.46842853E+01
  0
LINE
  8
0
 62
4
 10
6.37960890E+00
 20
6.71842853E+01
 11
9.37960890E+00
 21
6.71842853E+01
  0
LINE
  8
0
 62
4
 10
5.37960890E+00
 20
6.56842853E+01
 11
1.03796089E+01
 21
6.56842853E+01
  0
LINE
  8
0
 62
4
 10
3.37960890E+00
 20
6.46842853E+01
 11
1.23796089E+01
 21
6.46842853E+01
  0
LINE
  8
0
 62
4
 10
1.03796089E+01
 20
6.61842853E+01
 11
1.03796089E+01
 21
6.56842853E+01
  0
LINE
  8
0
 62
4
 10
5.37960890E+00
 20
6.61842853E+01
 11
5.37960890E+00
 21
6.56842853E+01
  0
ARC
  8
0
 62
4
 10
4.93779432E+01
 20
6.61826196E+01
 40
1.00166704E+00
 50
9.52762946E-02
 51
8.99047236E+01
  0
ARC
  8
0
 62
4
 10
4.63804004E+01
 20
6.61834938E+01
 40
1.00079180E+00
 50
9.00000002E+01
 51
1.79954687E+02
  0
LINE
  8
0
 62
6
 10
4.66496089E+01
 20
6.56842853E+01
 11
4.66496089E+01
 21
6.46842853E+01
  0
LINE
  8
0
 62
6
 10
4.91096089E+01
 20
6.56842853E+01
 11
4.91096089E+01
 21
6.46842853E+01
  0
LINE
  8
0
 62
4
 10
4.63796089E+01
 20
6.56842853E+01
 11
4.63796089E+01
 21
6.46842853E+01
  0
LINE
  8
0
 62
4
 10
4.93796089E+01
 20
6.56842853E+01
 11
4.93796089E+01
 21
6.46842853E+01
  0
LINE
  8
0
 62
4
 10
4.63796089E+01
 20
6.71842853E+01
 11
4.93796089E+01
 21
6.71842853E+01
  0
LINE
  8
0
 62
4
 10
4.53796089E+01
 20
6.56842853E+01
 11
5.03796089E+01
 21
6.56842853E+01
  0
LINE
  8
0
 62
4
 10
4.33796089E+01
 20
6.46842853E+01
 11
5.23796089E+01
 21
6.46842853E+01
  0
LINE
  8
0
 62
4
 10
5.03796089E+01
 20
6.61842853E+01
 11
5.03796089E+01
 21
6.56842853E+01
  0
LINE
  8
0
 62
4
 10
4.53796089E+01
 20
6.61842853E+01
 11
4.53796089E+01
 21
6.56842853E+01
  0
ARC
  8
0
 62
4
 10
-3.06120568E+01
 20
6.61826196E+01
 40
1.00166704E+00
 50
9.52762946E-02
 51
8.99047236E+01
  0
ARC
  8
0
 62
4
 10
-3.36095996E+01
 20
6.61834938E+01
 40
1.00079180E+00
 50
9.00000002E+01
 51
1.79954687E+02
  0
LINE
  8
0
 62
6
 10
-3.33403911E+01
 20
6.56842853E+01
 11
-3.33403911E+01
 21
6.46842853E+01
  0
LINE
  8
0
 62
6
 10
-3.08803911E+01
 20
6.56842853E+01
 11
-3.08803911E+01
 21
6.46842853E+01
  0
LINE
  8
0
 62
4
 10
-3.36103911E+01
 20
6.56842853E+01
 11
-3.36103911E+01
 21
6.46842853E+01
  0
LINE
  8
0
 62
4
 10
-3.06103911E+01
 20
6.56842853E+01
 11
-3.06103911E+01
 21
6.46842853E+01
  0
LINE
  8
0
 62
4
 10
-3.36103911E+01
 20
6.71842853E+01
 11
-3.06103911E+01
 21
6.71842853E+01
  0
LINE
  8
0
 62
4
 10
-3.46103911E+01
 20
6.56842853E+01
 11
-2.96103911E+01
 21
6.56842853E+01
  0
LINE
  8
0
 62
4
 10
-3.66103911E+01
 20
6.46842853E+01
 11
-2.76103911E+01
 21
6.46842853E+01
  0
LINE
  8
0
 62
4
 10
-2.96103911E+01
 20
6.61842853E+01
 11
-2.96103911E+01
 21
6.56842853E+01
  0
LINE
  8
0
 62
4
 10
-3.46103911E+01
 20
6.61842853E+01
 11
-3.46103911E+01
 21
6.56842853E+01
  0
LINE
  8
0
  6
CENTER
 62
2
 10
-1.16970391E+02
 20
3.62647235E+01
 11
-1.16970391E+02
 21
6.83051035E+01
  0
LINE
  8
0
 62
4
 10
-1.15920391E+02
 20
5.69847235E+01
 11
-1.14920391E+02
 21
5.59847235E+01
  0
LINE
  8
0
 62
4
 10
-1.18020391E+02
 20
5.69847235E+01
 11
-1.19020391E+02
 21
5.59847235E+01
  0
LINE
  8
0
 62
4
 10
-1.14920391E+02
 20
5.99847235E+01
 11
-1.15920391E+02
 21
5.89847235E+01
  0
LINE
  8
0
 62
4
 10
-1.19020391E+02
 20
5.99847235E+01
 11
-1.18020391E+02
 21
5.89847235E+01
  0
LINE
  8
0
 62
4
 10
-1.15920391E+02
 20
5.69847235E+01
 11
-1.18020391E+02
 21
5.69847235E+01
  0
LINE
  8
0
 62
4
 10
-1.15920391E+02
 20
5.89847235E+01
 11
-1.15920391E+02
 21
5.69847235E+01
  0
LINE
  8
0
 62
4
 10
-1.18020391E+02
 20
5.89847235E+01
 11
-1.18020391E+02
 21
5.69847235E+01
  0
LINE
  8
0
 62
4
 10
-1.15920391E+02
 20
5.89847235E+01
 11
-1.18020391E+02
 21
5.89847235E+01
  0
ARC
  8
0
 62
4
 10
-1.16970391E+02
 20
4.66847235E+01
 40
8.65000000E+00
 50
1.69314255E+02
 51
1.90685745E+02
  0
ARC
  8
0
 62
4
 10
-1.16970391E+02
 20
4.66847235E+01
 40
8.65000000E+00
 50
2.59314255E+02
 51
2.80685745E+02
  0
LINE
  8
0
 62
4
 10
-1.15470391E+02
 20
6.19847235E+01
 11
-1.15770391E+02
 21
6.16847235E+01
  0
LINE
  8
0
 62
4
 10
-1.18470391E+02
 20
6.19847235E+01
 11
-1.18170391E+02
 21
6.16847235E+01
  0
LINE
  8
0
 62
4
 10
-1.15470391E+02
 20
6.19847235E+01
 11
-1.15770391E+02
 21
6.16847235E+01
  0
LINE
  8
0
 62
4
 10
-1.18470391E+02
 20
6.19847235E+01
 11
-1.18170391E+02
 21
6.16847235E+01
  0
LINE
  8
0
 62
4
 10
-1.15970391E+02
 20
5.56847235E+01
 11
-1.17970391E+02
 21
5.56847235E+01
  0
LINE
  8
0
 62
4
 10
-1.23876783E+02
 20
5.34042849E+01
 11
-1.24352123E+02
 21
5.35593719E+01
  0
LINE
  8
0
 62
4
 10
-1.22636087E+02
 20
5.72070042E+01
 11
-1.22493485E+02
 21
5.71604781E+01
  0
LINE
  8
0
 62
4
 10
-1.21895391E+02
 20
6.10892275E+01
 11
-1.24352123E+02
 21
5.35593719E+01
  0
LINE
  8
0
 62
4
 10
-1.22493500E+02
 20
5.71604333E+01
 11
-1.23734445E+02
 21
5.33569496E+01
  0
LINE
  8
0
 62
4
 10
-1.21395391E+02
 20
6.10097235E+01
 11
-1.23974451E+02
 21
5.31049315E+01
  0
LINE
  8
0
 62
4
 10
-1.13470391E+02
 20
5.81847235E+01
 11
-1.11325377E+02
 21
5.43297428E+01
  0
LINE
  8
0
 62
4
 10
-1.13620391E+02
 20
5.81847235E+01
 11
-1.11591654E+02
 21
5.45193701E+01
  0
ARC
  8
0
 62
4
 10
-1.16970391E+02
 20
4.66847235E+01
 40
8.65000000E+00
 50
3.49314255E+02
 51
1.06857449E+01
  0
ARC
  8
0
 62
4
 10
-1.16970391E+02
 20
4.66847235E+01
 40
8.50000000E+00
 50
1.61930287E+02
 51
2.89640969E+01
  0
LINE
  8
0
 62
4
 10
-1.13470391E+02
 20
6.46847235E+01
 11
-1.20470391E+02
 21
6.46847235E+01
  0
LINE
  8
0
 62
4
 10
-1.20470391E+02
 20
6.33847235E+01
 11
-1.20470391E+02
 21
5.74847235E+01
  0
LINE
  8
0
 62
4
 10
-1.13470391E+02
 20
6.33847235E+01
 11
-1.13470391E+02
 21
5.81847235E+01
  0
LINE
  8
0
 62
4
 10
-1.21270391E+02
 20
5.96825012E+01
 11
-1.21739909E+02
 21
5.99537785E+01
  0
LINE
  8
0
 62
4
 10
-1.21970391E+02
 20
6.29847235E+01
 11
-1.21970391E+02
 21
6.12997235E+01
  0
LINE
  8
0
 62
4
 10
-1.21970391E+02
 20
6.29847235E+01
 11
-1.22770391E+02
 21
6.29847235E+01
  0
LINE
  8
0
 62
4
 10
-1.19255391E+02
 20
6.38847235E+01
 11
-1.19115391E+02
 21
6.30847235E+01
  0
LINE
  8
0
 62
4
 10
-1.14685391E+02
 20
6.38847235E+01
 11
-1.14825391E+02
 21
6.30847235E+01
  0
LINE
  8
0
 62
4
 10
-1.14825391E+02
 20
6.30847235E+01
 11
-1.19115391E+02
 21
6.30847235E+01
  0
LINE
  8
0
 62
6
 10
-1.18200391E+02
 20
6.51847235E+01
 11
-1.18200391E+02
 21
6.46847235E+01
  0
LINE
  8
0
 62
6
 10
-1.15740391E+02
 20
6.51847235E+01
 11
-1.15740391E+02
 21
6.46847235E+01
  0
LINE
  8
0
 62
4
 10
-1.12670391E+02
 20
6.38847235E+01
 11
-1.12670391E+02
 21
5.81847235E+01
  0
LINE
  8
0
 62
4
 10
-1.21270391E+02
 20
5.74847235E+01
 11
-1.21270391E+02
 21
6.38847235E+01
  0
LINE
  8
0
 62
4
 10
-1.13970391E+02
 20
6.38847235E+01
 11
-1.19970391E+02
 21
6.38847235E+01
  0
LINE
  8
0
 62
4
 10
-1.22770391E+02
 20
6.29847235E+01
 11
-1.22770391E+02
 21
6.08397235E+01
  0
LINE
  8
0
 62
4
 10
-1.21270391E+02
 20
6.06087235E+01
 11
-1.21484496E+02
 21
6.07329042E+01
  0
LINE
  8
0
 62
4
 10
-1.13620391E+02
 20
6.33847235E+01
 11
-1.13620391E+02
 21
5.81847235E+01
  0
LINE
  8
0
 62
4
 10
-1.13470391E+02
 20
6.33847235E+01
 11
-1.13620391E+02
 21
6.33847235E+01
  0
LINE
  8
0
 62
4
 10
-1.13720391E+02
 20
6.16847235E+01
 11
-1.20220391E+02
 21
6.16847235E+01
  0
LINE
  8
0
 62
4
 10
-1.13720391E+02
 20
6.09847235E+01
 11
-1.20220391E+02
 21
6.09847235E+01
  0
LINE
  8
0
 62
4
 10
-1.21395391E+02
 20
6.35097235E+01
 11
-1.21395391E+02
 21
6.10097235E+01
  0
LINE
  8
0
 62
4
 10
-1.21895391E+02
 20
6.35097235E+01
 11
-1.21895391E+02
 21
6.10892275E+01
  0
LINE
  8
0
 62
4
 10
-1.21395391E+02
 20
6.35097235E+01
 11
-1.21895391E+02
 21
6.35097235E+01
  0
LINE
  8
0
 62
4
 10
-1.18470391E+02
 20
6.56847235E+01
 11
-1.18470391E+02
 21
6.46847235E+01
  0
LINE
  8
0
 62
4
 10
-1.15470391E+02
 20
6.56847235E+01
 11
-1.15470391E+02
 21
6.46847235E+01
  0
LINE
  8
0
 62
4
 10
-1.12670391E+02
 20
5.81847235E+01
 11
-1.13470391E+02
 21
5.81847235E+01
  0
LINE
  8
0
 62
4
 10
-1.20470391E+02
 20
5.74847235E+01
 11
-1.21270391E+02
 21
5.74847235E+01
  0
LINE
  8
0
 62
4
 10
-1.14470391E+02
 20
6.56847235E+01
 11
-1.19470391E+02
 21
6.56847235E+01
  0
LINE
  8
0
 62
4
 10
-1.15470391E+02
 20
6.71847235E+01
 11
-1.18470391E+02
 21
6.71847235E+01
  0
LINE
  8
0
 62
4
 10
-1.14470391E+02
 20
6.61847235E+01
 11
-1.14470391E+02
 21
6.56847235E+01
  0
LINE
  8
0
 62
4
 10
-1.19470391E+02
 20
6.61847235E+01
 11
-1.19470391E+02
 21
6.56847235E+01
  0
LINE
  8
0
 62
4
 10
-1.15470391E+02
 20
6.51847235E+01
 11
-1.18470391E+02
 21
6.51847235E+01
  0
ARC
  8
0
 62
4
 10
-1.13470394E+02
 20
6.38847202E+01
 40
8.00003254E-01
 50
2.33015759E-04
 51
9.00000002E+01
  0
ARC
  8
0
 62
4
 10
-1.20472054E+02
 20
6.38863861E+01
 40
7.98339134E-01
 50
8.98806771E+01
 51
1.80119323E+02
  0
ARC
  8
0
 62
4
 10
-1.13970395E+02
 20
6.33847192E+01
 40
5.00004290E-01
 50
4.91607912E-04
 51
9.00000002E+01
  0
ARC
  8
0
 62
4
 10
-1.19972054E+02
 20
6.33863861E+01
 40
4.98340176E-01
 50
8.98088454E+01
 51
1.80191155E+02
  0
ARC
  8
0
 62
4
 10
-1.22270187E+02
 20
6.08378577E+01
 40
5.00207143E-01
 50
1.79786293E+02
 51
2.39986760E+02
  0
ARC
  8
0
 62
4
 10
-1.21471539E+02
 20
6.13020792E+01
 40
4.98857363E-01
 50
1.80270562E+02
 51
2.09445368E+02
  0
ARC
  8
0
 62
4
 10
-1.18471803E+02
 20
6.61861358E+01
 40
9.98588677E-01
 50
8.99189656E+01
 51
1.80081034E+02
  0
ARC
  8
0
 62
4
 10
-1.15470644E+02
 20
6.61844707E+01
 40
1.00025280E+00
 50
1.44788446E-02
 51
9.00000002E+01
  0
LINE
  8
0
 62
4
 10
-1.20220391E+02
 20
6.16847235E+01
 11
-1.20220391E+02
 21
5.51847235E+01
  0
LINE
  8
0
 62
4
 10
-1.13720391E+02
 20
5.77847235E+01
 11
-1.13720391E+02
 21
5.51847235E+01
  0
LINE
  8
0
 62
4
 10
-1.13720391E+02
 20
5.77847235E+01
 11
-1.14920391E+02
 21
5.77847235E+01
  0
LINE
  8
0
 62
4
 10
-1.13720391E+02
 20
5.81847235E+01
 11
-1.14920391E+02
 21
5.81847235E+01
  0
LINE
  8
0
 62
4
 10
-1.13720391E+02
 20
6.16847235E+01
 11
-1.13720391E+02
 21
5.81847235E+01
  0
LINE
  8
0
 62
4
 10
-1.14920391E+02
 20
5.59847235E+01
 11
-1.19020391E+02
 21
5.59847235E+01
  0
LINE
  8
0
 62
4
 10
-1.14920391E+02
 20
5.99847235E+01
 11
-1.19020391E+02
 21
5.99847235E+01
  0
LINE
  8
0
 62
4
 10
-1.15970391E+02
 20
6.02847235E+01
 11
-1.17970391E+02
 21
6.02847235E+01
  0
LINE
  8
0
 62
4
 10
-1.15970391E+02
 20
6.02847235E+01
 11
-1.15970391E+02
 21
5.99847235E+01
  0
LINE
  8
0
 62
4
 10
-1.15970391E+02
 20
5.59847235E+01
 11
-1.15970391E+02
 21
5.56847235E+01
  0
LINE
  8
0
 62
4
 10
-1.14920391E+02
 20
5.99847235E+01
 11
-1.14920391E+02
 21
5.59847235E+01
  0
LINE
  8
0
 62
4
 10
-1.19020391E+02
 20
5.99847235E+01
 11
-1.19020391E+02
 21
5.59847235E+01
  0
LINE
  8
0
 62
4
 10
-1.17970391E+02
 20
6.02847235E+01
 11
-1.17970391E+02
 21
5.99847235E+01
  0
LINE
  8
0
 62
4
 10
-1.17970391E+02
 20
5.59847235E+01
 11
-1.17970391E+02
 21
5.56847235E+01
  0
LINE
  8
0
 62
4
 10
-1.15470391E+02
 20
6.30847235E+01
 11
-1.15470391E+02
 21
6.19847235E+01
  0
LINE
  8
0
 62
4
 10
-1.18470391E+02
 20
6.30847235E+01
 11
-1.18470391E+02
 21
6.19847235E+01
  0
LINE
  8
0
 62
6
 10
-1.15740391E+02
 20
6.30847235E+01
 11
-1.15740391E+02
 21
6.17147235E+01
  0
LINE
  8
0
 62
6
 10
-1.18200391E+02
 20
6.30847235E+01
 11
-1.18200391E+02
 21
6.17147235E+01
  0
LINE
  8
0
 62
4
 10
-1.22182430E+02
 20
6.02094569E+01
 11
-1.22520391E+02
 21
6.04047235E+01
  0
ARC
  8
0
 62
2
 10
-1.16970391E+02
 20
4.66847235E+01
 40
4.18800000E+00
 50
4.27674369E+01
 51
7.72325633E+01
  0
ARC
  8
0
 62
2
 10
-1.16970391E+02
 20
4.66847235E+01
 40
4.18800000E+00
 50
3.42767437E+02
 51
1.72325634E+01
  0
ARC
  8
0
 62
2
 10
-1.16970391E+02
 20
4.66847235E+01
 40
4.18800000E+00
 50
2.82767437E+02
 51
3.17232564E+02
  0
ARC
  8
0
 62
2
 10
-1.16970391E+02
 20
4.66847235E+01
 40
4.18800000E+00
 50
2.22767437E+02
 51
2.57232563E+02
  0
ARC
  8
0
 62
2
 10
-1.16970391E+02
 20
4.66847235E+01
 40
4.18800000E+00
 50
1.62767437E+02
 51
1.97232563E+02
  0
ARC
  8
0
 62
2
 10
-1.16970391E+02
 20
4.66847235E+01
 40
4.18800000E+00
 50
1.02767437E+02
 51
1.37232563E+02
  0
CIRCLE
  8
0
 62
7
 10
-1.16970391E+02
 20
4.66847235E+01
 40
5.00000000E+00
  0
LINE
  8
0
 62
4
 10
-1.16970391E+02
 20
5.47676288E+01
 11
-1.09970390E+02
 21
5.07261761E+01
  0
LINE
  8
0
 62
4
 10
-1.09970390E+02
 20
5.07261761E+01
 11
-1.09970390E+02
 21
4.26432708E+01
  0
LINE
  8
0
 62
4
 10
-1.09970390E+02
 20
4.26432708E+01
 11
-1.16970391E+02
 21
3.86018182E+01
  0
LINE
  8
0
 62
4
 10
-1.16970391E+02
 20
3.86018182E+01
 11
-1.23970392E+02
 21
4.26432708E+01
  0
LINE
  8
0
 62
4
 10
-1.23970392E+02
 20
4.26432708E+01
 11
-1.23970392E+02
 21
5.07261761E+01
  0
LINE
  8
0
 62
4
 10
-1.23970392E+02
 20
5.07261761E+01
 11
-1.16970391E+02
 21
5.47676288E+01
  0
LINE
  8
0
 62
4
 10
-1.20970392E+02
 20
4.43753216E+01
 11
-1.20970392E+02
 21
4.89941253E+01
  0
LINE
  8
0
 62
4
 10
-1.16970391E+02
 20
4.20659198E+01
 11
-1.20970392E+02
 21
4.43753216E+01
  0
LINE
  8
0
 62
4
 10
-1.12970390E+02
 20
4.43753216E+01
 11
-1.16970391E+02
 21
4.20659198E+01
  0
LINE
  8
0
 62
4
 10
-1.12970390E+02
 20
4.89941253E+01
 11
-1.12970390E+02
 21
4.43753216E+01
  0
LINE
  8
0
 62
4
 10
-1.16970391E+02
 20
5.13035271E+01
 11
-1.12970390E+02
 21
4.89941253E+01
  0
LINE
  8
0
 62
4
 10
-1.20970392E+02
 20
4.89941253E+01
 11
-1.16970391E+02
 21
5.13035271E+01
  0
CIRCLE
  8
0
 62
2
 10
-1.16970391E+02
 20
4.66847235E+01
 40
2.06700000E+00
  0
LINE
  8
0
 62
7
 10
-1.08470391E+02
 20
5.09347235E+01
 11
-1.08470391E+02
 21
4.24447235E+01
  0
LINE
  8
0
 62
7
 10
-1.25470391E+02
 20
5.09347235E+01
 11
-1.25470391E+02
 21
4.24447235E+01
  0
LINE
  8
0
 62
7
 10
-1.21210391E+02
 20
3.81847235E+01
 11
-1.12720391E+02
 21
3.81847235E+01
  0
LINE
  8
0
 62
7
 10
-1.21210391E+02
 20
5.51847235E+01
 11
-1.12720391E+02
 21
5.51847235E+01
  0
LINE
  8
0
  6
CENTER
 62
2
 10
-1.27292337E+02
 20
4.66847235E+01
 11
-1.06477065E+02
 21
4.66847235E+01
  0
CIRCLE
  8
0
 62
7
 10
-1.16970391E+02
 20
4.66847250E+01
 40
2.50000000E+00
  0
CIRCLE
  8
0
 62
7
 10
-1.16970391E+02
 20
4.66847250E+01
 40
8.50000000E+00
  0
ARC
  8
0
 62
7
 10
-1.16970390E+02
 20
4.66847242E+01
 40
9.50328788E+00
 50
2.65650491E+01
 51
6.34349507E+01
  0
ARC
  8
0
 62
7
 10
-1.16975384E+02
 20
4.66797401E+01
 40
9.50105392E+00
 50
1.16470741E+02
 51
1.53394604E+02
  0
ARC
  8
0
 62
7
 10
-1.16970390E+02
 20
4.66847242E+01
 40
9.49882200E+00
 50
2.06511102E+02
 51
2.43488897E+02
  0
ARC
  8
0
 62
7
 10
-1.16975376E+02
 20
4.66797319E+01
 40
9.50105596E+00
 50
2.96605401E+02
 51
3.33529254E+02
  0
CIRCLE
  8
0
 62
4
 10
-1.16970391E+02
 20
4.66847250E+01
 40
7.00000000E+00
  0
CIRCLE
  8
0
 62
4
 10
-1.16970391E+02
 20
4.66847250E+01
 40
4.00000000E+00
  0
LINE
  8
0
  6
CENTER
 62
2
 10
1.11306843E+02
 20
6.85458626E+01
 11
1.11306843E+02
 21
3.62647235E+01
  0
LINE
  8
0
 62
7
 10
1.19806843E+02
 20
4.50808220E+01
 11
1.19806843E+02
 21
4.24447235E+01
  0
LINE
  8
0
 62
7
 10
1.02806843E+02
 20
4.50808220E+01
 11
1.02806843E+02
 21
4.24447235E+01
  0
LINE
  8
0
 62
7
 10
1.12910745E+02
 20
3.81847235E+01
 11
1.15556843E+02
 21
3.81847235E+01
  0
LINE
  8
0
 62
7
 10
1.14556843E+02
 20
5.51847235E+01
 11
1.15556843E+02
 21
5.51847235E+01
  0
ARC
  8
0
 62
7
 10
1.11301850E+02
 20
4.66797401E+01
 40
9.50105392E+00
 50
1.26443200E+02
 51
1.53394604E+02
  0
ARC
  8
0
 62
7
 10
1.11306844E+02
 20
4.66847242E+01
 40
9.50328788E+00
 50
4.46347655E+01
 51
6.34349507E+01
  0
LINE
  8
0
 62
4
 10
1.09806843E+02
 20
6.19847235E+01
 11
1.10106843E+02
 21
6.16847235E+01
  0
LINE
  8
0
 62
4
 10
1.12806843E+02
 20
6.19847235E+01
 11
1.12506843E+02
 21
6.16847235E+01
  0
LINE
  8
0
 62
4
 10
1.09806843E+02
 20
6.19847235E+01
 11
1.10106843E+02
 21
6.16847235E+01
  0
LINE
  8
0
 62
4
 10
1.12806843E+02
 20
6.19847235E+01
 11
1.12506843E+02
 21
6.16847235E+01
  0
LINE
  8
0
 62
4
 10
1.10306843E+02
 20
5.56847235E+01
 11
1.12306843E+02
 21
5.56847235E+01
  0
LINE
  8
0
 62
4
 10
1.10006843E+02
 20
5.66847235E+01
 11
1.12606843E+02
 21
5.66847235E+01
  0
LINE
  8
0
 62
4
 10
1.10006843E+02
 20
5.66847235E+01
 11
1.09256843E+02
 21
5.59847235E+01
  0
LINE
  8
0
 62
4
 10
1.18213235E+02
 20
5.34042849E+01
 11
1.18688575E+02
 21
5.35593719E+01
  0
LINE
  8
0
 62
4
 10
1.16972539E+02
 20
5.72070042E+01
 11
1.16829937E+02
 21
5.71604781E+01
  0
LINE
  8
0
 62
4
 10
1.16231843E+02
 20
6.10892275E+01
 11
1.18688575E+02
 21
5.35593719E+01
  0
LINE
  8
0
 62
4
 10
1.16829952E+02
 20
5.71604333E+01
 11
1.19387622E+02
 21
4.93212020E+01
  0
LINE
  8
0
 62
4
 10
1.15731843E+02
 20
6.10097235E+01
 11
1.19530224E+02
 21
4.93677281E+01
  0
LINE
  8
0
 62
4
 10
1.07806843E+02
 20
5.81847235E+01
 11
1.03748180E+02
 21
5.08905649E+01
  0
LINE
  8
0
 62
4
 10
1.07956843E+02
 20
5.81847235E+01
 11
1.03869995E+02
 21
5.08009459E+01
  0
ARC
  8
0
 62
4
 10
1.11306843E+02
 20
4.66847235E+01
 40
8.65000000E+00
 50
1.50907274E+02
 51
1.80697136E+01
  0
ARC
  8
0
 62
4
 10
1.11306843E+02
 20
4.66847235E+01
 40
8.50000000E+00
 50
1.51035903E+02
 51
1.80697136E+01
  0
CIRCLE
  8
0
 62
4
 10
1.11306843E+02
 20
5.79847235E+01
 40
1.30000000E+00
  0
LINE
  8
0
 62
4
 10
1.07806843E+02
 20
6.46847235E+01
 11
1.14806843E+02
 21
6.46847235E+01
  0
LINE
  8
0
 62
4
 10
1.14806843E+02
 20
6.33847235E+01
 11
1.14806843E+02
 21
5.74847235E+01
  0
LINE
  8
0
 62
4
 10
1.07806843E+02
 20
6.33847235E+01
 11
1.07806843E+02
 21
5.81847235E+01
  0
LINE
  8
0
 62
4
 10
1.15606843E+02
 20
5.96825012E+01
 11
1.16076362E+02
 21
5.99537785E+01
  0
LINE
  8
0
 62
4
 10
1.16306843E+02
 20
6.29847235E+01
 11
1.16306843E+02
 21
6.12997235E+01
  0
LINE
  8
0
 62
4
 10
1.16306843E+02
 20
6.29847235E+01
 11
1.17106843E+02
 21
6.29847235E+01
  0
LINE
  8
0
 62
4
 10
1.13591843E+02
 20
6.38847235E+01
 11
1.13451843E+02
 21
6.30847235E+01
  0
LINE
  8
0
 62
4
 10
1.09021843E+02
 20
6.38847235E+01
 11
1.09161843E+02
 21
6.30847235E+01
  0
LINE
  8
0
 62
4
 10
1.09161843E+02
 20
6.30847235E+01
 11
1.13451843E+02
 21
6.30847235E+01
  0
LINE
  8
0
 62
6
 10
1.12536843E+02
 20
6.51847235E+01
 11
1.12536843E+02
 21
6.46847235E+01
  0
LINE
  8
0
 62
6
 10
1.10076843E+02
 20
6.51847235E+01
 11
1.10076843E+02
 21
6.46847235E+01
  0
LINE
  8
0
 62
4
 10
1.07006843E+02
 20
6.38847235E+01
 11
1.07006843E+02
 21
5.81847235E+01
  0
LINE
  8
0
 62
4
 10
1.15606843E+02
 20
5.74847235E+01
 11
1.15606843E+02
 21
6.38847235E+01
  0
LINE
  8
0
 62
4
 10
1.08306843E+02
 20
6.38847235E+01
 11
1.14306843E+02
 21
6.38847235E+01
  0
LINE
  8
0
 62
4
 10
1.17106843E+02
 20
6.29847235E+01
 11
1.17106843E+02
 21
6.08397235E+01
  0
LINE
  8
0
 62
4
 10
1.15606843E+02
 20
6.06087235E+01
 11
1.15820948E+02
 21
6.07329042E+01
  0
LINE
  8
0
 62
4
 10
1.07956843E+02
 20
6.33847235E+01
 11
1.07956843E+02
 21
5.81847235E+01
  0
LINE
  8
0
 62
4
 10
1.07806843E+02
 20
6.33847235E+01
 11
1.07956843E+02
 21
6.33847235E+01
  0
LINE
  8
0
 62
4
 10
1.08056843E+02
 20
6.16847235E+01
 11
1.14556843E+02
 21
6.16847235E+01
  0
LINE
  8
0
 62
4
 10
1.08056843E+02
 20
6.09847235E+01
 11
1.14556843E+02
 21
6.09847235E+01
  0
LINE
  8
0
 62
4
 10
1.15731843E+02
 20
6.35097235E+01
 11
1.15731843E+02
 21
6.10097235E+01
  0
LINE
  8
0
 62
4
 10
1.16231843E+02
 20
6.35097235E+01
 11
1.16231843E+02
 21
6.10892275E+01
  0
LINE
  8
0
 62
4
 10
1.15731843E+02
 20
6.35097235E+01
 11
1.16231843E+02
 21
6.35097235E+01
  0
LINE
  8
0
 62
4
 10
1.12806843E+02
 20
6.56847235E+01
 11
1.12806843E+02
 21
6.46847235E+01
  0
LINE
  8
0
 62
4
 10
1.09806843E+02
 20
6.56847235E+01
 11
1.09806843E+02
 21
6.46847235E+01
  0
LINE
  8
0
 62
4
 10
1.07006843E+02
 20
5.81847235E+01
 11
1.07806843E+02
 21
5.81847235E+01
  0
LINE
  8
0
 62
4
 10
1.14806843E+02
 20
5.74847235E+01
 11
1.15606843E+02
 21
5.74847235E+01
  0
LINE
  8
0
 62
4
 10
1.08806843E+02
 20
6.56847235E+01
 11
1.13806843E+02
 21
6.56847235E+01
  0
LINE
  8
0
 62
4
 10
1.09806843E+02
 20
6.71847235E+01
 11
1.12806843E+02
 21
6.71847235E+01
  0
LINE
  8
0
 62
4
 10
1.08806843E+02
 20
6.61847235E+01
 11
1.08806843E+02
 21
6.56847235E+01
  0
LINE
  8
0
 62
4
 10
1.13806843E+02
 20
6.61847235E+01
 11
1.13806843E+02
 21
6.56847235E+01
  0
LINE
  8
0
 62
4
 10
1.09806843E+02
 20
6.51847235E+01
 11
1.12806843E+02
 21
6.51847235E+01
  0
ARC
  8
0
 62
4
 10
1.07806847E+02
 20
6.38847202E+01
 40
8.00003254E-01
 50
9.00000002E+01
 51
1.79999767E+02
  0
ARC
  8
0
 62
4
 10
1.14808506E+02
 20
6.38863861E+01
 40
7.98339134E-01
 50
3.59880678E+02
 51
9.01193227E+01
  0
ARC
  8
0
 62
4
 10
1.08306848E+02
 20
6.33847192E+01
 40
5.00004290E-01
 50
9.00000002E+01
 51
1.79999508E+02
  0
ARC
  8
0
 62
4
 10
1.14308506E+02
 20
6.33863861E+01
 40
4.98340176E-01
 50
3.59808845E+02
 51
9.01911544E+01
  0
ARC
  8
0
 62
4
 10
1.16606640E+02
 20
6.08378577E+01
 40
5.00207143E-01
 50
3.00013240E+02
 51
2.13706628E-01
  0
ARC
  8
0
 62
4
 10
1.15807992E+02
 20
6.13020792E+01
 40
4.98857363E-01
 50
3.30554632E+02
 51
3.59729437E+02
  0
ARC
  8
0
 62
4
 10
1.12808256E+02
 20
6.61861358E+01
 40
9.98588677E-01
 50
3.59918966E+02
 51
9.00810348E+01
  0
ARC
  8
0
 62
4
 10
1.09807096E+02
 20
6.61844707E+01
 40
1.00025280E+00
 50
9.00000002E+01
 51
1.79985521E+02
  0
LINE
  8
0
 62
4
 10
1.14556843E+02
 20
6.16847235E+01
 11
1.14556843E+02
 21
5.51847235E+01
  0
LINE
  8
0
 62
4
 10
1.14088725E+02
 20
5.47166056E+01
 11
1.14556843E+02
 21
5.51847235E+01
  0
LINE
  8
0
 62
4
 10
1.08524961E+02
 20
5.47166056E+01
 11
1.08056843E+02
 21
5.51847235E+01
  0
LINE
  8
0
 62
4
 10
1.08056843E+02
 20
5.77847235E+01
 11
1.08056843E+02
 21
5.51847235E+01
  0
LINE
  8
0
 62
4
 10
1.08056843E+02
 20
5.77847235E+01
 11
1.09256843E+02
 21
5.77847235E+01
  0
LINE
  8
0
 62
4
 10
1.08056843E+02
 20
5.81847235E+01
 11
1.09256843E+02
 21
5.81847235E+01
  0
LINE
  8
0
 62
4
 10
1.08056843E+02
 20
6.16847235E+01
 11
1.08056843E+02
 21
5.81847235E+01
  0
LINE
  8
0
 62
4
 10
1.09256843E+02
 20
5.59847235E+01
 11
1.13356843E+02
 21
5.59847235E+01
  0
LINE
  8
0
 62
4
 10
1.09256843E+02
 20
5.99847235E+01
 11
1.13356843E+02
 21
5.99847235E+01
  0
LINE
  8
0
 62
4
 10
1.10306843E+02
 20
6.02847235E+01
 11
1.12306843E+02
 21
6.02847235E+01
  0
LINE
  8
0
 62
4
 10
1.10006843E+02
 20
5.92847235E+01
 11
1.12606843E+02
 21
5.92847235E+01
  0
LINE
  8
0
 62
4
 10
1.10306843E+02
 20
6.02847235E+01
 11
1.10306843E+02
 21
5.99847235E+01
  0
LINE
  8
0
 62
4
 10
1.10306843E+02
 20
5.59847235E+01
 11
1.10306843E+02
 21
5.56847235E+01
  0
LINE
  8
0
 62
4
 10
1.09256843E+02
 20
5.99847235E+01
 11
1.09256843E+02
 21
5.59847235E+01
  0
LINE
  8
0
 62
4
 10
1.10006843E+02
 20
5.92847235E+01
 11
1.10006843E+02
 21
5.66847235E+01
  0
LINE
  8
0
 62
4
 10
1.09256843E+02
 20
5.99847235E+01
 11
1.10006843E+02
 21
5.92847235E+01
  0
LINE
  8
0
 62
4
 10
1.13356843E+02
 20
5.99847235E+01
 11
1.13356843E+02
 21
5.59847235E+01
  0
LINE
  8
0
 62
4
 10
1.12306843E+02
 20
6.02847235E+01
 11
1.12306843E+02
 21
5.99847235E+01
  0
LINE
  8
0
 62
4
 10
1.12306843E+02
 20
5.59847235E+01
 11
1.12306843E+02
 21
5.56847235E+01
  0
LINE
  8
0
 62
4
 10
1.12606843E+02
 20
5.92847235E+01
 11
1.12606843E+02
 21
5.66847235E+01
  0
LINE
  8
0
 62
4
 10
1.12606843E+02
 20
5.92847235E+01
 11
1.13356843E+02
 21
5.99847235E+01
  0
LINE
  8
0
 62
4
 10
1.12606843E+02
 20
5.66847235E+01
 11
1.13356843E+02
 21
5.59847235E+01
  0
LINE
  8
0
 62
4
 10
1.09806843E+02
 20
6.30847235E+01
 11
1.09806843E+02
 21
6.19847235E+01
  0
LINE
  8
0
 62
4
 10
1.12806843E+02
 20
6.30847235E+01
 11
1.12806843E+02
 21
6.19847235E+01
  0
LINE
  8
0
 62
6
 10
1.10076843E+02
 20
6.30847235E+01
 11
1.10076843E+02
 21
6.17147235E+01
  0
LINE
  8
0
 62
6
 10
1.12536843E+02
 20
6.30847235E+01
 11
1.12536843E+02
 21
6.17147235E+01
  0
LINE
  8
0
 62
4
 10
1.16518882E+02
 20
6.02094569E+01
 11
1.16856843E+02
 21
6.04047235E+01
  0
LINE
  8
0
 62
7
 10
1.02806843E+02
 20
5.09347235E+01
 11
1.02806843E+02
 21
4.82886249E+01
  0
ARC
  8
0
 62
7
 10
1.11306844E+02
 20
4.66847242E+01
 40
9.49882200E+00
 50
2.06511102E+02
 51
2.43488897E+02
  0
LINE
  8
0
 62
7
 10
1.07066843E+02
 20
3.81847235E+01
 11
1.09702942E+02
 21
3.81847235E+01
  0
ARC
  8
0
 62
7
 10
1.11301858E+02
 20
4.66797319E+01
 40
9.50105596E+00
 50
2.96605401E+02
 51
3.33529254E+02
  0
LINE
  8
0
 62
7
 10
1.19806843E+02
 20
5.09347235E+01
 11
1.19806843E+02
 21
4.82886249E+01
  0
ARC
  8
0
 62
7
 10
1.11306844E+02
 20
4.66847242E+01
 40
9.50328788E+00
 50
2.65650491E+01
 51
4.25351600E+01
  0
LINE
  8
0
 62
7
 10
1.07066843E+02
 20
5.51847235E+01
 11
1.08056843E+02
 21
5.51847235E+01
  0
CIRCLE
  8
0
 62
4
 10
1.11306843E+02
 20
4.66847250E+01
 40
8.50000000E+00
  0
ARC
  8
0
 62
7
 10
1.11301850E+02
 20
4.66797401E+01
 40
9.50105392E+00
 50
1.16470741E+02
 51
1.24471441E+02
  0
CIRCLE
  8
0
 62
4
 10
1.11306843E+02
 20
4.66847235E+01
 40
2.06700000E+00
  0
LINE
  8
0
  6
CENTER
 62
2
 10
1.01236843E+02
 20
4.66847235E+01
 11
1.21436843E+02
 21
4.66847235E+01
  0
CIRCLE
  8
0
 62
6
 10
1.11313500E+02
 20
4.66847250E+01
 40
2.50000000E+00
  0
CIRCLE
  8
0
 62
4
 10
1.11313500E+02
 20
4.66847250E+01
 40
8.00000000E+00
  0
LINE
  8
0
  6
CENTER
 62
6
 10
7.87960890E+00
 20
1.06994722E+02
 11
7.87960890E+00
 21
8.69947235E+01
  0
LINE
  8
0
  6
CENTER
 62
6
 10
-6.34659583E+00
 20
9.69947235E+01
 11
3.01226592E+01
 21
9.69947235E+01
  0
LINE
  8
0
 62
4
 10
1.23796089E+01
 20
8.83447235E+01
 11
1.23796089E+01
 21
1.05644723E+02
  0
LINE
  8
0
 62
4
 10
3.37960893E+00
 20
1.01294723E+02
 11
1.23796089E+01
 21
1.01294723E+02
  0
LINE
  8
0
 62
4
 10
3.37960893E+00
 20
1.01919723E+02
 11
1.23796089E+01
 21
1.01919723E+02
  0
LINE
  8
0
 62
4
 10
3.37960893E+00
 20
1.01419723E+02
 11
1.23796089E+01
 21
1.01419723E+02
  0
LINE
  8
0
 62
4
 10
3.37960893E+00
 20
1.04369723E+02
 11
1.23796089E+01
 21
1.04369723E+02
  0
LINE
  8
0
 62
4
 10
5.87960893E+00
 20
1.02794723E+02
 11
9.87960893E+00
 21
1.02794723E+02
  0
LINE
  8
0
 62
4
 10
5.87960893E+00
 20
1.01994723E+02
 11
9.87960890E+00
 21
1.01994723E+02
  0
LINE
  8
0
 62
4
 10
3.37960890E+00
 20
1.05644723E+02
 11
1.23796089E+01
 21
1.05644723E+02
  0
LINE
  8
0
 62
4
 10
9.87960890E+00
 20
1.02794723E+02
 11
9.87960890E+00
 21
1.01919723E+02
  0
LINE
  8
0
 62
4
 10
3.37960893E+00
 20
9.26947235E+01
 11
1.23796089E+01
 21
9.26947235E+01
  0
LINE
  8
0
 62
4
 10
3.37960890E+00
 20
8.83447235E+01
 11
1.23796089E+01
 21
8.83447235E+01
  0
LINE
  8
0
 62
6
 10
2.83166080E+01
 20
9.82947235E+01
 11
2.57166080E+01
 21
9.56947235E+01
  0
LINE
  8
0
 62
4
 10
2.33796089E+01
 20
9.56947235E+01
 11
2.57166080E+01
 21
9.56947235E+01
  0
LINE
  8
0
 62
4
 10
2.03796089E+01
 20
9.49947235E+01
 11
2.33796089E+01
 21
9.56947235E+01
  0
LINE
  8
0
 62
4
 10
2.33796089E+01
 20
9.82947235E+01
 11
2.33796089E+01
 21
9.56947235E+01
  0
LINE
  8
0
 62
4
 10
2.33796089E+01
 20
9.82947235E+01
 11
2.83166080E+01
 21
9.82947235E+01
  0
LINE
  8
0
 62
4
 10
2.03796089E+01
 20
9.89947235E+01
 11
2.33796089E+01
 21
9.82947235E+01
  0
LINE
  8
0
 62
4
 10
2.03796089E+01
 20
9.89947235E+01
 11
2.03796089E+01
 21
9.49947235E+01
  0
LINE
  8
0
 62
4
 10
1.23796089E+01
 20
1.00244723E+02
 11
1.48796089E+01
 21
1.00244723E+02
  0
LINE
  8
0
 62
4
 10
1.48796089E+01
 20
9.37447235E+01
 11
1.48796089E+01
 21
1.00244723E+02
  0
LINE
  8
0
 62
4
 10
1.48796089E+01
 20
9.89947235E+01
 11
2.03796089E+01
 21
9.89947235E+01
  0
LINE
  8
0
 62
4
 10
1.48796089E+01
 20
9.49947235E+01
 11
2.03796089E+01
 21
9.49947235E+01
  0
LINE
  8
0
 62
4
 10
1.23796089E+01
 20
9.37447235E+01
 11
1.48796089E+01
 21
9.37447235E+01
  0
LINE
  8
0
 62
4
 10
3.37960890E+00
 20
8.83447235E+01
 11
3.37960890E+00
 21
1.05644723E+02
  0
LINE
  8
0
 62
4
 10
5.87960890E+00
 20
1.01919723E+02
 11
5.87960890E+00
 21
1.02794723E+02
  0
LINE
  8
0
 62
4
 10
8.88704231E+00
 20
9.59921569E+01
 11
6.81704231E+00
 21
9.80521569E+01
  0
LINE
  8
0
 62
4
 10
6.81704231E+00
 20
9.59321569E+01
 11
8.93704231E+00
 21
9.80521569E+01
  0
CIRCLE
  8
0
 62
4
 10
7.87873366E+00
 20
9.69922650E+01
 40
2.50000000E+00
  0
LINE
  8
0
 62
4
 10
8.79608901E-01
 20
9.37447235E+01
 11
3.37960890E+00
 21
9.37447235E+01
  0
LINE
  8
0
 62
4
 10
-3.62039110E+00
 20
9.49947235E+01
 11
8.79608901E-01
 21
9.49947235E+01
  0
LINE
  8
0
 62
4
 10
-4.62039110E+00
 20
9.59947235E+01
 11
-3.62039110E+00
 21
9.49947235E+01
  0
LINE
  8
0
 62
4
 10
-4.62039110E+00
 20
9.79947235E+01
 11
-4.62039110E+00
 21
9.59947235E+01
  0
LINE
  8
0
 62
4
 10
8.79608901E-01
 20
1.00244723E+02
 11
3.37960890E+00
 21
1.00244723E+02
  0
LINE
  8
0
 62
4
 10
-3.62039110E+00
 20
9.89947235E+01
 11
8.79608901E-01
 21
9.89947235E+01
  0
LINE
  8
0
 62
4
 10
-3.62039110E+00
 20
9.89947235E+01
 11
-3.62039110E+00
 21
9.49947235E+01
  0
LINE
  8
0
 62
4
 10
8.79608901E-01
 20
9.37447235E+01
 11
8.79608901E-01
 21
1.00244723E+02
  0
LINE
  8
0
 62
4
 10
-4.62039110E+00
 20
9.79947235E+01
 11
-3.62039110E+00
 21
9.89947235E+01
  0
LINE
  8
0
 62
4
 10
-1.46451310E+02
 20
-4.87794624E+01
 11
-1.33511151E+02
 21
-3.11600902E+01
  0
LINE
  8
0
 62
4
 10
-1.04451310E+02
 20
-4.87794624E+01
 11
-1.17391469E+02
 21
-3.11600902E+01
  0
ARC
  8
0
 62
4
 10
-1.25451310E+02
 20
-3.70794624E+01
 40
1.00000000E+01
 50
3.62946002E+01
 51
1.43705400E+02
  0
LINE
  8
0
 62
4
 10
-1.46451310E+02
 20
-4.87794624E+01
 11
-1.04451310E+02
 21
-4.87794624E+01
  0
LINE
  8
0
 62
4
 10
-1.46451310E+02
 20
-5.10794624E+01
 11
-1.04451310E+02
 21
-5.10794624E+01
  0
LINE
  8
0
  6
CENTER
 62
6
 10
-1.40051310E+02
 20
-4.65248823E+01
 11
-1.40051310E+02
 21
-5.28390208E+01
  0
LINE
  8
0
  6
CENTER
 62
6
 10
-1.10851310E+02
 20
-4.65248823E+01
 11
-1.10851310E+02
 21
-5.28390208E+01
  0
LINE
  8
0
  6
CENTER
 62
6
 10
-1.25451310E+02
 20
-2.86807535E+01
 11
-1.25451310E+02
 21
-4.53551993E+01
  0
CIRCLE
  8
0
 62
4
 10
-1.25451310E+02
 20
-3.70794624E+01
 40
5.00000000E+00
  0
LINE
  8
0
  6
CENTER
 62
6
 10
-1.32951310E+02
 20
-3.70794624E+01
 11
-1.17951310E+02
 21
-3.70794624E+01
  0
LINE
  8
0
 62
4
 10
-1.04451310E+02
 20
-4.87794624E+01
 11
-1.04451310E+02
 21
-5.10794624E+01
  0
LINE
  8
0
 62
4
 10
-1.46451310E+02
 20
-4.87794624E+01
 11
-1.46451310E+02
 21
-5.10794624E+01
  0
LINE
  8
0
 62
4
 10
-7.85513101E+01
 20
-2.70794624E+01
 11
-7.85513101E+01
 21
-4.84812770E+01
  0
ARC
  8
0
 62
4
 10
-8.20494951E+01
 20
-4.75812775E+01
 40
1.19818493E+00
 50
2.69895815E+02
 51
1.04185117E-01
  0
LINE
  8
0
 62
4
 10
-9.35513101E+01
 20
-4.87794624E+01
 11
-8.20494951E+01
 21
-4.87794624E+01
  0
LINE
  8
0
 62
4
 10
-8.08513101E+01
 20
-2.70794624E+01
 11
-8.08513101E+01
 21
-4.75812775E+01
  0
LINE
  8
0
 62
4
 10
-9.01513101E+01
 20
-4.87794624E+01
 11
-9.01513101E+01
 21
-5.10794624E+01
  0
LINE
  8
0
 62
4
 10
-8.49513101E+01
 20
-4.87794624E+01
 11
-8.49513101E+01
 21
-5.10794624E+01
  0
LINE
  8
0
  6
CENTER
 62
6
 10
-8.33994770E+01
 20
-3.70794624E+01
 11
-7.60513101E+01
 21
-3.70794624E+01
  0
LINE
  8
0
  6
CENTER
 62
6
 10
-8.75513101E+01
 20
-4.65248823E+01
 11
-8.75513101E+01
 21
-5.28390208E+01
  0
ARC
  8
0
 62
4
 10
-8.11494955E+01
 20
-4.84812770E+01
 40
2.59818600E+00
 50
2.69959983E+02
 51
4.00167584E-02
  0
LINE
  8
0
 62
4
 10
-9.35513101E+01
 20
-4.87794624E+01
 11
-9.35513101E+01
 21
-5.10794624E+01
  0
LINE
  8
0
 62
4
 10
-9.35513101E+01
 20
-5.10794624E+01
 11
-8.11513101E+01
 21
-5.10794624E+01
  0
LINE
  8
0
 62
4
 10
-8.08513101E+01
 20
-2.70794624E+01
 11
-7.85513101E+01
 21
-2.70794624E+01
  0
LINE
  8
0
 62
4
 10
-7.85513101E+01
 20
-2.70794624E+01
 11
-7.85513101E+01
 21
-4.84812770E+01
  0
LINE
  8
0
 62
4
 10
-1.46451310E+02
 20
7.82053761E+00
 11
-1.46451310E+02
 21
1.42053761E+00
  0
LINE
  8
0
 62
4
 10
-1.46451310E+02
 20
-3.77946239E+00
 11
-1.46451310E+02
 21
-7.17946239E+00
  0
LINE
  8
0
 62
4
 10
-1.40051310E+02
 20
1.42053761E+00
 11
-1.46451310E+02
 21
1.42053761E+00
  0
LINE
  8
0
 62
4
 10
-1.40051310E+02
 20
-3.77946239E+00
 11
-1.46451310E+02
 21
-3.77946239E+00
  0
LINE
  8
0
  6
CENTER
 62
6
 10
-1.40051310E+02
 20
-5.01286574E+00
 11
-1.40051310E+02
 21
2.47403776E+00
  0
ARC
  8
0
 62
4
 10
-1.40051310E+02
 20
-1.17946239E+00
 40
2.60000000E+00
 50
2.70000000E+02
 51
9.00000002E+01
  0
LINE
  8
0
 62
4
 10
-1.10851310E+02
 20
1.42053761E+00
 11
-1.04451310E+02
 21
1.42053761E+00
  0
LINE
  8
0
 62
4
 10
-1.10851310E+02
 20
-3.77946239E+00
 11
-1.04451310E+02
 21
-3.77946239E+00
  0
LINE
  8
0
  6
CENTER
 62
6
 10
-1.10851310E+02
 20
-4.85243209E+00
 11
-1.10851310E+02
 21
2.36708199E+00
  0
ARC
  8
0
 62
4
 10
-1.10851310E+02
 20
-1.17946239E+00
 40
2.60000000E+00
 50
9.00000002E+01
 51
2.70000000E+02
  0
LINE
  8
0
 62
4
 10
-1.04451310E+02
 20
-3.77946239E+00
 11
-1.04451310E+02
 21
-7.17946239E+00
  0
LINE
  8
0
  6
CENTER
 62
6
 10
-1.43354274E+02
 20
-1.17946239E+00
 11
-1.08016687E+02
 21
-1.17946239E+00
  0
LINE
  8
0
  6
CENTER
 62
6
 10
-1.25451310E+02
 20
9.21053761E+00
 11
-1.25451310E+02
 21
-8.41946239E+00
  0
LINE
  8
0
 62
4
 10
-1.46451310E+02
 20
-7.17946239E+00
 11
-1.04451310E+02
 21
-7.17946239E+00
  0
LINE
  8
0
 62
4
 10
-1.46451310E+02
 20
7.82053761E+00
 11
-1.04451310E+02
 21
7.82053761E+00
  0
LINE
  8
0
 62
4
 10
-1.04451310E+02
 20
7.82053761E+00
 11
-1.04451310E+02
 21
1.42053761E+00
  0
LINE
  8
0
 62
4
 10
-1.46451310E+02
 20
5.52053761E+00
 11
-1.04451310E+02
 21
5.52053761E+00
  0
LINE
  8
0
 62
4
 10
-3.64513102E+01
 20
-2.75794624E+01
 11
5.54868982E+00
 21
-2.75794624E+01
  0
LINE
  8
0
 62
4
 10
-8.51310177E-01
 20
-3.49794624E+01
 11
5.54868982E+00
 21
-3.49794624E+01
  0
LINE
  8
0
 62
4
 10
-3.64513102E+01
 20
-3.49794624E+01
 11
-3.00513102E+01
 21
-3.49794624E+01
  0
LINE
  8
0
 62
4
 10
-3.64513101E+01
 20
-2.90794624E+01
 11
-3.64513101E+01
 21
-3.13794624E+01
  0
LINE
  8
0
 62
4
 10
-3.64513102E+01
 20
-2.75794624E+01
 11
-3.64513102E+01
 21
-3.49794624E+01
  0
LINE
  8
0
 62
4
 10
5.54868982E+00
 20
-2.75794624E+01
 11
5.54868982E+00
 21
-3.49794624E+01
  0
LINE
  8
0
 62
4
 10
-3.64513102E+01
 20
-4.01794624E+01
 11
-3.64513102E+01
 21
-4.75794624E+01
  0
LINE
  8
0
 62
4
 10
5.54868982E+00
 20
-4.01794624E+01
 11
5.54868982E+00
 21
-4.75794624E+01
  0
LINE
  8
0
 62
4
 10
-3.64513102E+01
 20
-4.75794624E+01
 11
5.54868982E+00
 21
-4.75794624E+01
  0
LINE
  8
0
 62
4
 10
-8.51310177E-01
 20
-4.01794624E+01
 11
5.54868982E+00
 21
-4.01794624E+01
  0
LINE
  8
0
 62
4
 10
-3.64513102E+01
 20
-4.01794624E+01
 11
-3.00513102E+01
 21
-4.01794624E+01
  0
LINE
  8
0
  6
CENTER
 62
6
 10
-3.30913102E+01
 20
-3.75794624E+01
 11
1.81878648E+00
 21
-3.75794624E+01
  0
LINE
  8
0
  6
CENTER
 62
6
 10
-8.51310177E-01
 20
-3.38194171E+01
 11
-8.51310177E-01
 21
-4.15223853E+01
  0
LINE
  8
0
  6
CENTER
 62
6
 10
-3.00513102E+01
 20
-3.38194171E+01
 11
-3.00513102E+01
 21
-4.15223853E+01
  0
CIRCLE
  8
0
 62
4
 10
-1.54513102E+01
 20
-3.75794624E+01
 40
5.00000000E+00
  0
ARC
  8
0
 62
4
 10
-3.00513102E+01
 20
-3.75794624E+01
 40
2.60000000E+00
 50
2.70000000E+02
 51
9.00000002E+01
  0
ARC
  8
0
 62
4
 10
-8.51310177E-01
 20
-3.75794624E+01
 40
2.60000000E+00
 50
9.00000002E+01
 51
2.70000000E+02
  0
LINE
  8
0
  6
CENTER
 62
6
 10
-1.54513102E+01
 20
-3.03794624E+01
 11
-1.54513102E+01
 21
-4.48894624E+01
  0
LINE
  8
0
  6
CENTER
 62
6
 10
1.81459605E+01
 20
-3.75794624E+01
 11
2.50850095E+01
 21
-3.75794624E+01
  0
LINE
  8
0
 62
4
 10
2.05486898E+01
 20
-2.75794624E+01
 11
2.28486898E+01
 21
-2.75794624E+01
  0
LINE
  8
0
 62
4
 10
2.05486898E+01
 20
-3.49794624E+01
 11
2.28486898E+01
 21
-3.49794624E+01
  0
LINE
  8
0
 62
4
 10
2.05486898E+01
 20
-4.75794624E+01
 11
2.28486898E+01
 21
-4.75794624E+01
  0
LINE
  8
0
 62
4
 10
2.05486898E+01
 20
-4.01794624E+01
 11
2.28486898E+01
 21
-4.01794624E+01
  0
LINE
  8
0
 62
4
 10
2.28486898E+01
 20
-2.75794624E+01
 11
2.28486898E+01
 21
-4.75794624E+01
  0
LINE
  8
0
 62
4
 10
2.05486898E+01
 20
-2.75794624E+01
 11
2.05486898E+01
 21
-4.75794624E+01
  0
LINE
  8
0
  6
CENTER
 62
6
 10
-8.51310148E-01
 20
5.85695177E+00
 11
-8.51310148E-01
 21
-3.44525795E-01
  0
LINE
  8
0
  6
CENTER
 62
6
 10
-3.00513101E+01
 20
5.85695177E+00
 11
-3.00513101E+01
 21
-3.44525795E-01
  0
LINE
  8
0
  6
CENTER
 62
6
 10
-1.54513101E+01
 20
5.85695177E+00
 11
-1.54513101E+01
 21
-3.44525795E-01
  0
LINE
  8
0
 62
4
 10
5.54868985E+00
 20
3.92053761E+00
 11
5.54868985E+00
 21
1.62053761E+00
  0
LINE
  8
0
 62
4
 10
-3.64513101E+01
 20
3.92053761E+00
 11
5.54868985E+00
 21
3.92053761E+00
  0
LINE
  8
0
 62
4
 10
-3.64513101E+01
 20
1.62053761E+00
 11
5.54868985E+00
 21
1.62053761E+00
  0
LINE
  8
0
 62
4
 10
-3.64513101E+01
 20
1.62053761E+00
 11
-3.64513101E+01
 21
3.92053761E+00
  0
LINE
  8
0
 62
4
 10
9.67857689E+01
 20
9.87448262E+00
 11
9.67857689E+01
 21
-7.12551738E+00
  0
LINE
  8
0
 62
4
 10
9.85357689E+01
 20
9.87448262E+00
 11
9.85357689E+01
 21
5.61712331E+00
  0
LINE
  8
0
 62
4
 10
1.04035769E+02
 20
9.87448262E+00
 11
1.04035769E+02
 21
5.61712331E+00
  0
LINE
  8
0
  6
CENTER
 62
6
 10
1.01285769E+02
 20
4.92448262E+00
 11
1.01285769E+02
 21
-2.30551738E+00
  0
LINE
  8
0
 62
4
 10
1.05785769E+02
 20
9.87448262E+00
 11
1.05785769E+02
 21
-7.12551738E+00
  0
LINE
  8
0
  6
CENTER
 62
6
 10
7.07119397E+01
 20
1.37448262E+00
 11
1.06585769E+02
 21
1.37448262E+00
  0
CIRCLE
  8
0
 62
6
 10
1.01285769E+02
 20
1.37448262E+00
 40
2.64999962E+00
  0
CIRCLE
  8
0
 62
4
 10
1.01285769E+02
 20
1.37448262E+00
 40
2.06700000E+00
  0
LINE
  8
0
 62
4
 10
9.67857689E+01
 20
-7.12551738E+00
 11
1.05785769E+02
 21
-7.12551738E+00
  0
LINE
  8
0
 62
4
 10
9.67857689E+01
 20
9.87448262E+00
 11
1.05785769E+02
 21
9.87448262E+00
  0
LINE
  8
0
 62
4
 10
1.04035769E+02
 20
-2.86815807E+00
 11
1.04035769E+02
 21
-7.12551738E+00
  0
LINE
  8
0
 62
4
 10
9.85357689E+01
 20
-2.86815807E+00
 11
9.85357689E+01
 21
-7.12551738E+00
  0
LINE
  8
0
 62
4
 10
9.85357689E+01
 20
5.61712331E+00
 11
1.04035769E+02
 21
5.61712331E+00
  0
LINE
  8
0
 62
4
 10
9.85357689E+01
 20
-2.86815807E+00
 11
1.04035769E+02
 21
-2.86815807E+00
  0
ARC
  8
0
 62
4
 10
1.02803626E+02
 20
1.37448262E+00
 40
6.01785714E+00
 50
1.35169766E+02
 51
2.24830234E+02
  0
ARC
  8
0
 62
4
 10
9.97679118E+01
 20
1.37448262E+00
 40
6.01785714E+00
 50
3.15169766E+02
 51
4.48302341E+01
  0
LINE
  8
0
  6
CENTER
 62
6
 10
1.26785976E+02
 20
1.22244826E+01
 11
1.26785976E+02
 21
-8.42551738E+00
  0
LINE
  8
0
 62
4
 10
1.18285976E+02
 20
5.61448262E+00
 11
1.18285976E+02
 21
-2.87551738E+00
  0
LINE
  8
0
 62
4
 10
1.35285976E+02
 20
5.61448262E+00
 11
1.35285976E+02
 21
-2.87551738E+00
  0
LINE
  8
0
  6
CENTER
 62
6
 10
1.15935976E+02
 20
1.37448262E+00
 11
1.37985976E+02
 21
1.37448262E+00
  0
LINE
  8
0
 62
4
 10
1.22545976E+02
 20
9.87448262E+00
 11
1.31025976E+02
 21
9.87448262E+00
  0
LINE
  8
0
 62
4
 10
1.22545976E+02
 20
-7.12551738E+00
 11
1.31025976E+02
 21
-7.12551738E+00
  0
CIRCLE
  8
0
 62
4
 10
1.26785976E+02
 20
1.37448262E+00
 40
8.50000000E+00
  0
ARC
  8
0
 62
4
 10
1.26785976E+02
 20
1.37448262E+00
 40
9.50000000E+00
 50
2.65253520E+01
 51
6.34746480E+01
  0
ARC
  8
0
 62
4
 10
1.26785976E+02
 20
1.37448262E+00
 40
9.50000000E+00
 50
1.16525352E+02
 51
1.53474648E+02
  0
ARC
  8
0
 62
4
 10
1.26785976E+02
 20
1.37448262E+00
 40
9.50000000E+00
 50
2.06525352E+02
 51
2.43474648E+02
  0
ARC
  8
0
 62
4
 10
1.26785976E+02
 20
1.37448262E+00
 40
9.50000000E+00
 50
2.96525352E+02
 51
3.33474648E+02
  0
ARC
  8
0
 62
4
 10
9.68902790E+01
 20
-4.81166263E+01
 40
5.25569749E+00
 50
1.20891728E-02
 51
2.24981188E+01
  0
ARC
  8
0
 62
4
 10
1.03412632E+02
 20
-4.81188070E+01
 40
5.26665618E+00
 50
1.57525579E+02
 51
1.79964213E+02
  0
LINE
  8
0
 62
4
 10
1.02145976E+02
 20
-3.61455174E+01
 11
1.02145976E+02
 21
-4.81155174E+01
  0
LINE
  8
0
 62
4
 10
9.81459764E+01
 20
-3.61455174E+01
 11
9.81459764E+01
 21
-4.81155174E+01
  0
LINE
  8
0
  6
CENTER
 62
6
 10
6.49534149E+01
 20
-4.21255174E+01
 11
1.06895976E+02
 21
-4.21255174E+01
  0
LINE
  8
0
 62
4
 10
9.57859764E+01
 20
-3.36255174E+01
 11
9.57859764E+01
 21
-5.06255174E+01
  0
LINE
  8
0
 62
4
 10
8.85459764E+01
 20
-3.36255174E+01
 11
8.85459764E+01
 21
-3.78828767E+01
  0
LINE
  8
0
 62
4
 10
9.40359764E+01
 20
-3.36255174E+01
 11
9.40359764E+01
 21
-3.78828767E+01
  0
LINE
  8
0
 62
4
 10
8.85459764E+01
 20
-4.63681581E+01
 11
8.85459764E+01
 21
-5.06255174E+01
  0
LINE
  8
0
 62
4
 10
9.40359764E+01
 20
-4.63681581E+01
 11
9.40359764E+01
 21
-5.06255174E+01
  0
ARC
  8
0
 62
4
 10
1.03413540E+02
 20
-3.61389954E+01
 40
5.26756798E+00
 50
1.57527464E+02
 51
1.80070940E+02
  0
ARC
  8
0
 62
4
 10
9.68893725E+01
 20
-3.61368251E+01
 40
5.25661112E+00
 50
3.59905256E+02
 51
2.24963394E+01
  0
LINE
  8
0
 62
4
 10
8.67959764E+01
 20
-3.36255174E+01
 11
8.67959764E+01
 21
-5.06255174E+01
  0
LINE
  8
0
 62
6
 10
1.02145976E+02
 20
-4.63135174E+01
 11
1.02785976E+02
 21
-4.63135174E+01
  0
LINE
  8
0
 62
6
 10
1.02145976E+02
 20
-3.79375174E+01
 11
1.02785976E+02
 21
-3.79375174E+01
  0
LINE
  8
0
 62
6
 10
9.72859764E+01
 20
-3.79375174E+01
 11
9.81459764E+01
 21
-3.79375174E+01
  0
LINE
  8
0
 62
6
 10
9.72859764E+01
 20
-4.63135174E+01
 11
9.81459764E+01
 21
-4.63135174E+01
  0
CIRCLE
  8
0
 62
4
 10
9.12959764E+01
 20
-4.21255174E+01
 40
2.06700000E+00
  0
LINE
  8
0
 62
4
 10
9.85459764E+01
 20
-4.61055174E+01
 11
1.01745976E+02
 21
-4.61055174E+01
  0
LINE
  8
0
 62
4
 10
9.85459764E+01
 20
-3.81555174E+01
 11
1.01745976E+02
 21
-3.81555174E+01
  0
LINE
  8
0
  6
CENTER
 62
6
 10
9.12959764E+01
 20
-3.85755174E+01
 11
9.12959764E+01
 21
-4.58055174E+01
  0
LINE
  8
0
 62
4
 10
9.57859764E+01
 20
-3.71255174E+01
 11
9.81459764E+01
 21
-3.71255174E+01
  0
LINE
  8
0
 62
4
 10
9.57859764E+01
 20
-4.71255174E+01
 11
9.81459764E+01
 21
-4.71255174E+01
  0
LINE
  8
0
 62
4
 10
1.03785976E+02
 20
-3.81255174E+01
 11
1.03785976E+02
 21
-4.61255174E+01
  0
LINE
  8
0
 62
4
 10
1.02785976E+02
 20
-3.71255174E+01
 11
1.03785976E+02
 21
-3.81255174E+01
  0
LINE
  8
0
 62
4
 10
1.02785976E+02
 20
-4.71255174E+01
 11
1.03785976E+02
 21
-4.61255174E+01
  0
LINE
  8
0
 62
4
 10
1.02785976E+02
 20
-3.71255174E+01
 11
1.02785976E+02
 21
-4.71255174E+01
  0
LINE
  8
0
 62
4
 10
1.02145976E+02
 20
-3.71255174E+01
 11
1.02785976E+02
 21
-3.71255174E+01
  0
LINE
  8
0
 62
4
 10
1.02145976E+02
 20
-4.71255174E+01
 11
1.02785976E+02
 21
-4.71255174E+01
  0
LINE
  8
0
 62
4
 10
9.72859764E+01
 20
-3.71255174E+01
 11
9.72859764E+01
 21
-4.71255174E+01
  0
ARC
  8
0
 62
4
 10
1.18104134E+02
 20
-4.21312637E+01
 40
1.99581583E+01
 50
1.68509581E+02
 51
1.79983503E+02
  0
ARC
  8
0
 62
4
 10
1.18105131E+02
 20
-4.21296727E+01
 40
1.99591548E+01
 50
1.79988071E+02
 51
1.91490126E+02
  0
ARC
  8
0
 62
4
 10
1.03414542E+02
 20
-3.61418475E+01
 40
5.26856735E+00
 50
1.80039910E+02
 51
2.02470298E+02
  0
ARC
  8
0
 62
4
 10
9.68883641E+01
 20
-3.61440274E+01
 40
5.25761248E+00
 50
3.37506029E+02
 51
3.59983763E+02
  0
ARC
  8
0
 62
4
 10
8.21990718E+01
 20
-4.21301299E+01
 40
1.99469051E+01
 50
1.32491591E-02
 51
1.14936665E+01
  0
ARC
  8
0
 62
4
 10
8.21980750E+01
 20
-4.21308037E+01
 40
1.99479021E+01
 50
3.48506619E+02
 51
1.51836672E-02
  0
CIRCLE
  8
0
 62
6
 10
9.12909764E+01
 20
-4.21255296E+01
 40
2.64999962E+00
  0
LINE
  8
0
 62
4
 10
8.67959764E+01
 20
-5.06255174E+01
 11
9.57859764E+01
 21
-5.06255174E+01
  0
LINE
  8
0
 62
4
 10
8.67959764E+01
 20
-3.36255174E+01
 11
9.57859764E+01
 21
-3.36255174E+01
  0
ARC
  8
0
 62
4
 10
9.68893697E+01
 20
-4.81142275E+01
 40
5.25660688E+00
 50
3.37503852E+02
 51
3.59985940E+02
  0
ARC
  8
0
 62
4
 10
1.03413539E+02
 20
-4.81120472E+01
 40
5.26756375E+00
 50
1.80037745E+02
 51
2.02472463E+02
  0
LINE
  8
0
 62
4
 10
9.85459764E+01
 20
-3.41255174E+01
 11
1.01745976E+02
 21
-3.41255174E+01
  0
LINE
  8
0
 62
4
 10
9.85459764E+01
 20
-5.01255174E+01
 11
1.01745976E+02
 21
-5.01255174E+01
  0
LINE
  8
0
 62
4
 10
8.85459764E+01
 20
-3.78828767E+01
 11
9.40359764E+01
 21
-3.78828767E+01
  0
LINE
  8
0
 62
4
 10
8.85459764E+01
 20
-4.63681581E+01
 11
9.40359764E+01
 21
-4.63681581E+01
  0
ARC
  8
0
 62
4
 10
9.28138336E+01
 20
-4.21255174E+01
 40
6.01785714E+00
 50
1.35169766E+02
 51
2.24830234E+02
  0
ARC
  8
0
 62
4
 10
8.97681193E+01
 20
-4.21255174E+01
 40
6.01785714E+00
 50
3.15169766E+02
 51
4.48302341E+01
  0
CIRCLE
  8
0
 62
4
 10
1.26785976E+02
 20
-4.21255159E+01
 40
7.00000000E+00
  0
LINE
  8
0
 62
4
 10
1.19785975E+02
 20
-3.80840647E+01
 11
1.26785976E+02
 21
-3.40426121E+01
  0
LINE
  8
0
 62
4
 10
1.19785975E+02
 20
-4.61669700E+01
 11
1.19785975E+02
 21
-3.80840647E+01
  0
LINE
  8
0
 62
4
 10
1.26785976E+02
 20
-5.02084227E+01
 11
1.19785975E+02
 21
-4.61669700E+01
  0
LINE
  8
0
 62
4
 10
1.33785978E+02
 20
-4.61669700E+01
 11
1.26785976E+02
 21
-5.02084227E+01
  0
LINE
  8
0
 62
4
 10
1.33785978E+02
 20
-3.80840647E+01
 11
1.33785978E+02
 21
-4.61669700E+01
  0
LINE
  8
0
 62
4
 10
1.26785976E+02
 20
-3.40426121E+01
 11
1.33785978E+02
 21
-3.80840647E+01
  0
LINE
  8
0
  6
CENTER
 62
6
 10
1.15935976E+02
 20
-4.21255174E+01
 11
1.37985976E+02
 21
-4.21255174E+01
  0
LINE
  8
0
  6
CENTER
 62
6
 10
1.26785976E+02
 20
-3.12755174E+01
 11
1.26785976E+02
 21
-5.19255174E+01
  0
CIRCLE
  8
0
 62
6
 10
1.26785976E+02
 20
-4.21255174E+01
 40
4.18800000E+00
  0
LINE
  8
0
 62
4
 10
1.18285976E+02
 20
-3.78828767E+01
 11
1.18285976E+02
 21
-4.63681581E+01
  0
LINE
  8
0
 62
4
 10
1.35285976E+02
 20
-3.78855174E+01
 11
1.35285976E+02
 21
-4.63755174E+01
  0
LINE
  8
0
 62
4
 10
1.22543336E+02
 20
-3.36255174E+01
 11
1.31028617E+02
 21
-3.36255174E+01
  0
LINE
  8
0
 62
4
 10
1.22543336E+02
 20
-5.06255174E+01
 11
1.31028617E+02
 21
-5.06255174E+01
  0
CIRCLE
  8
0
 62
4
 10
1.26785976E+02
 20
-4.21255174E+01
 40
5.00000000E+00
  0
CIRCLE
  8
0
 62
4
 10
1.26785976E+02
 20
-4.21255174E+01
 40
8.50000000E+00
  0
ARC
  8
0
 62
4
 10
1.26785976E+02
 20
-4.21255174E+01
 40
9.50000000E+00
 50
2.65253520E+01
 51
6.34746480E+01
  0
ARC
  8
0
 62
4
 10
1.26785976E+02
 20
-4.21255174E+01
 40
9.50000000E+00
 50
1.16525352E+02
 51
1.53474648E+02
  0
ARC
  8
0
 62
4
 10
1.26785976E+02
 20
-4.21255174E+01
 40
9.50000000E+00
 50
2.06525352E+02
 51
2.43474648E+02
  0
ARC
  8
0
 62
4
 10
1.26785976E+02
 20
-4.21255174E+01
 40
9.50000000E+00
 50
2.96525352E+02
 51
3.33474648E+02
  0
TEXT
  8
0
 62
7
 10
-1.87107344E+02
 20
1.22850006E+02
 40
4.50000000E+00
  1
NEW PEN CYLINDER
 41
1.08108108E+00
  7
MONOTXT
  0
TEXT
  8
0
 62
7
 10
1.34942863E+02
 20
1.22850006E+02
 40
4.50000000E+00
  1
Ver. 1.1
 41
1.08108085E+00
  7
MONOTXT
  0
TEXT
  8
0
 62
7
 10
-1.85214688E+02
 20
1.05350006E+02
 40
4.50000000E+00
  1
MODEL:PBDATS16*ST1(20)*ST2(20)-ZC230
 41
1.00000000E+00
  7
MONOTXT
  0
LINE
  8
0
 62
7
 10
7.96528162E+01
 20
9.87448262E+00
 11
9.67857689E+01
 21
9.87448262E+00
  0
LINE
  8
0
 62
7
 10
7.37609310E+01
 20
-3.36255174E+01
 11
8.67959764E+01
 21
-3.36255174E+01
  0
LINE
  8
0
 62
2
 10
6.39459764E+01
 20
-5.06255174E+01
 11
7.37609310E+01
 21
-3.36255174E+01
  0
LINE
  8
0
 62
7
 10
6.39459764E+01
 20
-5.06255174E+01
 11
8.67959764E+01
 21
-5.06255174E+01
  0
LINE
  8
0
 62
2
 10
6.98378616E+01
 20
-7.12551738E+00
 11
7.96528162E+01
 21
9.87448262E+00
  0
LINE
  8
0
 62
7
 10
6.98378616E+01
 20
-7.12551738E+00
 11
9.67857689E+01
 21
-7.12551738E+00
  0
TEXT
  8
0
 10
4.92026726E+01
 20
7.18079973E+01
 40
3.20000005E+00
  1
STRETCH LINE A
 41
1.09375000E+00
  7
MONOTXT
  0
TEXT
  8
0
 10
-4.27973274E+01
 20
7.18079973E+01
 40
3.20000005E+00
  1
STRETCH LINE B
 41
1.09375000E+00
  7
MONOTXT
  0
TEXT
  8
0
 62
7
 10
2.23500030E+01
 20
-1.27100000E+02
 40
3.20000005E+00
  1
-20
 41
1.00000000E+00
  7
MONOTXT
  0
LINE
  8
0
 62
7
 10
1.64800003E+02
 20
-7.05000000E+01
 11
1.64800003E+02
 21
-9.45000000E+01
  0
LINE
  8
0
 62
7
 10
1.52800003E+02
 20
-7.05000000E+01
 11
1.52800003E+02
 21
-9.45000000E+01
  0
LINE
  8
0
 62
7
 10
1.40800003E+02
 20
-7.05000000E+01
 11
1.40800003E+02
 21
-9.45000000E+01
  0
LINE
  8
0
 62
7
 10
1.28800003E+02
 20
-7.05000000E+01
 11
1.28800003E+02
 21
-9.45000000E+01
  0
LINE
  8
0
 62
7
 10
1.16800003E+02
 20
-7.05000000E+01
 11
1.16800003E+02
 21
-9.45000000E+01
  0
LINE
  8
0
 62
7
 10
1.04800003E+02
 20
-7.05000000E+01
 11
1.04800003E+02
 21
-9.45000000E+01
  0
LINE
  8
0
 62
7
 10
9.28000031E+01
 20
-7.05000000E+01
 11
9.28000031E+01
 21
-9.45000000E+01
  0
LINE
  8
0
 62
7
 10
8.08000031E+01
 20
-7.05000000E+01
 11
8.08000031E+01
 21
-9.45000000E+01
  0
TEXT
  8
0
 62
7
 10
1.56062528E+02
 20
-9.31000000E+01
 40
3.20000005E+00
  1
40
 41
1.00000000E+00
  7
MONOTXT
  0
TEXT
  8
0
 62
7
 10
1.56062528E+02
 20
-8.10963774E+01
 40
3.20000005E+00
  1
60
 41
1.00000000E+00
  7
MONOTXT
  0
TEXT
  8
0
 62
7
 10
1.44062528E+02
 20
-9.31000000E+01
 40
3.20000005E+00
  1
35
 41
1.00000000E+00
  7
MONOTXT
  0
TEXT
  8
0
 62
7
 10
1.44062528E+02
 20
-8.10963774E+01
 40
3.20000005E+00
  1
55
 41
1.00000000E+00
  7
MONOTXT
  0
TEXT
  8
0
 62
7
 10
1.32062528E+02
 20
-9.31000000E+01
 40
3.20000005E+00
  1
30
 41
1.00000000E+00
  7
MONOTXT
  0
TEXT
  8
0
 62
7
 10
1.32062528E+02
 20
-8.10963774E+01
 40
3.20000005E+00
  1
50
 41
1.00000000E+00
  7
MONOTXT
  0
TEXT
  8
0
 62
7
 10
1.20062528E+02
 20
-9.31000000E+01
 40
3.20000005E+00
  1
25
 41
1.00000000E+00
  7
MONOTXT
  0
TEXT
  8
0
 62
7
 10
1.20062528E+02
 20
-8.10963774E+01
 40
3.20000005E+00
  1
45
 41
1.00000000E+00
  7
MONOTXT
  0
TEXT
  8
0
 62
7
 10
1.08062528E+02
 20
-9.31000000E+01
 40
3.20000005E+00
  1
20
 41
1.00000000E+00
  7
MONOTXT
  0
TEXT
  8
0
 62
7
 10
1.08062528E+02
 20
-8.10963774E+01
 40
3.20000005E+00
  1
40
 41
1.00000000E+00
  7
MONOTXT
  0
TEXT
  8
0
 62
7
 10
9.60625279E+01
 20
-9.31000000E+01
 40
3.20000005E+00
  1
15
 41
1.00000000E+00
  7
MONOTXT
  0
TEXT
  8
0
 62
7
 10
9.60625279E+01
 20
-8.10963774E+01
 40
3.20000005E+00
  1
35
 41
1.00000000E+00
  7
MONOTXT
  0
TEXT
  8
0
 62
7
 10
8.40625279E+01
 20
-9.31000000E+01
 40
3.20000005E+00
  1
10
 41
1.00000000E+00
  7
MONOTXT
  0
TEXT
  8
0
 62
7
 10
8.40625279E+01
 20
-8.10963774E+01
 40
3.20000005E+00
  1
30
 41
1.00000000E+00
  7
MONOTXT
  0
TEXT
  8
0
 62
7
 10
7.36625279E+01
 20
-9.31000000E+01
 40
3.20000005E+00
  1
5
 41
1.00000000E+00
  7
MONOTXT
  0
TEXT
  8
0
 62
7
 10
7.20625279E+01
 20
-8.10963774E+01
 40
3.20000005E+00
  1
25
 41
1.00000000E+00
  7
MONOTXT
  0
TEXT
  8
0
 62
7
 10
5.35570026E+01
 20
-6.88802818E+01
 40
3.20000005E+00
  1
STRETCH LIST(ST1)
 41
1.03658537E+00
  7
MONOTXT
  0
TEXT
  8
0
 62
7
 10
1.53453808E+02
 20
-6.88802818E+01
 40
3.20000005E+00
  1
(mm)
 41
1.00000000E+00
  7
MONOTXT
  0
TEXT
  8
0
 62
7
 10
7.16252795E+00
 20
-9.31000000E+01
 40
3.20000005E+00
  1
A
 41
1.00000000E+00
  7
MONOTXT
  0
TEXT
  8
0
 62
7
 10
-3.04100308E+00
 20
-8.26763750E+01
 40
3.20000005E+00
  1
STRETCH
 41
1.00000000E+00
  7
MONOTXT
  0
TEXT
  8
0
 62
7
 10
-3.04100308E+00
 20
-8.74763751E+01
 40
3.20000005E+00
  1
  PLACE
 41
1.20689655E+00
  7
MONOTXT
  0
TEXT
  8
0
 62
7
 10
2.24625279E+01
 20
-9.31000000E+01
 40
3.20000005E+00
  1
-15
 41
1.00000000E+00
  7
MONOTXT
  0
TEXT
  8
0
 62
7
 10
3.44625279E+01
 20
-9.31000000E+01
 40
3.20000005E+00
  1
-10
 41
1.00000000E+00
  7
MONOTXT
  0
TEXT
  8
0
 62
7
 10
4.80625279E+01
 20
-9.31000000E+01
 40
3.20000005E+00
  1
-5
 41
1.00000000E+00
  7
MONOTXT
  0
TEXT
  8
0
 62
7
 10
6.16625279E+01
 20
-9.31000000E+01
 40
3.20000005E+00
  1
0
 41
1.00000000E+00
  7
MONOTXT
  0
TEXT
  8
0
 62
7
 10
2.56625279E+01
 20
-8.10963774E+01
 40
3.20000005E+00
  1
5
 41
1.00000000E+00
  7
MONOTXT
  0
TEXT
  8
0
 62
7
 10
3.60625279E+01
 20
-8.10963774E+01
 40
3.20000005E+00
  1
10
 41
1.00000000E+00
  7
MONOTXT
  0
TEXT
  8
0
 62
7
 10
4.80625279E+01
 20
-8.10963774E+01
 40
3.20000005E+00
  1
15
 41
1.00000000E+00
  7
MONOTXT
  0
TEXT
  8
0
 62
7
 10
6.00625279E+01
 20
-8.10963774E+01
 40
3.20000005E+00
  1
20
 41
1.00000000E+00
  7
MONOTXT
  0
TEXT
  8
0
 62
7
 10
1.62527831E-01
 20
-7.50963812E+01
 40
3.20000005E+00
  1
STROKE
 41
1.00000000E+00
  7
MONOTXT
  0
LINE
  8
0
 62
7
 10
-4.19999695E+00
 20
-7.05000000E+01
 11
-4.19999695E+00
 21
-9.45000000E+01
  0
LINE
  8
0
 62
7
 10
-4.19999695E+00
 20
-7.65000000E+01
 11
1.86900031E+01
 21
-7.65000000E+01
  0
LINE
  8
0
 62
7
 10
2.08000031E+01
 20
-8.85000000E+01
 11
1.86900031E+01
 21
-7.65000000E+01
  0
LINE
  8
0
 62
7
 10
-4.19999695E+00
 20
-8.85000000E+01
 11
1.64800003E+02
 21
-8.85000000E+01
  0
LINE
  8
0
 62
7
 10
-4.19999695E+00
 20
-7.05000000E+01
 11
1.64800003E+02
 21
-7.05000000E+01
  0
LINE
  8
0
 62
7
 10
6.88000031E+01
 20
-7.05000000E+01
 11
6.88000031E+01
 21
-9.45000000E+01
  0
LINE
  8
0
 62
7
 10
5.68000031E+01
 20
-7.05000000E+01
 11
5.68000031E+01
 21
-9.45000000E+01
  0
LINE
  8
0
 62
7
 10
4.48000031E+01
 20
-7.05000000E+01
 11
4.48000031E+01
 21
-9.45000000E+01
  0
LINE
  8
0
 62
7
 10
3.28000031E+01
 20
-7.05000000E+01
 11
3.28000031E+01
 21
-9.45000000E+01
  0
LINE
  8
0
 62
7
 10
2.08000031E+01
 20
-7.05000000E+01
 11
2.08000031E+01
 21
-9.45000000E+01
  0
LINE
  8
0
 62
7
 10
-4.19999695E+00
 20
-9.45000000E+01
 11
1.64800003E+02
 21
-9.45000000E+01
  0
TEXT
  8
0
 62
7
 10
2.35570026E+01
 20
-1.02880282E+02
 40
3.20000005E+00
  1
STRETCH LIST(ST2)
 41
1.03658537E+00
  7
MONOTXT
  0
TEXT
  8
0
 62
7
 10
9.34538078E+01
 20
-1.02880282E+02
 40
3.20000005E+00
  1
(mm)
 41
1.00000000E+00
  7
MONOTXT
  0
LINE
  8
0
 62
7
 10
-4.19999695E+00
 20
-1.28500000E+02
 11
1.04800003E+02
 21
-1.28500000E+02
  0
LINE
  8
0
 62
7
 10
2.08000031E+01
 20
-1.04500000E+02
 11
2.08000031E+01
 21
-1.28500000E+02
  0
LINE
  8
0
 62
7
 10
3.28000031E+01
 20
-1.04500000E+02
 11
3.28000031E+01
 21
-1.28500000E+02
  0
LINE
  8
0
 62
7
 10
4.48000031E+01
 20
-1.04500000E+02
 11
4.48000031E+01
 21
-1.28500000E+02
  0
LINE
  8
0
 62
7
 10
5.68000031E+01
 20
-1.04500000E+02
 11
5.68000031E+01
 21
-1.28500000E+02
  0
LINE
  8
0
 62
7
 10
6.88000031E+01
 20
-1.04500000E+02
 11
6.88000031E+01
 21
-1.28500000E+02
  0
LINE
  8
0
 62
7
 10
-4.19999695E+00
 20
-1.04500000E+02
 11
1.04800003E+02
 21
-1.04500000E+02
  0
LINE
  8
0
 62
7
 10
-4.19999695E+00
 20
-1.22500000E+02
 11
1.04800003E+02
 21
-1.22500000E+02
  0
LINE
  8
0
 62
7
 10
2.08000031E+01
 20
-1.22500000E+02
 11
1.86900031E+01
 21
-1.10500000E+02
  0
LINE
  8
0
 62
7
 10
-4.19999695E+00
 20
-1.10500000E+02
 11
1.86900031E+01
 21
-1.10500000E+02
  0
LINE
  8
0
 62
7
 10
-4.19999695E+00
 20
-1.04500000E+02
 11
-4.19999695E+00
 21
-1.28500000E+02
  0
TEXT
  8
0
 62
7
 10
1.62527831E-01
 20
-1.09096381E+02
 40
3.20000005E+00
  1
STROKE
 41
1.00000000E+00
  7
MONOTXT
  0
TEXT
  8
0
 62
7
 10
7.20625279E+01
 20
-1.15096377E+02
 40
3.20000005E+00
  1
20
 41
1.00000000E+00
  7
MONOTXT
  0
TEXT
  8
0
 62
7
 10
6.00625279E+01
 20
-1.15096377E+02
 40
3.20000005E+00
  1
15
 41
1.00000000E+00
  7
MONOTXT
  0
TEXT
  8
0
 62
7
 10
4.80625279E+01
 20
-1.15096377E+02
 40
3.20000005E+00
  1
10
 41
1.00000000E+00
  7
MONOTXT
  0
TEXT
  8
0
 62
7
 10
3.76625279E+01
 20
-1.15096377E+02
 40
3.20000005E+00
  1
5
 41
1.00000000E+00
  7
MONOTXT
  0
TEXT
  8
0
 62
7
 10
7.36625279E+01
 20
-1.27100000E+02
 40
3.20000005E+00
  1
0
 41
1.00000000E+00
  7
MONOTXT
  0
TEXT
  8
0
 62
7
 10
6.00625279E+01
 20
-1.27100000E+02
 40
3.20000005E+00
  1
-5
 41
1.00000000E+00
  7
MONOTXT
  0
TEXT
  8
0
 62
7
 10
4.64625279E+01
 20
-1.27100000E+02
 40
3.20000005E+00
  1
-10
 41
1.00000000E+00
  7
MONOTXT
  0
TEXT
  8
0
 62
7
 10
3.44625279E+01
 20
-1.27100000E+02
 40
3.20000005E+00
  1
-15
 41
1.00000000E+00
  7
MONOTXT
  0
TEXT
  8
0
 62
7
 10
-3.04100308E+00
 20
-1.16676375E+02
 40
3.20000005E+00
  1
STRETCH
 41
1.00000000E+00
  7
MONOTXT
  0
TEXT
  8
0
 62
7
 10
-3.04100308E+00
 20
-1.21476375E+02
 40
3.20000005E+00
  1
  PLACE
 41
1.20689655E+00
  7
MONOTXT
  0
TEXT
  8
0
 62
7
 10
7.16252795E+00
 20
-1.27100000E+02
 40
3.20000005E+00
  1
B
 41
1.00000000E+00
  7
MONOTXT
  0
TEXT
  8
0
 62
7
 10
8.40625279E+01
 20
-1.15096377E+02
 40
3.20000005E+00
  1
25
 41
1.00000000E+00
  7
MONOTXT
  0
TEXT
  8
0
 62
7
 10
8.56625279E+01
 20
-1.27100000E+02
 40
3.20000005E+00
  1
5
 41
1.00000000E+00
  7
MONOTXT
  0
TEXT
  8
0
 62
7
 10
9.60625279E+01
 20
-1.15096377E+02
 40
3.20000005E+00
  1
30
 41
1.00000000E+00
  7
MONOTXT
  0
TEXT
  8
0
 62
7
 10
9.60625279E+01
 20
-1.27100000E+02
 40
3.20000005E+00
  1
10
 41
1.00000000E+00
  7
MONOTXT
  0
LINE
  8
0
 62
7
 10
8.08000031E+01
 20
-1.04500000E+02
 11
8.08000031E+01
 21
-1.28500000E+02
  0
LINE
  8
0
 62
7
 10
9.28000031E+01
 20
-1.04500000E+02
 11
9.28000031E+01
 21
-1.28500000E+02
  0
LINE
  8
0
 62
7
 10
1.04800003E+02
 20
-1.04500000E+02
 11
1.04800003E+02
 21
-1.28500000E+02
  0
TEXT
  8
0
 62
7
 10
2.55500030E+01
 20
-1.15100000E+02
 40
3.20000005E+00
  1
0
 41
1.00000000E+00
  7
MONOTXT
  0
LINE
  8
0
 62
7
 10
1.09800003E+02
 20
-1.18500000E+02
 11
1.09800003E+02
 21
-1.33500000E+02
  0
LINE
  8
0
 62
7
 10
1.09800003E+02
 20
-1.18500000E+02
 11
1.94800003E+02
 21
-1.18500000E+02
  0
LINE
  8
0
 62
7
 10
1.09800003E+02
 20
1.32600006E+02
 11
1.09800003E+02
 21
1.17600006E+02
  0
LINE
  8
0
 62
7
 10
1.09800003E+02
 20
1.17600006E+02
 11
1.94800003E+02
 21
1.17600006E+02
  0
LINE
  8
0
 62
7
 10
-1.94250000E+02
 20
1.17600006E+02
 11
-1.09250000E+02
 21
1.17600006E+02
  0
LINE
  8
0
 62
7
 10
-1.09250000E+02
 20
1.32600006E+02
 11
-1.09250000E+02
 21
1.17600006E+02
  0
TEXT
  8
0
 62
7
 10
1.15249721E+02
 20
-1.29150000E+02
 40
6.30000019E+00
  1
KOGANEI CORP.
 41
1.04838710E+00
  7
MONOTXT
  0
LINE
  8
0
 62
7
 10
-1.94250000E+02
 20
1.32600006E+02
 11
1.94800003E+02
 21
1.32600006E+02
  0
LINE
  8
0
 62
7
 10
1.94800003E+02
 20
1.32600006E+02
 11
1.94800003E+02
 21
-1.33500000E+02
  0
LINE
  8
0
 62
7
 10
-1.94250000E+02
 20
1.32600006E+02
 11
-1.94250000E+02
 21
-1.33500000E+02
  0
LINE
  8
0
 62
7
 10
-1.94250000E+02
 20
-1.33500000E+02
 11
1.94800003E+02
 21
-1.33500000E+02
  0
ENDSEC
  0
EOF
