  0
SECTION
  2
HEADER
  9
$ACADVER
  1
AC1003
  9
$EXTMIN
 10
-1.38399994E+02
 20
-9.48000031E+01
  9
$EXTMAX
 10
1.38350006E+02
 20
9.45000000E+01
  9
$LIMMIN
 10
-1.38400994E+02
 20
-9.48010031E+01
  9
$LIMMAX
 10
1.38351006E+02
 20
9.45010000E+01
  9
$SNAPUNIT
 10
1
 20
1
  9
$SNAPBASE
 10
0
 20
0
  9
$GRIDMODE
 70
0
  9
$GRIDUNIT
 10
0
 20
0
  9
$LTSCALE
 40
4.61250000E+00
  9
$TEXTSIZE
 40
3.2
  9
$DIMTAD
 70
0
  9
$LUNITS
 70
2
  9
$LUPREC
 70
4
  9
$FILLETRAD
 40
0
  9
$AUNITS
 70
0
  9
$AUPREC
 70
0
  0
ENDSEC
  0
SECTION
  2
TABLES
  0
TABLE
  2
LTYPE
 70
2
  0
LTYPE
  2
CONTINUOUS
 70
64
  3
Solid-Line
 72
65
 73
0
 40
0
  0
LTYPE
  2
DASHED
 70
64
  3
DASHED
 72
65
 73
2
 40
.75
 49
.5
 49
-.25
  0
LTYPE
  2
HIDDEN
 70
64
  3
HIDDEN
 72
65
 73
2
 40
.375
 49
.25
 49
-.125
  0
LTYPE
  2
CENTER
 70
64
  3
CENTER
 72
65
 73
4
 40
2
 49
1.25
 49
-.25
 49
.25
 49
-.25
  0
LTYPE
  2
PHANTOM
 70
64
  3
PHANTOM
 72
65
 73
6
 40
2.5
 49
1.25
 49
-.25
 49
.25
 49
-.25
 49
.25
 49
-.25
  0
ENDTAB
  0
TABLE
  2
LAYER
 70
1
  0
LAYER
  2
1
 70
0
 62
7
  6
CONTINUOUS
 0
ENDTAB
  0
TABLE
  2
STYLE
 70
2
  0
STYLE
  2
MONOTXT
 70
0
 40
0
 41
1
 50
0
 71
0
 42
.2
  3
monotxt
  0
STYLE
  2
BIGFONT
 70
0
 40
0
 41
1
 50
0
 71
0
 42
.2
  3
txt
  4
bigfont
  0
ENDTAB
  0
ENDSEC
  0
SECTION
  2
ENTITIES
  0
ARC
  8
0
 62
4
 10
-2.36130471E+01
 20
3.54511874E+01
 40
1.00166704E+00
 50
9.52762946E-02
 51
8.99047236E+01
  0
ARC
  8
0
 62
4
 10
-2.66105899E+01
 20
3.54520615E+01
 40
1.00079180E+00
 50
9.00000002E+01
 51
1.79954687E+02
  0
LINE
  8
0
  6
CENTER
 62
6
 10
-2.51113814E+01
 20
3.89628530E+01
 11
-2.51113814E+01
 21
1.15328530E+01
  0
LINE
  8
0
 62
7
 10
3.13771149E+01
 20
1.34528530E+01
 11
4.43771149E+01
 21
1.34528530E+01
  0
LINE
  8
0
 62
7
 10
3.38771149E+01
 20
2.44528530E+01
 11
4.43771149E+01
 21
2.44528530E+01
  0
LINE
  8
0
 62
7
 10
-2.06113814E+01
 20
1.34528530E+01
 11
2.23771149E+01
 21
1.34528530E+01
  0
LINE
  8
0
 62
7
 10
-1.81113814E+01
 20
2.44528530E+01
 11
1.98771149E+01
 21
2.44528530E+01
  0
LINE
  8
0
 62
4
 10
-1.81113814E+01
 20
2.92528530E+01
 11
-1.26113814E+01
 21
2.92528530E+01
  0
LINE
  8
0
 62
4
 10
-1.81113814E+01
 20
2.52528530E+01
 11
-1.26113814E+01
 21
2.52528530E+01
  0
LINE
  8
0
 62
4
 10
-3.21113814E+01
 20
2.70528530E+01
 11
-3.21113814E+01
 21
2.39528530E+01
  0
LINE
  8
0
 62
4
 10
-1.81113814E+01
 20
2.70528530E+01
 11
-1.81113814E+01
 21
2.39528530E+01
  0
LINE
  8
0
 62
4
 10
-2.96113814E+01
 20
2.74528530E+01
 11
-2.06113814E+01
 21
2.74528530E+01
  0
LINE
  8
0
 62
4
 10
-2.96113814E+01
 20
2.74528530E+01
 11
-2.96113814E+01
 21
3.39528530E+01
  0
LINE
  8
0
 62
4
 10
-2.06113814E+01
 20
2.74528530E+01
 11
-2.06113814E+01
 21
3.39528530E+01
  0
LINE
  8
0
 62
4
 10
-2.06113814E+01
 20
2.70528530E+01
 11
-1.81113814E+01
 21
2.70528530E+01
  0
LINE
  8
0
 62
4
 10
-2.06113814E+01
 20
3.02528530E+01
 11
-1.81113814E+01
 21
3.02528530E+01
  0
LINE
  8
0
 62
4
 10
-3.21113814E+01
 20
3.02528530E+01
 11
-2.96113814E+01
 21
3.02528530E+01
  0
LINE
  8
0
 62
4
 10
-3.21113814E+01
 20
2.74528530E+01
 11
-2.96113814E+01
 21
2.74528530E+01
  0
LINE
  8
0
 62
4
 10
-3.21113814E+01
 20
2.70528530E+01
 11
-2.96113814E+01
 21
2.70528530E+01
  0
LINE
  8
0
 62
4
 10
-2.96113814E+01
 20
1.33068003E+01
 11
-2.06113814E+01
 21
1.33068003E+01
  0
LINE
  8
0
 62
6
 10
-2.63413814E+01
 20
3.49528530E+01
 11
-2.63413814E+01
 21
3.39528530E+01
  0
LINE
  8
0
 62
6
 10
-2.38813814E+01
 20
3.49528530E+01
 11
-2.38813814E+01
 21
3.39528530E+01
  0
LINE
  8
0
 62
4
 10
-2.66113814E+01
 20
3.49528530E+01
 11
-2.66113814E+01
 21
3.39528530E+01
  0
LINE
  8
0
 62
4
 10
-2.36113814E+01
 20
3.49528530E+01
 11
-2.36113814E+01
 21
3.39528530E+01
  0
LINE
  8
0
 62
4
 10
-3.21113814E+01
 20
2.92528530E+01
 11
-3.66113814E+01
 21
2.92528530E+01
  0
LINE
  8
0
 62
4
 10
-2.06113814E+01
 20
2.74528530E+01
 11
-2.06113814E+01
 21
1.33028530E+01
  0
LINE
  8
0
 62
4
 10
-2.96113814E+01
 20
2.74528530E+01
 11
-2.96113814E+01
 21
1.33028530E+01
  0
LINE
  8
0
 62
4
 10
-2.96113814E+01
 20
3.39528530E+01
 11
-2.06113814E+01
 21
3.39528530E+01
  0
LINE
  8
0
 62
4
 10
-2.06113814E+01
 20
2.74528530E+01
 11
-1.81113814E+01
 21
2.74528530E+01
  0
LINE
  8
0
 62
4
 10
-2.96113814E+01
 20
1.33028530E+01
 11
-2.06113814E+01
 21
1.33028530E+01
  0
LINE
  8
0
 62
4
 10
-3.76113814E+01
 20
2.82528530E+01
 11
-3.76113814E+01
 21
2.62528530E+01
  0
LINE
  8
0
 62
4
 10
-3.66113814E+01
 20
2.52528530E+01
 11
-3.21113814E+01
 21
2.52528530E+01
  0
LINE
  8
0
 62
4
 10
-2.76113814E+01
 20
3.49528530E+01
 11
-2.26113814E+01
 21
3.49528530E+01
  0
LINE
  8
0
 62
4
 10
-2.26113814E+01
 20
3.54528530E+01
 11
-2.26113814E+01
 21
3.49528530E+01
  0
LINE
  8
0
 62
4
 10
-2.76113814E+01
 20
3.54528530E+01
 11
-2.76113814E+01
 21
3.49528530E+01
  0
LINE
  8
0
 62
4
 10
-3.66113814E+01
 20
2.92528530E+01
 11
-3.66113814E+01
 21
2.52528530E+01
  0
LINE
  8
0
 62
4
 10
-3.76113814E+01
 20
2.82528530E+01
 11
-3.66113814E+01
 21
2.92528530E+01
  0
LINE
  8
0
 62
4
 10
-3.76113814E+01
 20
2.62528530E+01
 11
-3.66113814E+01
 21
2.52528530E+01
  0
LINE
  8
0
 62
4
 10
-1.81113814E+01
 20
3.02528530E+01
 11
-1.81113814E+01
 21
2.74528530E+01
  0
LINE
  8
0
 62
4
 10
-3.21113814E+01
 20
3.02528530E+01
 11
-3.21113814E+01
 21
2.74528530E+01
  0
LINE
  8
0
 62
4
 10
-3.21113814E+01
 20
2.39528530E+01
 11
-2.96113814E+01
 21
2.39528530E+01
  0
LINE
  8
0
 62
4
 10
-2.06113814E+01
 20
2.39528530E+01
 11
-1.81113814E+01
 21
2.39528530E+01
  0
LINE
  8
0
 62
4
 10
-9.61138142E+00
 20
2.59528530E+01
 11
-7.27438233E+00
 21
2.59528530E+01
  0
LINE
  8
0
 62
4
 10
-1.26113814E+01
 20
2.52528530E+01
 11
-9.61138142E+00
 21
2.59528530E+01
  0
LINE
  8
0
 62
4
 10
-1.26113814E+01
 20
2.92528530E+01
 11
-9.61138141E+00
 21
2.85528530E+01
  0
LINE
  8
0
 62
4
 10
-1.26113814E+01
 20
2.92528530E+01
 11
-1.26113814E+01
 21
2.52528530E+01
  0
LINE
  8
0
 62
4
 10
-9.61138141E+00
 20
2.85528530E+01
 11
-9.61138141E+00
 21
2.59528530E+01
  0
LINE
  8
0
 62
6
 10
-4.67438233E+00
 20
2.85528530E+01
 11
-7.27438233E+00
 21
2.59528530E+01
  0
LINE
  8
0
 62
7
 10
6.96486186E+01
 20
1.41328530E+01
 11
6.96486186E+01
 21
1.19528530E+01
  0
ARC
  8
0
 62
7
 10
6.37973521E+01
 20
1.89528530E+01
 40
7.58087858E+00
 50
3.20519898E+02
 51
3.94801022E+01
  0
LINE
  8
0
 62
7
 10
6.96486186E+01
 20
2.37728530E+01
 11
6.96486186E+01
 21
2.59528530E+01
  0
LINE
  8
0
 62
7
 10
4.61086186E+01
 20
2.37728530E+01
 11
6.96486186E+01
 21
2.37728530E+01
  0
LINE
  8
0
 62
7
 10
4.61086186E+01
 20
1.41328530E+01
 11
6.96486186E+01
 21
1.41328530E+01
  0
LINE
  8
0
 62
7
 10
4.61086186E+01
 20
1.41328530E+01
 11
4.61086186E+01
 21
1.19528530E+01
  0
ARC
  8
0
 62
7
 10
5.19598851E+01
 20
1.89528530E+01
 40
7.58087858E+00
 50
1.40519898E+02
 51
2.19480102E+02
  0
LINE
  8
0
 62
7
 10
4.61086186E+01
 20
2.37728530E+01
 11
4.61086186E+01
 21
2.59528530E+01
  0
LINE
  8
0
 62
7
 10
4.43786186E+01
 20
1.19528530E+01
 11
7.13786186E+01
 21
1.19528530E+01
  0
LINE
  8
0
 62
7
 10
-3.96128851E+01
 20
1.34528530E+01
 11
-2.96113814E+01
 21
1.34528530E+01
  0
LINE
  8
0
 62
7
 10
-3.96128851E+01
 20
2.44528530E+01
 11
-3.21113814E+01
 21
2.44528530E+01
  0
LINE
  8
0
 62
7
 10
4.43786186E+01
 20
2.59528530E+01
 11
4.43786186E+01
 21
1.19528530E+01
  0
LINE
  8
0
 62
7
 10
4.43786186E+01
 20
2.59528530E+01
 11
7.13786186E+01
 21
2.59528530E+01
  0
CIRCLE
  8
0
 62
7
 10
6.63851976E+01
 20
1.91673451E+01
 40
1.59999943E+00
  0
ARC
  8
0
 62
4
 10
-7.94048019E+01
 20
1.59228530E+01
 40
1.56857572E+00
 50
3.19917031E+02
 51
4.00829695E+01
  0
ARC
  8
0
 62
4
 10
-7.94779908E+01
 20
1.59228530E+01
 40
1.55829855E+00
 50
1.39598276E+02
 51
2.20401723E+02
  0
ARC
  8
0
 62
4
 10
-7.94048072E+01
 20
2.19828530E+01
 40
1.56857978E+00
 50
3.19917156E+02
 51
4.00828446E+01
  0
ARC
  8
0
 62
4
 10
-8.35394895E+01
 20
1.89528530E+01
 40
5.70445074E+00
 50
3.39261125E+02
 51
2.07388754E+01
  0
ARC
  8
0
 62
4
 10
-7.53433032E+01
 20
1.89528530E+01
 40
5.69186140E+00
 50
1.59213132E+02
 51
2.00786868E+02
  0
ARC
  8
0
 62
4
 10
-7.94779855E+01
 20
2.19828530E+01
 40
1.55830260E+00
 50
1.39598403E+02
 51
2.20401597E+02
  0
LINE
  8
0
  6
CENTER
 62
2
 10
6.63786186E+01
 20
2.37723449E+01
 11
6.63786186E+01
 21
1.45523449E+01
  0
LINE
  8
0
 62
4
 10
-7.82046645E+01
 20
1.49128530E+01
 11
-7.78346645E+01
 21
1.55528530E+01
  0
LINE
  8
0
 62
4
 10
-8.10346645E+01
 20
1.55528530E+01
 11
-8.06646645E+01
 21
1.49128530E+01
  0
LINE
  8
0
 62
4
 10
-7.82046645E+01
 20
2.29928530E+01
 11
-7.78346645E+01
 21
2.23528530E+01
  0
LINE
  8
0
 62
4
 10
-8.10346645E+01
 20
2.23528530E+01
 11
-8.06646645E+01
 21
2.29928530E+01
  0
LINE
  8
0
 62
7
 10
-7.78346645E+01
 20
1.69528530E+01
 11
-6.56146645E+01
 21
1.69528530E+01
  0
LINE
  8
0
 62
7
 10
-7.78346645E+01
 20
2.09528530E+01
 11
-6.56146645E+01
 21
2.09528530E+01
  0
LINE
  8
0
 62
4
 10
-8.06646645E+01
 20
1.69328530E+01
 11
-7.82046645E+01
 21
1.69328530E+01
  0
LINE
  8
0
 62
4
 10
-8.06646645E+01
 20
2.09728530E+01
 11
-7.82046645E+01
 21
2.09728530E+01
  0
LINE
  8
0
 62
4
 10
-8.06646645E+01
 20
1.49128530E+01
 11
-7.82046645E+01
 21
1.49128530E+01
  0
LINE
  8
0
 62
4
 10
-8.06646645E+01
 20
2.29928530E+01
 11
-7.82046645E+01
 21
2.29928530E+01
  0
LINE
  8
0
 62
4
 10
-7.78346645E+01
 20
2.23528530E+01
 11
-7.78346645E+01
 21
1.55528530E+01
  0
LINE
  8
0
 62
4
 10
-8.10346645E+01
 20
2.23528530E+01
 11
-8.10346645E+01
 21
1.55528530E+01
  0
LINE
  8
0
  6
CENTER
 62
2
 10
-8.70906633E+01
 20
1.89528530E+01
 11
7.35116312E+01
 21
1.89528530E+01
  0
LINE
  8
0
 62
7
 10
-8.49146645E+01
 20
2.09528530E+01
 11
-8.49146645E+01
 21
1.69528530E+01
  0
LINE
  8
0
 62
7
 10
-8.56146645E+01
 20
1.76528530E+01
 11
-8.49146645E+01
 21
1.69528530E+01
  0
LINE
  8
0
 62
7
 10
-8.49146645E+01
 20
2.09528530E+01
 11
-8.56146645E+01
 21
2.02528530E+01
  0
LINE
  8
0
 62
7
 10
-8.49146645E+01
 20
1.69528530E+01
 11
-8.10346645E+01
 21
1.69528530E+01
  0
LINE
  8
0
 62
7
 10
-8.49146645E+01
 20
2.09528530E+01
 11
-8.10346645E+01
 21
2.09528530E+01
  0
LINE
  8
0
 62
7
 10
-7.06146645E+01
 20
2.09528530E+01
 11
-7.06146645E+01
 21
1.69528530E+01
  0
LINE
  8
0
 62
7
 10
-8.56146645E+01
 20
2.02528530E+01
 11
-8.56146645E+01
 21
1.76528530E+01
  0
LINE
  8
0
 62
7
 10
-5.91146645E+01
 20
2.29528530E+01
 11
-5.91146645E+01
 21
1.49528530E+01
  0
LINE
  8
0
 62
7
 10
-6.48146645E+01
 20
2.29528530E+01
 11
-6.48146645E+01
 21
1.49528530E+01
  0
LINE
  8
0
 62
7
 10
-6.56146645E+01
 20
1.57528530E+01
 11
-6.48146645E+01
 21
1.49528530E+01
  0
LINE
  8
0
 62
7
 10
-6.48146645E+01
 20
2.29528530E+01
 11
-6.56146645E+01
 21
2.21528530E+01
  0
LINE
  8
0
 62
7
 10
-6.48146645E+01
 20
1.49528530E+01
 11
-5.76146645E+01
 21
1.49528530E+01
  0
LINE
  8
0
 62
7
 10
-6.48146645E+01
 20
2.29528530E+01
 11
-5.76146645E+01
 21
2.29528530E+01
  0
LINE
  8
0
 62
7
 10
-6.56146645E+01
 20
2.21528530E+01
 11
-6.56146645E+01
 21
1.57528530E+01
  0
LINE
  8
0
 62
2
 10
-8.52936645E+01
 20
2.05738530E+01
 11
-8.10346645E+01
 21
2.05738530E+01
  0
LINE
  8
0
 62
2
 10
-8.52936645E+01
 20
1.73318530E+01
 11
-8.10346645E+01
 21
1.73318530E+01
  0
LINE
  8
0
 62
2
 10
-7.78346645E+01
 20
2.05738530E+01
 11
-7.06146645E+01
 21
2.05738530E+01
  0
LINE
  8
0
 62
2
 10
-7.78346645E+01
 20
1.73318530E+01
 11
-7.06146645E+01
 21
1.73318530E+01
  0
LINE
  8
0
 62
2
 10
-6.54911645E+01
 20
1.56293530E+01
 11
-5.91146645E+01
 21
1.56293530E+01
  0
LINE
  8
0
 62
2
 10
-6.54911645E+01
 20
2.22763530E+01
 11
-5.91146645E+01
 21
2.22763530E+01
  0
ARC
  8
0
 62
7
 10
-4.71991469E+01
 20
1.89522771E+01
 40
7.58626181E+00
 50
3.20559014E+02
 51
3.94522515E+01
  0
ARC
  8
0
 62
7
 10
-5.00301149E+01
 20
1.89528530E+01
 40
7.58087858E+00
 50
1.40519898E+02
 51
2.19480102E+02
  0
LINE
  8
0
 62
7
 10
-5.76113814E+01
 20
2.59528530E+01
 11
-3.96113814E+01
 21
2.59528530E+01
  0
LINE
  8
0
 62
7
 10
-5.76113814E+01
 20
1.19528530E+01
 11
-3.96113814E+01
 21
1.19528530E+01
  0
LINE
  8
0
 62
7
 10
-5.58813814E+01
 20
1.41328530E+01
 11
-5.58813814E+01
 21
1.19528530E+01
  0
LINE
  8
0
 62
7
 10
-4.13413814E+01
 20
1.41328530E+01
 11
-4.13413814E+01
 21
1.19528530E+01
  0
LINE
  8
0
  6
CENTER
 62
2
 10
-4.91113814E+01
 20
2.37728530E+01
 11
-4.91113814E+01
 21
2.77840731E+01
  0
LINE
  8
0
 62
7
 10
-5.58813814E+01
 20
2.37728530E+01
 11
-5.58813814E+01
 21
2.59528530E+01
  0
LINE
  8
0
 62
7
 10
-4.13413814E+01
 20
2.37728530E+01
 11
-4.13413814E+01
 21
2.59528530E+01
  0
LINE
  8
0
 62
7
 10
-5.58813814E+01
 20
2.37728530E+01
 11
-4.13413814E+01
 21
2.37728530E+01
  0
LINE
  8
0
 62
7
 10
-5.58813814E+01
 20
1.41328530E+01
 11
-4.13404337E+01
 21
1.41328530E+01
  0
LINE
  8
0
 62
7
 10
-3.96113814E+01
 20
1.19528530E+01
 11
-3.96113814E+01
 21
2.59528530E+01
  0
LINE
  8
0
 62
7
 10
-5.76113814E+01
 20
1.19528530E+01
 11
-5.76113814E+01
 21
2.59528530E+01
  0
LINE
  8
0
  6
CENTER
 62
2
 10
5.33786186E+01
 20
2.80357120E+01
 11
5.33786186E+01
 21
2.35628530E+01
  0
LINE
  8
0
  6
CENTER
 62
2
 10
-4.26113814E+01
 20
2.79377834E+01
 11
-4.26113814E+01
 21
2.37728530E+01
  0
LINE
  8
0
 62
7
 10
7.13786186E+01
 20
2.59528530E+01
 11
7.13786186E+01
 21
1.19528530E+01
  0
TEXT
  8
0
 62
7
 10
-1.79473189E+01
 20
1.45528530E+01
 40
1.50000000E+00
  1
PBDAUS10-7
 41
1.00000000E+00
  7
MONOTXT
  0
LINE
  8
0
 62
4
 10
-2.66113814E+01
 20
3.64528530E+01
 11
-2.36113814E+01
 21
3.64528530E+01
  0
LINE
  8
0
 62
4
 10
2.23771149E+01
 20
3.02528530E+01
 11
1.98771149E+01
 21
3.02528530E+01
  0
LINE
  8
0
 62
6
 10
6.44011584E+00
 20
2.85528530E+01
 11
9.04011584E+00
 21
2.59528530E+01
  0
LINE
  8
0
 62
4
 10
1.13771149E+01
 20
2.85528530E+01
 11
1.13771149E+01
 21
2.59528530E+01
  0
LINE
  8
0
 62
4
 10
1.43771149E+01
 20
2.92528530E+01
 11
1.43771149E+01
 21
2.52528530E+01
  0
LINE
  8
0
 62
4
 10
1.43771149E+01
 20
2.92528530E+01
 11
1.13771149E+01
 21
2.85528530E+01
  0
LINE
  8
0
 62
4
 10
1.43771149E+01
 20
2.52528530E+01
 11
1.13771149E+01
 21
2.59528530E+01
  0
LINE
  8
0
 62
4
 10
1.13771149E+01
 20
2.59528530E+01
 11
9.04011584E+00
 21
2.59528530E+01
  0
ARC
  8
0
 62
4
 10
2.53787806E+01
 20
3.54511874E+01
 40
1.00166704E+00
 50
9.00952762E+01
 51
1.79904724E+02
  0
ARC
  8
0
 62
4
 10
2.83763234E+01
 20
3.54520615E+01
 40
1.00079180E+00
 50
4.53129782E-02
 51
9.00000002E+01
  0
LINE
  8
0
 62
4
 10
2.23771149E+01
 20
2.39528530E+01
 11
1.98771149E+01
 21
2.39528530E+01
  0
LINE
  8
0
 62
4
 10
3.38771149E+01
 20
2.39528530E+01
 11
3.13771149E+01
 21
2.39528530E+01
  0
LINE
  8
0
 62
4
 10
3.38771149E+01
 20
3.02528530E+01
 11
3.38771149E+01
 21
2.74528530E+01
  0
LINE
  8
0
 62
4
 10
1.98771149E+01
 20
3.02528530E+01
 11
1.98771149E+01
 21
2.74528530E+01
  0
LINE
  8
0
 62
4
 10
3.93771149E+01
 20
2.62528530E+01
 11
3.83771149E+01
 21
2.52528530E+01
  0
LINE
  8
0
 62
4
 10
3.93771149E+01
 20
2.82528530E+01
 11
3.83771149E+01
 21
2.92528530E+01
  0
LINE
  8
0
 62
4
 10
3.83771149E+01
 20
2.92528530E+01
 11
3.83771149E+01
 21
2.52528530E+01
  0
LINE
  8
0
 62
4
 10
2.93771149E+01
 20
3.54528530E+01
 11
2.93771149E+01
 21
3.49528530E+01
  0
LINE
  8
0
 62
4
 10
2.43771149E+01
 20
3.54528530E+01
 11
2.43771149E+01
 21
3.49528530E+01
  0
LINE
  8
0
 62
4
 10
2.83771149E+01
 20
3.64528530E+01
 11
2.53771149E+01
 21
3.64528530E+01
  0
LINE
  8
0
 62
4
 10
2.93771149E+01
 20
3.49528530E+01
 11
2.43771149E+01
 21
3.49528530E+01
  0
LINE
  8
0
  6
CENTER
 62
6
 10
2.68771149E+01
 20
3.89628530E+01
 11
2.68771149E+01
 21
1.15328530E+01
  0
LINE
  8
0
 62
4
 10
3.83771149E+01
 20
2.52528530E+01
 11
3.38771149E+01
 21
2.52528530E+01
  0
LINE
  8
0
 62
4
 10
3.93771149E+01
 20
2.82528530E+01
 11
3.93771149E+01
 21
2.62528530E+01
  0
LINE
  8
0
 62
4
 10
3.13771149E+01
 20
1.33028530E+01
 11
2.23771149E+01
 21
1.33028530E+01
  0
LINE
  8
0
 62
4
 10
2.23771149E+01
 20
2.74528530E+01
 11
1.98771149E+01
 21
2.74528530E+01
  0
LINE
  8
0
 62
4
 10
3.13771149E+01
 20
3.39528530E+01
 11
2.23771149E+01
 21
3.39528530E+01
  0
LINE
  8
0
 62
4
 10
3.13771149E+01
 20
2.74528530E+01
 11
3.13771149E+01
 21
1.33028530E+01
  0
LINE
  8
0
 62
4
 10
2.23771149E+01
 20
2.74528530E+01
 11
2.23771149E+01
 21
1.33028530E+01
  0
LINE
  8
0
 62
4
 10
3.38771149E+01
 20
2.92528530E+01
 11
3.83771149E+01
 21
2.92528530E+01
  0
LINE
  8
0
 62
4
 10
2.53771149E+01
 20
3.49528530E+01
 11
2.53771149E+01
 21
3.39528530E+01
  0
LINE
  8
0
 62
4
 10
2.83771149E+01
 20
3.49528530E+01
 11
2.83771149E+01
 21
3.39528530E+01
  0
LINE
  8
0
 62
6
 10
2.56471149E+01
 20
3.49528530E+01
 11
2.56471149E+01
 21
3.39528530E+01
  0
LINE
  8
0
 62
6
 10
2.81071149E+01
 20
3.49528530E+01
 11
2.81071149E+01
 21
3.39528530E+01
  0
LINE
  8
0
 62
4
 10
3.38771149E+01
 20
2.70528530E+01
 11
3.13771149E+01
 21
2.70528530E+01
  0
LINE
  8
0
 62
4
 10
3.38771149E+01
 20
2.74528530E+01
 11
3.13771149E+01
 21
2.74528530E+01
  0
LINE
  8
0
 62
4
 10
3.38771149E+01
 20
3.02528530E+01
 11
3.13771149E+01
 21
3.02528530E+01
  0
LINE
  8
0
 62
4
 10
2.23771149E+01
 20
2.70528530E+01
 11
1.98771149E+01
 21
2.70528530E+01
  0
LINE
  8
0
 62
4
 10
2.23771149E+01
 20
2.74528530E+01
 11
2.23771149E+01
 21
3.39528530E+01
  0
LINE
  8
0
 62
4
 10
3.13771149E+01
 20
2.74528530E+01
 11
3.13771149E+01
 21
3.39528530E+01
  0
LINE
  8
0
 62
4
 10
3.13771149E+01
 20
2.74528530E+01
 11
2.23771149E+01
 21
2.74528530E+01
  0
LINE
  8
0
 62
4
 10
1.98771149E+01
 20
2.70528530E+01
 11
1.98771149E+01
 21
2.39528530E+01
  0
LINE
  8
0
 62
4
 10
3.38771149E+01
 20
2.70528530E+01
 11
3.38771149E+01
 21
2.39528530E+01
  0
LINE
  8
0
 62
4
 10
1.98771149E+01
 20
2.52528530E+01
 11
1.43771149E+01
 21
2.52528530E+01
  0
LINE
  8
0
 62
4
 10
1.98771149E+01
 20
2.92528530E+01
 11
1.43771149E+01
 21
2.92528530E+01
  0
LINE
  8
0
 62
4
 10
-4.67438233E+00
 20
2.85528530E+01
 11
-9.61138142E+00
 21
2.85528530E+01
  0
LINE
  8
0
 62
4
 10
1.13771149E+01
 20
2.85528530E+01
 11
6.44011584E+00
 21
2.85528530E+01
  0
LINE
  8
0
  6
PHANTOM
 10
8.82866754E-01
 20
6.56607403E+00
 11
8.82866754E-01
 21
3.90193345E+01
  0
LINE
  8
0
 62
4
 10
-1.08843593E+02
 20
2.59528530E+01
 11
-1.09043593E+02
 21
2.61528530E+01
  0
LINE
  8
0
 62
4
 10
-1.11343593E+02
 20
2.59528530E+01
 11
-1.11143593E+02
 21
2.61528530E+01
  0
LINE
  8
0
 62
4
 10
-1.08043593E+02
 20
2.92528530E+01
 11
-1.09043593E+02
 21
2.82528530E+01
  0
LINE
  8
0
 62
4
 10
-1.12143593E+02
 20
2.92528530E+01
 11
-1.11143593E+02
 21
2.82528530E+01
  0
LINE
  8
0
 62
4
 10
-1.09043593E+02
 20
2.61528530E+01
 11
-1.11143593E+02
 21
2.61528530E+01
  0
LINE
  8
0
 62
4
 10
-1.09043593E+02
 20
2.82528530E+01
 11
-1.09043593E+02
 21
2.61528530E+01
  0
LINE
  8
0
 62
4
 10
-1.09043593E+02
 20
2.82528530E+01
 11
-1.11143593E+02
 21
2.82528530E+01
  0
LINE
  8
0
 62
4
 10
-1.11143593E+02
 20
2.82528530E+01
 11
-1.11143593E+02
 21
2.61528530E+01
  0
LINE
  8
0
 62
4
 10
-1.08593593E+02
 20
3.12528530E+01
 11
-1.08893593E+02
 21
3.09528530E+01
  0
LINE
  8
0
 62
4
 10
-1.11593593E+02
 20
3.12528530E+01
 11
-1.11293593E+02
 21
3.09528530E+01
  0
LINE
  8
0
 62
4
 10
-1.14443140E+02
 20
3.25868074E+01
 11
-1.14940788E+02
 21
3.26352495E+01
  0
LINE
  8
0
 62
4
 10
-1.14940788E+02
 20
3.26352495E+01
 11
-1.15646323E+02
 21
2.53872611E+01
  0
LINE
  8
0
 62
4
 10
-1.14923593E+02
 20
2.61028530E+01
 11
-1.15072888E+02
 21
2.61173856E+01
  0
LINE
  8
0
 62
4
 10
-1.14443140E+02
 20
3.25868074E+01
 11
-1.15101890E+02
 21
2.58194404E+01
  0
LINE
  8
0
 62
4
 10
-1.14923593E+02
 20
2.61028530E+01
 11
-1.14939969E+02
 21
2.59346251E+01
  0
LINE
  8
0
 62
4
 10
-1.06593593E+02
 20
2.74528530E+01
 11
-1.06176322E+02
 21
2.59528530E+01
  0
LINE
  8
0
 62
4
 10
-1.06743593E+02
 20
2.74528530E+01
 11
-1.06327538E+02
 21
2.59528530E+01
  0
LINE
  8
0
 62
4
 10
-1.13343593E+02
 20
3.09528530E+01
 11
-1.13343593E+02
 21
2.59528530E+01
  0
LINE
  8
0
 62
4
 10
-1.06843593E+02
 20
3.09528530E+01
 11
-1.06843593E+02
 21
2.74528530E+01
  0
LINE
  8
0
 62
4
 10
-1.06843593E+02
 20
3.09528530E+01
 11
-1.13343593E+02
 21
3.09528530E+01
  0
LINE
  8
0
 62
4
 10
-1.12143593E+02
 20
2.92528530E+01
 11
-1.12143593E+02
 21
2.59528530E+01
  0
LINE
  8
0
 62
4
 10
-1.08043593E+02
 20
2.92528530E+01
 11
-1.12143593E+02
 21
2.92528530E+01
  0
LINE
  8
0
 62
4
 10
-1.09093593E+02
 20
2.95528530E+01
 11
-1.09093593E+02
 21
2.92528530E+01
  0
LINE
  8
0
 62
4
 10
-1.11093593E+02
 20
2.95528530E+01
 11
-1.11093593E+02
 21
2.92528530E+01
  0
LINE
  8
0
 62
4
 10
-1.09093593E+02
 20
2.95528530E+01
 11
-1.11093593E+02
 21
2.95528530E+01
  0
LINE
  8
0
 62
4
 10
-1.06843593E+02
 20
3.02528530E+01
 11
-1.13343593E+02
 21
3.02528530E+01
  0
LINE
  8
0
 62
4
 10
-1.06843593E+02
 20
2.70528530E+01
 11
-1.08043593E+02
 21
2.70528530E+01
  0
LINE
  8
0
 62
4
 10
-1.06843593E+02
 20
2.74528530E+01
 11
-1.08043593E+02
 21
2.74528530E+01
  0
LINE
  8
0
 62
4
 10
-1.06843593E+02
 20
2.70528530E+01
 11
-1.06843593E+02
 21
2.59528530E+01
  0
LINE
  8
0
 62
4
 10
-1.08043593E+02
 20
2.92528530E+01
 11
-1.08043593E+02
 21
2.59528530E+01
  0
LINE
  8
0
 62
4
 10
-1.13593593E+02
 20
3.26528530E+01
 11
-1.13593593E+02
 21
2.67528530E+01
  0
LINE
  8
0
 62
4
 10
-1.06593593E+02
 20
3.26528530E+01
 11
-1.06593593E+02
 21
2.74528530E+01
  0
LINE
  8
0
 62
4
 10
-1.07593593E+02
 20
3.49528530E+01
 11
-1.12593593E+02
 21
3.49528530E+01
  0
LINE
  8
0
 62
4
 10
-1.06593593E+02
 20
3.39528530E+01
 11
-1.13593593E+02
 21
3.39528530E+01
  0
LINE
  8
0
 62
4
 10
-1.08093593E+02
 20
3.24528530E+01
 11
-1.12093593E+02
 21
3.24528530E+01
  0
LINE
  8
0
 62
4
 10
-1.07093593E+02
 20
3.31528530E+01
 11
-1.13093593E+02
 21
3.31528530E+01
  0
LINE
  8
0
 62
4
 10
-1.14393593E+02
 20
3.31528530E+01
 11
-1.14393593E+02
 21
2.67528530E+01
  0
LINE
  8
0
 62
4
 10
-1.05793593E+02
 20
3.31528530E+01
 11
-1.05793593E+02
 21
2.74528530E+01
  0
LINE
  8
0
 62
4
 10
-1.12153593E+02
 20
3.31528530E+01
 11
-1.12093593E+02
 21
3.24528530E+01
  0
LINE
  8
0
 62
4
 10
-1.08033593E+02
 20
3.31528530E+01
 11
-1.08093593E+02
 21
3.24528530E+01
  0
LINE
  8
0
 62
4
 10
-1.05793593E+02
 20
2.74528530E+01
 11
-1.06593593E+02
 21
2.74528530E+01
  0
LINE
  8
0
 62
4
 10
-1.13593593E+02
 20
2.67528530E+01
 11
-1.14393593E+02
 21
2.67528530E+01
  0
LINE
  8
0
 62
4
 10
-1.14393593E+02
 20
2.89528530E+01
 11
-1.14775208E+02
 21
2.91754616E+01
  0
LINE
  8
0
 62
4
 10
-1.15993593E+02
 20
3.22528530E+01
 11
-1.15993593E+02
 21
2.98828530E+01
  0
LINE
  8
0
 62
4
 10
-1.15193593E+02
 20
3.22528530E+01
 11
-1.15993593E+02
 21
3.22528530E+01
  0
LINE
  8
0
 62
4
 10
-1.15193593E+02
 20
3.22528530E+01
 11
-1.15193593E+02
 21
3.03428530E+01
  0
LINE
  8
0
 62
4
 10
-1.14393593E+02
 20
2.98828530E+01
 11
-1.14690303E+02
 21
3.00476919E+01
  0
LINE
  8
0
 62
4
 10
-1.06743593E+02
 20
3.26528530E+01
 11
-1.06743593E+02
 21
2.74528530E+01
  0
LINE
  8
0
 62
4
 10
-1.06593593E+02
 20
3.26528530E+01
 11
-1.06743593E+02
 21
3.26528530E+01
  0
LINE
  8
0
 62
4
 10
-1.15165742E+02
 20
3.03242857E+01
 11
-1.15193593E+02
 21
3.03428530E+01
  0
LINE
  8
0
 62
4
 10
-1.15251485E+02
 20
2.94434468E+01
 11
-1.15993593E+02
 21
2.98828530E+01
  0
LINE
  8
0
 62
4
 10
-1.08593593E+02
 20
3.49528530E+01
 11
-1.08593593E+02
 21
3.39528530E+01
  0
LINE
  8
0
 62
4
 10
-1.11593593E+02
 20
3.49528530E+01
 11
-1.11593593E+02
 21
3.39528530E+01
  0
LINE
  8
0
 62
6
 10
-1.11323593E+02
 20
3.49528530E+01
 11
-1.11323593E+02
 21
3.39528530E+01
  0
LINE
  8
0
 62
6
 10
-1.08863593E+02
 20
3.49528530E+01
 11
-1.08863593E+02
 21
3.39528530E+01
  0
LINE
  8
0
 62
4
 10
-1.12593593E+02
 20
3.54528530E+01
 11
-1.12593593E+02
 21
3.49528530E+01
  0
LINE
  8
0
 62
4
 10
-1.07593593E+02
 20
3.54528530E+01
 11
-1.07593593E+02
 21
3.49528530E+01
  0
LINE
  8
0
 62
4
 10
-1.08593593E+02
 20
3.64528530E+01
 11
-1.11593593E+02
 21
3.64528530E+01
  0
LINE
  8
0
 62
4
 10
-1.08593593E+02
 20
3.24528530E+01
 11
-1.08593593E+02
 21
3.12528530E+01
  0
LINE
  8
0
 62
6
 10
-1.08863593E+02
 20
3.24528530E+01
 11
-1.08863593E+02
 21
3.09828530E+01
  0
LINE
  8
0
 62
6
 10
-1.11323593E+02
 20
3.24528530E+01
 11
-1.11323593E+02
 21
3.09828530E+01
  0
LINE
  8
0
 62
4
 10
-1.11593593E+02
 20
3.24528530E+01
 11
-1.11593593E+02
 21
3.12528530E+01
  0
ARC
  8
0
 62
4
 10
-1.07093754E+02
 20
3.26526929E+01
 40
5.00160181E-01
 50
1.83465799E-02
 51
9.00000002E+01
  0
ARC
  8
0
 62
4
 10
-1.13101219E+02
 20
3.26604782E+01
 40
4.92433852E-01
 50
8.91127567E+01
 51
1.80887243E+02
  0
ARC
  8
0
 62
4
 10
-1.06593732E+02
 20
3.31527147E+01
 40
8.00138358E-01
 50
9.90662024E-03
 51
9.00000002E+01
  0
ARC
  8
0
 62
4
 10
-1.13601219E+02
 20
3.31604782E+01
 40
7.92411497E-01
 50
8.94486475E+01
 51
1.80551352E+02
  0
ARC
  8
0
 62
4
 10
-1.08593723E+02
 20
3.54527235E+01
 40
1.00012957E+00
 50
7.42247612E-03
 51
9.00000002E+01
  0
ARC
  8
0
 62
4
 10
-1.11601220E+02
 20
3.54604797E+01
 40
9.92402587E-01
 50
8.95596718E+01
 51
1.80440329E+02
  0
ARC
  8
0
 62
7
 10
-1.10094611E+02
 20
1.89518356E+01
 40
8.49754963E+00
 50
2.14548428E+02
 51
2.35451572E+02
  0
ARC
  8
0
 62
7
 10
-1.10099614E+02
 20
1.89588737E+01
 40
8.50733810E+00
 50
3.04560588E+02
 51
3.25439412E+02
  0
LINE
  8
0
 62
7
 10
-1.14913593E+02
 20
1.19528530E+01
 11
-1.05273593E+02
 21
1.19528530E+01
  0
ARC
  8
0
 62
7
 10
-1.10094617E+02
 20
1.89518296E+01
 40
8.50038792E+00
 50
3.45519569E+01
 51
5.54480430E+01
  0
LINE
  8
0
 62
7
 10
-1.03093593E+02
 20
2.37728530E+01
 11
-1.03093593E+02
 21
1.41328530E+01
  0
ARC
  8
0
 62
7
 10
-1.10099614E+02
 20
1.89588735E+01
 40
8.49059170E+00
 50
1.24539767E+02
 51
1.45460233E+02
  0
LINE
  8
0
 62
7
 10
-1.17093593E+02
 20
2.37728530E+01
 11
-1.17093593E+02
 21
1.41328530E+01
  0
LINE
  8
0
 62
7
 10
-1.14913593E+02
 20
2.59528530E+01
 11
-1.05273593E+02
 21
2.59528530E+01
  0
ARC
  8
0
 62
7
 10
-1.10093593E+02
 20
1.89528530E+01
 40
4.00000000E+00
 50
3.31025996E+02
 51
2.89918313E+01
  0
ARC
  8
0
 62
7
 10
-1.10093593E+02
 20
1.89528530E+01
 40
4.00000000E+00
 50
2.71025996E+02
 51
3.28991831E+02
  0
ARC
  8
0
 62
7
 10
-1.10093593E+02
 20
1.89528530E+01
 40
4.00000000E+00
 50
2.11025996E+02
 51
2.68991831E+02
  0
ARC
  8
0
 62
7
 10
-1.10093593E+02
 20
1.89528530E+01
 40
4.00000000E+00
 50
1.51025996E+02
 51
2.08991832E+02
  0
ARC
  8
0
 62
7
 10
-1.10093593E+02
 20
1.89528530E+01
 40
4.00000000E+00
 50
9.10259963E+01
 51
1.48991831E+02
  0
ARC
  8
0
 62
7
 10
-1.10093593E+02
 20
1.89528530E+01
 40
4.00000000E+00
 50
3.10259961E+01
 51
8.89918311E+01
  0
CIRCLE
  8
0
 62
7
 10
-1.10093593E+02
 20
1.89528530E+01
 40
1.62100000E+00
  0
LINE
  8
0
  6
CENTER
 62
2
 10
-1.10093593E+02
 20
3.82907781E+01
 11
-1.10093593E+02
 21
1.01288705E+01
  0
LINE
  8
0
 62
4
 10
-1.10093593E+02
 20
2.29928530E+01
 11
-1.13593593E+02
 21
2.09728530E+01
  0
LINE
  8
0
 62
4
 10
-1.13593593E+02
 20
2.09728530E+01
 11
-1.13593593E+02
 21
1.69328530E+01
  0
LINE
  8
0
 62
4
 10
-1.13593593E+02
 20
1.69328530E+01
 11
-1.10093593E+02
 21
1.49128530E+01
  0
LINE
  8
0
 62
4
 10
-1.10093593E+02
 20
1.49128530E+01
 11
-1.06593593E+02
 21
1.69328530E+01
  0
LINE
  8
0
 62
4
 10
-1.06593593E+02
 20
1.69328530E+01
 11
-1.06593593E+02
 21
2.09728530E+01
  0
LINE
  8
0
 62
4
 10
-1.06593593E+02
 20
2.09728530E+01
 11
-1.10093593E+02
 21
2.29928530E+01
  0
CIRCLE
  8
0
 62
2
 10
-1.10100634E+02
 20
1.89578532E+01
 40
2.00000000E+00
  0
CIRCLE
  8
0
 62
4
 10
-1.10100634E+02
 20
1.89578532E+01
 40
3.50000000E+00
  0
LINE
  8
0
  6
CENTER
 62
2
 10
-1.19139501E+02
 20
1.89528530E+01
 11
-1.01118877E+02
 21
1.89528530E+01
  0
CIRCLE
  8
0
 62
7
 10
-1.10093593E+02
 20
1.89528530E+01
 40
7.00000000E+00
  0
LINE
  8
0
  6
CENTER
 62
2
 10
1.03584297E+02
 20
3.81307367E+01
 11
1.03584297E+02
 21
9.53888465E+00
  0
LINE
  8
0
 62
4
 10
1.02084297E+02
 20
3.12528530E+01
 11
1.02384297E+02
 21
3.09528530E+01
  0
LINE
  8
0
 62
4
 10
1.05084297E+02
 20
3.12528530E+01
 11
1.04784297E+02
 21
3.09528530E+01
  0
LINE
  8
0
 62
4
 10
1.07933844E+02
 20
3.25868074E+01
 11
1.08431492E+02
 21
3.26352495E+01
  0
LINE
  8
0
 62
4
 10
1.08431492E+02
 20
3.26352495E+01
 11
1.09137046E+02
 21
2.53870614E+01
  0
LINE
  8
0
 62
4
 10
1.08414297E+02
 20
2.61028530E+01
 11
1.08563592E+02
 21
2.61173856E+01
  0
LINE
  8
0
 62
4
 10
1.07933844E+02
 20
3.25868074E+01
 11
1.08592600E+02
 21
2.58193798E+01
  0
LINE
  8
0
 62
4
 10
1.08414297E+02
 20
2.61028530E+01
 11
1.08430674E+02
 21
2.59346163E+01
  0
LINE
  8
0
 62
4
 10
1.00084297E+02
 20
2.74528530E+01
 11
9.96670257E+01
 21
2.59528530E+01
  0
LINE
  8
0
 62
4
 10
1.00234297E+02
 20
2.74528530E+01
 11
9.98182413E+01
 21
2.59528530E+01
  0
CIRCLE
  8
0
 62
4
 10
1.03584297E+02
 20
2.72528530E+01
 40
1.30000000E+00
  0
LINE
  8
0
 62
4
 10
1.06834297E+02
 20
3.09528530E+01
 11
1.06834297E+02
 21
2.59528530E+01
  0
LINE
  8
0
 62
4
 10
1.00334297E+02
 20
3.09528530E+01
 11
1.00334297E+02
 21
2.74528530E+01
  0
LINE
  8
0
 62
4
 10
1.00334297E+02
 20
3.09528530E+01
 11
1.06834297E+02
 21
3.09528530E+01
  0
LINE
  8
0
 62
4
 10
1.05634297E+02
 20
2.92528530E+01
 11
1.05634297E+02
 21
2.59528530E+01
  0
LINE
  8
0
 62
4
 10
1.01534297E+02
 20
2.92528530E+01
 11
1.05634297E+02
 21
2.92528530E+01
  0
LINE
  8
0
 62
4
 10
1.02584297E+02
 20
2.95528530E+01
 11
1.02584297E+02
 21
2.92528530E+01
  0
LINE
  8
0
 62
4
 10
1.04584297E+02
 20
2.95528530E+01
 11
1.04584297E+02
 21
2.92528530E+01
  0
LINE
  8
0
 62
4
 10
1.02584297E+02
 20
2.95528530E+01
 11
1.04584297E+02
 21
2.95528530E+01
  0
LINE
  8
0
 62
4
 10
1.00334297E+02
 20
3.02528530E+01
 11
1.06834297E+02
 21
3.02528530E+01
  0
LINE
  8
0
 62
4
 10
1.00334297E+02
 20
2.70528530E+01
 11
1.01534297E+02
 21
2.70528530E+01
  0
LINE
  8
0
 62
4
 10
1.00334297E+02
 20
2.74528530E+01
 11
1.01534297E+02
 21
2.74528530E+01
  0
LINE
  8
0
 62
4
 10
1.00334297E+02
 20
2.70528530E+01
 11
1.00334297E+02
 21
2.59528530E+01
  0
LINE
  8
0
 62
4
 10
1.01534297E+02
 20
2.92528530E+01
 11
1.01534297E+02
 21
2.59528530E+01
  0
LINE
  8
0
 62
4
 10
1.07084297E+02
 20
3.26528530E+01
 11
1.07084297E+02
 21
2.67528530E+01
  0
LINE
  8
0
 62
4
 10
1.00084297E+02
 20
3.26528530E+01
 11
1.00084297E+02
 21
2.74528530E+01
  0
LINE
  8
0
 62
4
 10
1.01084297E+02
 20
3.49528530E+01
 11
1.06084297E+02
 21
3.49528530E+01
  0
LINE
  8
0
 62
4
 10
1.00084297E+02
 20
3.39528530E+01
 11
1.07084297E+02
 21
3.39528530E+01
  0
LINE
  8
0
 62
4
 10
1.01584297E+02
 20
3.24528530E+01
 11
1.05584297E+02
 21
3.24528530E+01
  0
LINE
  8
0
 62
4
 10
1.00584297E+02
 20
3.31528530E+01
 11
1.06584297E+02
 21
3.31528530E+01
  0
LINE
  8
0
 62
4
 10
1.07884297E+02
 20
3.31528530E+01
 11
1.07884297E+02
 21
2.67528530E+01
  0
LINE
  8
0
 62
4
 10
9.92842972E+01
 20
3.31528530E+01
 11
9.92842972E+01
 21
2.74528530E+01
  0
LINE
  8
0
 62
4
 10
1.05644297E+02
 20
3.31528530E+01
 11
1.05584297E+02
 21
3.24528530E+01
  0
LINE
  8
0
 62
4
 10
1.01524297E+02
 20
3.31528530E+01
 11
1.01584297E+02
 21
3.24528530E+01
  0
LINE
  8
0
 62
4
 10
9.92842972E+01
 20
2.74528530E+01
 11
1.00084297E+02
 21
2.74528530E+01
  0
LINE
  8
0
 62
4
 10
1.07084297E+02
 20
2.67528530E+01
 11
1.07884297E+02
 21
2.67528530E+01
  0
LINE
  8
0
 62
4
 10
1.07884297E+02
 20
2.89528530E+01
 11
1.08265912E+02
 21
2.91754616E+01
  0
LINE
  8
0
 62
4
 10
1.09484297E+02
 20
3.22528530E+01
 11
1.09484297E+02
 21
2.98828530E+01
  0
LINE
  8
0
 62
4
 10
1.08684297E+02
 20
3.22528530E+01
 11
1.09484297E+02
 21
3.22528530E+01
  0
LINE
  8
0
 62
4
 10
1.08684297E+02
 20
3.22528530E+01
 11
1.08684297E+02
 21
3.03428530E+01
  0
LINE
  8
0
 62
4
 10
1.07884297E+02
 20
2.98828530E+01
 11
1.08181007E+02
 21
3.00476919E+01
  0
LINE
  8
0
 62
4
 10
1.00234297E+02
 20
3.26528530E+01
 11
1.00234297E+02
 21
2.74528530E+01
  0
LINE
  8
0
 62
4
 10
1.00084297E+02
 20
3.26528530E+01
 11
1.00234297E+02
 21
3.26528530E+01
  0
LINE
  8
0
 62
4
 10
1.08656446E+02
 20
3.03242857E+01
 11
1.08684297E+02
 21
3.03428530E+01
  0
LINE
  8
0
 62
4
 10
1.08742189E+02
 20
2.94434468E+01
 11
1.09484297E+02
 21
2.98828530E+01
  0
LINE
  8
0
 62
4
 10
1.02084297E+02
 20
3.49528530E+01
 11
1.02084297E+02
 21
3.39528530E+01
  0
LINE
  8
0
 62
4
 10
1.05084297E+02
 20
3.49528530E+01
 11
1.05084297E+02
 21
3.39528530E+01
  0
LINE
  8
0
 62
6
 10
1.04814297E+02
 20
3.49528530E+01
 11
1.04814297E+02
 21
3.39528530E+01
  0
LINE
  8
0
 62
6
 10
1.02354297E+02
 20
3.49528530E+01
 11
1.02354297E+02
 21
3.39528530E+01
  0
LINE
  8
0
 62
4
 10
1.06084297E+02
 20
3.54528530E+01
 11
1.06084297E+02
 21
3.49528530E+01
  0
LINE
  8
0
 62
4
 10
1.01084297E+02
 20
3.54528530E+01
 11
1.01084297E+02
 21
3.49528530E+01
  0
LINE
  8
0
 62
4
 10
1.02084297E+02
 20
3.64528530E+01
 11
1.05084297E+02
 21
3.64528530E+01
  0
LINE
  8
0
 62
4
 10
1.02084297E+02
 20
3.24528530E+01
 11
1.02084297E+02
 21
3.12528530E+01
  0
LINE
  8
0
 62
6
 10
1.02354297E+02
 20
3.24528530E+01
 11
1.02354297E+02
 21
3.09828530E+01
  0
LINE
  8
0
 62
6
 10
1.04814297E+02
 20
3.24528530E+01
 11
1.04814297E+02
 21
3.09828530E+01
  0
LINE
  8
0
 62
4
 10
1.05084297E+02
 20
3.24528530E+01
 11
1.05084297E+02
 21
3.12528530E+01
  0
LINE
  8
0
 62
4
 10
1.02284297E+02
 20
2.85528530E+01
 11
1.04884297E+02
 21
2.85528530E+01
  0
LINE
  8
0
 62
4
 10
1.04884297E+02
 20
2.85528530E+01
 11
1.04884297E+02
 21
2.59528530E+01
  0
LINE
  8
0
 62
4
 10
1.02284297E+02
 20
2.85528530E+01
 11
1.02284297E+02
 21
2.59528530E+01
  0
LINE
  8
0
 62
4
 10
1.01534297E+02
 20
2.92528530E+01
 11
1.02284297E+02
 21
2.85528530E+01
  0
LINE
  8
0
 62
4
 10
1.04884297E+02
 20
2.85528530E+01
 11
1.05634297E+02
 21
2.92528530E+01
  0
ARC
  8
0
 62
4
 10
1.00584457E+02
 20
3.26526929E+01
 40
5.00160181E-01
 50
9.00000002E+01
 51
1.79981654E+02
  0
ARC
  8
0
 62
4
 10
1.06591922E+02
 20
3.26604782E+01
 40
4.92433852E-01
 50
3.59112757E+02
 51
9.08872431E+01
  0
ARC
  8
0
 62
4
 10
1.00084436E+02
 20
3.31527147E+01
 40
8.00138358E-01
 50
9.00000002E+01
 51
1.79990093E+02
  0
ARC
  8
0
 62
4
 10
1.07091922E+02
 20
3.31604782E+01
 40
7.92411497E-01
 50
3.59448647E+02
 51
9.05513523E+01
  0
ARC
  8
0
 62
4
 10
1.02084427E+02
 20
3.54527235E+01
 40
1.00012957E+00
 50
9.00000002E+01
 51
1.79992578E+02
  0
ARC
  8
0
 62
4
 10
1.05091924E+02
 20
3.54604797E+01
 40
9.92402587E-01
 50
3.59559672E+02
 51
9.04403286E+01
  0
LINE
  8
0
 62
7
 10
1.01984297E+02
 20
2.59528530E+01
 11
1.01984297E+02
 21
1.19528530E+01
  0
ARC
  8
0
 62
7
 10
1.03583280E+02
 20
1.89518356E+01
 40
8.49754963E+00
 50
2.14548428E+02
 51
2.35451572E+02
  0
ARC
  8
0
 62
7
 10
1.03578276E+02
 20
1.89588737E+01
 40
8.50733810E+00
 50
3.04560588E+02
 51
3.25439412E+02
  0
LINE
  8
0
 62
7
 10
9.87642972E+01
 20
1.19528530E+01
 11
1.08404297E+02
 21
1.19528530E+01
  0
ARC
  8
0
 62
7
 10
1.03583274E+02
 20
1.89518296E+01
 40
8.50038792E+00
 50
3.45519569E+01
 51
5.54480430E+01
  0
LINE
  8
0
 62
7
 10
1.10584297E+02
 20
2.37728530E+01
 11
1.10584297E+02
 21
1.41328530E+01
  0
ARC
  8
0
 62
7
 10
1.03578277E+02
 20
1.89588735E+01
 40
8.49059170E+00
 50
1.24539767E+02
 51
1.45460233E+02
  0
LINE
  8
0
 62
7
 10
9.65842972E+01
 20
2.37728530E+01
 11
9.65842972E+01
 21
1.41328530E+01
  0
LINE
  8
0
 62
7
 10
9.87642972E+01
 20
2.59528530E+01
 11
1.08404297E+02
 21
2.59528530E+01
  0
LINE
  8
0
 62
7
 10
1.05184297E+02
 20
2.59528530E+01
 11
1.05184297E+02
 21
1.19528530E+01
  0
LINE
  8
0
  6
CENTER
 62
2
 10
9.42759678E+01
 20
1.89528530E+01
 11
1.12523029E+02
 21
1.89528530E+01
  0
ARC
  8
0
 62
7
 10
1.03584297E+02
 20
1.89528530E+01
 40
7.00000000E+00
 50
1.03212980E+02
 51
2.56787020E+02
  0
ARC
  8
0
 62
7
 10
1.03584297E+02
 20
1.89528530E+01
 40
7.00000000E+00
 50
2.83212980E+02
 51
7.67870199E+01
  0
LINE
  8
0
 62
7
 10
3.13771149E+01
 20
4.96623449E+01
 11
4.43786186E+01
 21
4.96623449E+01
  0
LINE
  8
0
 62
7
 10
3.13771149E+01
 20
6.06623449E+01
 11
4.43786186E+01
 21
6.06623449E+01
  0
LINE
  8
0
 62
7
 10
-2.06113814E+01
 20
6.06623449E+01
 11
2.23771149E+01
 21
6.06623449E+01
  0
LINE
  8
0
 62
7
 10
-2.06113814E+01
 20
4.96623449E+01
 11
2.23771149E+01
 21
4.96623449E+01
  0
LINE
  8
0
  6
CENTER
 62
6
 10
-2.51113814E+01
 20
6.24623266E+01
 11
-2.51113814E+01
 21
4.69823266E+01
  0
LINE
  8
0
 62
4
 10
-2.31113814E+01
 20
6.10268055E+01
 11
-2.31113814E+01
 21
6.00095215E+01
  0
LINE
  8
0
 62
4
 10
-2.06113814E+01
 20
4.95123266E+01
 11
-2.06113814E+01
 21
6.10268055E+01
  0
LINE
  8
0
 62
4
 10
-2.96113814E+01
 20
4.95123266E+01
 11
-2.96113814E+01
 21
6.10268055E+01
  0
LINE
  8
0
 62
4
 10
-2.96113814E+01
 20
6.00095215E+01
 11
-2.06113814E+01
 21
6.00095215E+01
  0
LINE
  8
0
 62
6
 10
-4.67438233E+00
 20
5.64623266E+01
 11
-7.27438233E+00
 21
5.38623266E+01
  0
LINE
  8
0
 62
4
 10
-1.26113814E+01
 20
5.31623266E+01
 11
-9.61138142E+00
 21
5.38623266E+01
  0
LINE
  8
0
 62
4
 10
-9.61138141E+00
 20
5.64623266E+01
 11
-9.61138141E+00
 21
5.38623266E+01
  0
LINE
  8
0
 62
4
 10
-9.61138142E+00
 20
5.38623266E+01
 11
-7.27438233E+00
 21
5.38623266E+01
  0
LINE
  8
0
 62
4
 10
-9.61138142E+00
 20
5.64623266E+01
 11
-4.67438233E+00
 21
5.64623266E+01
  0
LINE
  8
0
 62
4
 10
-1.26113814E+01
 20
5.71623266E+01
 11
-9.61138141E+00
 21
5.64623266E+01
  0
LINE
  8
0
 62
4
 10
-2.96113814E+01
 20
5.94623633E+01
 11
-2.06113814E+01
 21
5.94623633E+01
  0
LINE
  8
0
 62
4
 10
-2.96113814E+01
 20
5.08623266E+01
 11
-2.06113814E+01
 21
5.08623266E+01
  0
LINE
  8
0
 62
4
 10
-3.21113814E+01
 20
5.19123266E+01
 11
-3.21113814E+01
 21
5.84123266E+01
  0
LINE
  8
0
 62
4
 10
-2.96113814E+01
 20
4.95123266E+01
 11
-2.06113814E+01
 21
4.95123266E+01
  0
LINE
  8
0
 62
4
 10
-2.40013814E+01
 20
5.40623266E+01
 11
-2.40513814E+01
 21
5.41023266E+01
  0
LINE
  8
0
 62
4
 10
-2.61713814E+01
 20
5.41023266E+01
 11
-2.40513814E+01
 21
5.62223266E+01
  0
LINE
  8
0
 62
4
 10
-2.41013814E+01
 20
5.41623266E+01
 11
-2.61713814E+01
 21
5.62223266E+01
  0
LINE
  8
0
 62
4
 10
-1.26113814E+01
 20
5.71623266E+01
 11
-1.26113814E+01
 21
5.31623266E+01
  0
LINE
  8
0
 62
4
 10
-3.76113814E+01
 20
5.61623266E+01
 11
-3.76113814E+01
 21
5.41623266E+01
  0
LINE
  8
0
 62
4
 10
-3.66113814E+01
 20
5.31623266E+01
 11
-3.21113814E+01
 21
5.31623266E+01
  0
LINE
  8
0
 62
4
 10
-3.66113814E+01
 20
5.71623266E+01
 11
-3.21113814E+01
 21
5.71623266E+01
  0
LINE
  8
0
 62
4
 10
-3.66113814E+01
 20
5.71623266E+01
 11
-3.66113814E+01
 21
5.31623266E+01
  0
LINE
  8
0
 62
4
 10
-3.76113814E+01
 20
5.61623266E+01
 11
-3.66113814E+01
 21
5.71623266E+01
  0
LINE
  8
0
 62
4
 10
-3.76113814E+01
 20
5.41623266E+01
 11
-3.66113814E+01
 21
5.31623266E+01
  0
LINE
  8
0
 62
4
 10
-3.21113814E+01
 20
5.19123266E+01
 11
-2.96113814E+01
 21
5.19123266E+01
  0
LINE
  8
0
 62
4
 10
-3.21113814E+01
 20
5.84123266E+01
 11
-2.96113814E+01
 21
5.84123266E+01
  0
LINE
  8
0
 62
4
 10
-1.81113814E+01
 20
5.19123266E+01
 11
-1.81113814E+01
 21
5.84123266E+01
  0
LINE
  8
0
 62
4
 10
-2.06113814E+01
 20
5.84123266E+01
 11
-1.81113814E+01
 21
5.84123266E+01
  0
LINE
  8
0
 62
4
 10
-2.06113814E+01
 20
5.19123266E+01
 11
-1.81113814E+01
 21
5.19123266E+01
  0
LINE
  8
0
 62
4
 10
-1.81113814E+01
 20
5.71623266E+01
 11
-1.26113814E+01
 21
5.71623266E+01
  0
LINE
  8
0
 62
4
 10
-1.81113814E+01
 20
5.31623266E+01
 11
-1.26113814E+01
 21
5.31623266E+01
  0
CIRCLE
  8
0
 62
4
 10
-2.51122567E+01
 20
5.51598681E+01
 40
2.50000000E+00
  0
LINE
  8
0
 62
4
 10
-2.71113814E+01
 20
6.02623266E+01
 11
-2.31113814E+01
 21
6.02623266E+01
  0
LINE
  8
0
 62
4
 10
-2.96113814E+01
 20
6.10268055E+01
 11
-2.06113814E+01
 21
6.10268055E+01
  0
LINE
  8
0
 62
4
 10
-2.71113814E+01
 20
6.00095215E+01
 11
-2.71113814E+01
 21
6.10268055E+01
  0
LINE
  8
0
 62
7
 10
-6.48146645E+01
 20
5.91623449E+01
 11
-6.56146645E+01
 21
5.83623449E+01
  0
ARC
  8
0
 62
7
 10
6.37973521E+01
 20
5.51623449E+01
 40
7.58087858E+00
 50
3.20519898E+02
 51
3.47815679E+02
  0
LINE
  8
0
 62
7
 10
4.61086186E+01
 20
4.98703433E+01
 11
4.61086186E+01
 21
4.81623449E+01
  0
LINE
  8
0
 62
7
 10
6.96486186E+01
 20
5.03423449E+01
 11
6.96486186E+01
 21
4.81623449E+01
  0
LINE
  8
0
 62
7
 10
4.89779653E+01
 20
5.03423449E+01
 11
6.96486186E+01
 21
5.03423449E+01
  0
ARC
  8
0
 62
7
 10
6.37973521E+01
 20
5.51623449E+01
 40
7.58087858E+00
 50
1.21843217E+01
 51
3.94801022E+01
  0
LINE
  8
0
 62
7
 10
6.96486186E+01
 20
5.99823449E+01
 11
6.96486186E+01
 21
6.21623449E+01
  0
LINE
  8
0
 62
7
 10
4.61086186E+01
 20
5.99823449E+01
 11
6.96486186E+01
 21
5.99823449E+01
  0
ARC
  8
0
 62
7
 10
5.19598851E+01
 20
5.51623449E+01
 40
7.58087858E+00
 50
1.40519898E+02
 51
2.13487902E+02
  0
LINE
  8
0
 62
7
 10
4.61086186E+01
 20
5.99823449E+01
 11
4.61086186E+01
 21
6.21623449E+01
  0
ARC
  8
0
 62
7
 10
-4.71991469E+01
 20
5.51617690E+01
 40
7.58626181E+00
 50
3.26660293E+02
 51
3.94522515E+01
  0
ARC
  8
0
 62
7
 10
-5.00301149E+01
 20
5.51623449E+01
 40
7.58087858E+00
 50
1.40519898E+02
 51
2.19480102E+02
  0
CIRCLE
  8
0
 62
2
 10
-4.91113814E+01
 20
5.51623449E+01
 40
2.50000500E+00
  0
CIRCLE
  8
0
 62
2
 10
5.33851976E+01
 20
5.51673451E+01
 40
2.50000000E+00
  0
ARC
  8
0
 62
7
 10
-4.26154647E+01
 20
5.10642673E+01
 40
1.75408436E+00
 50
3.35337808E+02
 51
3.59937207E+02
  0
CIRCLE
  8
0
 62
7
 10
4.73852090E+01
 20
5.10673466E+01
 40
1.75000000E+00
  0
CIRCLE
  8
0
 62
7
 10
4.73852090E+01
 20
5.10673466E+01
 40
1.25000000E+00
  0
CIRCLE
  8
0
 62
7
 10
-4.26147872E+01
 20
5.10673457E+01
 40
1.25000000E+00
  0
CIRCLE
  8
0
 62
7
 10
-4.26147872E+01
 20
5.10673457E+01
 40
1.75000000E+00
  0
LINE
  8
0
 62
7
 10
-5.58813814E+01
 20
5.03423449E+01
 11
-4.42013814E+01
 21
5.03423449E+01
  0
LINE
  8
0
 62
7
 10
-5.58813814E+01
 20
5.99823449E+01
 11
-4.13413814E+01
 21
5.99823449E+01
  0
LINE
  8
0
 62
7
 10
5.83786186E+01
 20
5.67623449E+01
 11
5.83786186E+01
 21
5.35623449E+01
  0
LINE
  8
0
 62
7
 10
-4.13413814E+01
 20
5.99823449E+01
 11
-4.13413814E+01
 21
6.21623449E+01
  0
LINE
  8
0
 62
7
 10
-5.58813814E+01
 20
5.99823449E+01
 11
-5.58813814E+01
 21
6.21623449E+01
  0
LINE
  8
0
 62
7
 10
-5.76113814E+01
 20
6.21623449E+01
 11
-3.96113814E+01
 21
6.21623449E+01
  0
LINE
  8
0
 62
7
 10
-3.96113814E+01
 20
6.06623449E+01
 11
-2.96113814E+01
 21
6.06623449E+01
  0
LINE
  8
0
 62
7
 10
-3.96113814E+01
 20
4.81623449E+01
 11
-3.96113814E+01
 21
6.21623449E+01
  0
LINE
  8
0
 62
7
 10
-5.76113814E+01
 20
4.81623449E+01
 11
-5.76113814E+01
 21
6.21623449E+01
  0
LINE
  8
0
  6
CENTER
 62
2
 10
-4.91113814E+01
 20
5.03423449E+01
 11
-4.91113814E+01
 21
5.99823449E+01
  0
LINE
  8
0
 62
7
 10
7.13786186E+01
 20
5.35623449E+01
 11
7.13786186E+01
 21
4.81623449E+01
  0
LINE
  8
0
 62
7
 10
4.43786186E+01
 20
4.81623449E+01
 11
7.13786186E+01
 21
4.81623449E+01
  0
LINE
  8
0
 62
7
 10
4.43786186E+01
 20
6.21623449E+01
 11
7.13786186E+01
 21
6.21623449E+01
  0
LINE
  8
0
 62
7
 10
5.83786186E+01
 20
5.35623449E+01
 11
7.13786186E+01
 21
5.35623449E+01
  0
LINE
  8
0
 62
7
 10
5.83786186E+01
 20
5.67623449E+01
 11
7.13786186E+01
 21
5.67623449E+01
  0
LINE
  8
0
  6
CENTER
 62
2
 10
6.63786186E+01
 20
6.36335636E+01
 11
6.63786186E+01
 21
4.68832972E+01
  0
LINE
  8
0
 62
7
 10
7.13786186E+01
 20
6.21623449E+01
 11
7.13786186E+01
 21
5.67623449E+01
  0
LINE
  8
0
  6
CENTER
 62
2
 10
5.33786186E+01
 20
5.97723449E+01
 11
5.33786186E+01
 21
5.05523449E+01
  0
LINE
  8
0
 62
7
 10
4.43786186E+01
 20
6.21623449E+01
 11
4.43786186E+01
 21
4.81623449E+01
  0
LINE
  8
0
 62
7
 10
-4.13413814E+01
 20
4.98623449E+01
 11
-4.13413814E+01
 21
4.81623449E+01
  0
LINE
  8
0
  6
CENTER
 62
2
 10
4.73786186E+01
 20
5.37826424E+01
 11
4.73786186E+01
 21
4.84302169E+01
  0
LINE
  8
0
 62
7
 10
4.61686186E+01
 20
5.13623449E+01
 11
4.85986186E+01
 21
5.13623449E+01
  0
LINE
  8
0
 62
7
 10
4.61686186E+01
 20
5.07623449E+01
 11
4.85986186E+01
 21
5.07623449E+01
  0
LINE
  8
0
  6
CENTER
 62
2
 10
4.48023856E+01
 20
5.10623449E+01
 11
5.01548111E+01
 21
5.10623449E+01
  0
LINE
  8
0
  6
CENTER
 62
2
 10
-4.51581460E+01
 20
5.10623449E+01
 11
-4.00757392E+01
 21
5.10623449E+01
  0
LINE
  8
0
 62
7
 10
-4.38213814E+01
 20
5.13623449E+01
 11
-4.14013814E+01
 21
5.13623449E+01
  0
LINE
  8
0
 62
7
 10
-4.38213814E+01
 20
5.07623449E+01
 11
-4.14013814E+01
 21
5.07623449E+01
  0
LINE
  8
0
 62
7
 10
-5.58813814E+01
 20
5.03423449E+01
 11
-5.58813814E+01
 21
4.81623449E+01
  0
LINE
  8
0
 62
7
 10
-5.76113814E+01
 20
4.81623449E+01
 11
-3.96113814E+01
 21
4.81623449E+01
  0
LINE
  8
0
 62
7
 10
-3.96113814E+01
 20
4.96623449E+01
 11
-2.96113814E+01
 21
4.96623449E+01
  0
LINE
  8
0
  6
CENTER
 62
2
 10
-8.76146645E+01
 20
5.51623449E+01
 11
7.56581348E+01
 21
5.51623449E+01
  0
LINE
  8
0
 62
7
 10
-6.48146645E+01
 20
5.11623449E+01
 11
-5.76146645E+01
 21
5.11623449E+01
  0
LINE
  8
0
 62
7
 10
-6.48146645E+01
 20
5.91623449E+01
 11
-5.76146645E+01
 21
5.91623449E+01
  0
LINE
  8
0
 62
2
 10
-6.54911645E+01
 20
5.84858449E+01
 11
-5.91146645E+01
 21
5.84858449E+01
  0
LINE
  8
0
 62
2
 10
-6.54911645E+01
 20
5.18388449E+01
 11
-5.91146645E+01
 21
5.18388449E+01
  0
LINE
  8
0
 62
2
 10
-7.78346645E+01
 20
5.35413449E+01
 11
-7.06146645E+01
 21
5.35413449E+01
  0
LINE
  8
0
 62
2
 10
-7.78346645E+01
 20
5.67833449E+01
 11
-7.06146645E+01
 21
5.67833449E+01
  0
LINE
  8
0
 62
2
 10
-8.52936645E+01
 20
5.35413449E+01
 11
-8.10346645E+01
 21
5.35413449E+01
  0
LINE
  8
0
 62
2
 10
-8.52936645E+01
 20
5.67833449E+01
 11
-8.10346645E+01
 21
5.67833449E+01
  0
LINE
  8
0
 62
7
 10
-6.56146645E+01
 20
5.83623449E+01
 11
-6.56146645E+01
 21
5.19623449E+01
  0
LINE
  8
0
 62
7
 10
-6.56146645E+01
 20
5.19623449E+01
 11
-6.48146645E+01
 21
5.11623449E+01
  0
LINE
  8
0
 62
7
 10
-6.48146645E+01
 20
5.91623449E+01
 11
-6.48146645E+01
 21
5.11623449E+01
  0
LINE
  8
0
 62
7
 10
-5.91146645E+01
 20
5.91623449E+01
 11
-5.91146645E+01
 21
5.11623449E+01
  0
LINE
  8
0
 62
7
 10
-8.56146645E+01
 20
5.64623449E+01
 11
-8.56146645E+01
 21
5.38623449E+01
  0
LINE
  8
0
 62
7
 10
-7.06146645E+01
 20
5.71623449E+01
 11
-7.06146645E+01
 21
5.31623449E+01
  0
LINE
  8
0
 62
7
 10
-8.49146645E+01
 20
5.71623449E+01
 11
-8.10346645E+01
 21
5.71623449E+01
  0
LINE
  8
0
 62
7
 10
-8.49146645E+01
 20
5.31623449E+01
 11
-8.10346645E+01
 21
5.31623449E+01
  0
LINE
  8
0
 62
7
 10
-8.49146645E+01
 20
5.71623449E+01
 11
-8.56146645E+01
 21
5.64623449E+01
  0
LINE
  8
0
 62
7
 10
-8.56146645E+01
 20
5.38623449E+01
 11
-8.49146645E+01
 21
5.31623449E+01
  0
LINE
  8
0
 62
7
 10
-8.49146645E+01
 20
5.71623449E+01
 11
-8.49146645E+01
 21
5.31623449E+01
  0
LINE
  8
0
 62
7
 10
-7.78346645E+01
 20
5.71623449E+01
 11
-6.56146645E+01
 21
5.71623449E+01
  0
LINE
  8
0
 62
7
 10
-7.78346645E+01
 20
5.31623449E+01
 11
-6.56146645E+01
 21
5.31623449E+01
  0
LINE
  8
0
  6
CENTER
 62
2
 10
-4.26113814E+01
 20
5.37826424E+01
 11
-4.26113814E+01
 21
4.84302169E+01
  0
LINE
  8
0
 62
4
 10
-8.10346645E+01
 20
5.86623449E+01
 11
-8.10346645E+01
 21
5.16623449E+01
  0
LINE
  8
0
 62
4
 10
-7.78346645E+01
 20
5.86623449E+01
 11
-7.78346645E+01
 21
5.16623449E+01
  0
LINE
  8
0
 62
4
 10
-8.10346645E+01
 20
5.86623449E+01
 11
-7.78346645E+01
 21
5.86623449E+01
  0
LINE
  8
0
 62
4
 10
-8.10346645E+01
 20
5.16623449E+01
 11
-7.78346645E+01
 21
5.16623449E+01
  0
LINE
  8
0
 62
4
 10
-8.06646645E+01
 20
5.51623449E+01
 11
-7.82046645E+01
 21
5.51623449E+01
  0
ARC
  8
0
 62
4
 10
-7.67111510E+01
 20
5.69123449E+01
 40
4.32351351E+00
 50
1.56123699E+02
 51
2.03876301E+02
  0
ARC
  8
0
 62
4
 10
-7.67111510E+01
 20
5.34123449E+01
 40
4.32351351E+00
 50
1.56123699E+02
 51
2.03876301E+02
  0
ARC
  8
0
 62
4
 10
-8.21581780E+01
 20
5.69123449E+01
 40
4.32351351E+00
 50
3.36123699E+02
 51
2.38763010E+01
  0
ARC
  8
0
 62
4
 10
-8.21581780E+01
 20
5.34123449E+01
 40
4.32351351E+00
 50
3.36123699E+02
 51
2.38763010E+01
  0
CIRCLE
  8
0
 62
7
 10
-4.91113814E+01
 20
5.51623449E+01
 40
2.06700000E+00
  0
CIRCLE
  8
0
 62
7
 10
5.33786186E+01
 20
5.51623449E+01
 40
2.06700000E+00
  0
LINE
  8
0
 62
4
 10
2.88771149E+01
 20
6.00095215E+01
 11
2.88771149E+01
 21
6.10268055E+01
  0
LINE
  8
0
 62
4
 10
3.13771149E+01
 20
6.10268055E+01
 11
2.23771149E+01
 21
6.10268055E+01
  0
LINE
  8
0
 62
4
 10
2.88771149E+01
 20
6.02623266E+01
 11
2.48771149E+01
 21
6.02623266E+01
  0
CIRCLE
  8
0
 62
4
 10
2.68779902E+01
 20
5.51598681E+01
 40
2.50000000E+00
  0
LINE
  8
0
 62
4
 10
1.98771149E+01
 20
5.31623266E+01
 11
1.43771149E+01
 21
5.31623266E+01
  0
LINE
  8
0
 62
4
 10
1.98771149E+01
 20
5.71623266E+01
 11
1.43771149E+01
 21
5.71623266E+01
  0
LINE
  8
0
 62
4
 10
2.23771149E+01
 20
5.19123266E+01
 11
1.98771149E+01
 21
5.19123266E+01
  0
LINE
  8
0
 62
4
 10
2.23771149E+01
 20
5.84123266E+01
 11
1.98771149E+01
 21
5.84123266E+01
  0
LINE
  8
0
 62
4
 10
1.98771149E+01
 20
5.19123266E+01
 11
1.98771149E+01
 21
5.84123266E+01
  0
LINE
  8
0
 62
4
 10
3.38771149E+01
 20
5.84123266E+01
 11
3.13771149E+01
 21
5.84123266E+01
  0
LINE
  8
0
 62
4
 10
3.38771149E+01
 20
5.19123266E+01
 11
3.13771149E+01
 21
5.19123266E+01
  0
LINE
  8
0
 62
4
 10
3.93771149E+01
 20
5.41623266E+01
 11
3.83771149E+01
 21
5.31623266E+01
  0
LINE
  8
0
 62
4
 10
3.93771149E+01
 20
5.61623266E+01
 11
3.83771149E+01
 21
5.71623266E+01
  0
LINE
  8
0
 62
4
 10
3.83771149E+01
 20
5.71623266E+01
 11
3.83771149E+01
 21
5.31623266E+01
  0
LINE
  8
0
 62
4
 10
3.83771149E+01
 20
5.71623266E+01
 11
3.38771149E+01
 21
5.71623266E+01
  0
LINE
  8
0
 62
4
 10
3.83771149E+01
 20
5.31623266E+01
 11
3.38771149E+01
 21
5.31623266E+01
  0
LINE
  8
0
 62
4
 10
3.93771149E+01
 20
5.61623266E+01
 11
3.93771149E+01
 21
5.41623266E+01
  0
LINE
  8
0
 62
4
 10
1.43771149E+01
 20
5.71623266E+01
 11
1.43771149E+01
 21
5.31623266E+01
  0
LINE
  8
0
 62
4
 10
2.58671149E+01
 20
5.41623266E+01
 11
2.79371149E+01
 21
5.62223266E+01
  0
LINE
  8
0
 62
4
 10
2.79371149E+01
 20
5.41023266E+01
 11
2.58171149E+01
 21
5.62223266E+01
  0
LINE
  8
0
 62
4
 10
2.57671149E+01
 20
5.40623266E+01
 11
2.58171149E+01
 21
5.41023266E+01
  0
LINE
  8
0
 62
4
 10
3.13771149E+01
 20
4.95123266E+01
 11
2.23771149E+01
 21
4.95123266E+01
  0
LINE
  8
0
 62
4
 10
3.38771149E+01
 20
5.19123266E+01
 11
3.38771149E+01
 21
5.84123266E+01
  0
LINE
  8
0
 62
4
 10
3.13771149E+01
 20
5.08623266E+01
 11
2.23771149E+01
 21
5.08623266E+01
  0
LINE
  8
0
 62
4
 10
3.13771149E+01
 20
5.94623633E+01
 11
2.23771149E+01
 21
5.94623633E+01
  0
LINE
  8
0
 62
4
 10
1.43771149E+01
 20
5.71623266E+01
 11
1.13771149E+01
 21
5.64623266E+01
  0
LINE
  8
0
 62
4
 10
1.13771149E+01
 20
5.64623266E+01
 11
6.44011584E+00
 21
5.64623266E+01
  0
LINE
  8
0
 62
4
 10
1.13771149E+01
 20
5.38623266E+01
 11
9.04011584E+00
 21
5.38623266E+01
  0
LINE
  8
0
 62
4
 10
1.13771149E+01
 20
5.64623266E+01
 11
1.13771149E+01
 21
5.38623266E+01
  0
LINE
  8
0
 62
4
 10
1.43771149E+01
 20
5.31623266E+01
 11
1.13771149E+01
 21
5.38623266E+01
  0
LINE
  8
0
 62
6
 10
6.44011584E+00
 20
5.64623266E+01
 11
9.04011584E+00
 21
5.38623266E+01
  0
LINE
  8
0
 62
4
 10
3.13771149E+01
 20
6.00095215E+01
 11
2.23771149E+01
 21
6.00095215E+01
  0
LINE
  8
0
 62
4
 10
3.13771149E+01
 20
4.95123266E+01
 11
3.13771149E+01
 21
6.10268055E+01
  0
LINE
  8
0
 62
4
 10
2.23771149E+01
 20
4.95123266E+01
 11
2.23771149E+01
 21
6.10268055E+01
  0
LINE
  8
0
 62
4
 10
2.48771149E+01
 20
6.10268055E+01
 11
2.48771149E+01
 21
6.00095215E+01
  0
LINE
  8
0
  6
CENTER
 62
6
 10
2.68771149E+01
 20
6.24623266E+01
 11
2.68771149E+01
 21
4.69823266E+01
  0
TEXT
  8
0
 62
7
 10
-1.49473189E+01
 20
5.07623266E+01
 40
1.50000000E+00
  1
PBDAUS10-7
 41
1.00000000E+00
  7
MONOTXT
  0
LINE
  8
0
  6
PHANTOM
 10
8.82866754E-01
 20
3.74402398E+01
 11
8.82866754E-01
 21
6.83144056E+01
  0
LINE
  8
0
  6
CENTER
 62
6
 10
-4.74883851E+01
 20
-4.91323940E+01
 11
-3.70555484E+01
 21
-4.91323940E+01
  0
LINE
  8
0
  6
CENTER
 62
6
 10
-4.21942011E+01
 20
-5.39768262E+01
 11
-4.21942011E+01
 21
-4.45916818E+01
  0
CIRCLE
  8
0
 62
4
 10
-4.21942011E+01
 20
-4.91323940E+01
 40
1.60000000E+00
  0
CIRCLE
  8
0
 62
4
 10
-4.21942011E+01
 20
-4.91323940E+01
 40
3.00000000E+00
  0
LINE
  8
0
 62
4
 10
-1.09011534E+01
 20
-4.75323940E+01
 11
3.58884661E+00
 21
-4.75323940E+01
  0
LINE
  8
0
 62
4
 10
-1.09011534E+01
 20
-5.07323940E+01
 11
3.58884661E+00
 21
-5.07323940E+01
  0
LINE
  8
0
 62
4
 10
-1.13011534E+01
 20
-5.21323940E+01
 11
-1.13011534E+01
 21
-4.61323940E+01
  0
LINE
  8
0
 62
4
 10
-1.09011534E+01
 20
-5.21323940E+01
 11
-1.09011534E+01
 21
-4.61323940E+01
  0
LINE
  8
0
 62
4
 10
-1.13011534E+01
 20
-5.21323940E+01
 11
-1.09011534E+01
 21
-5.21323940E+01
  0
LINE
  8
0
 62
4
 10
-1.13011534E+01
 20
-4.61323940E+01
 11
-1.09011534E+01
 21
-4.61323940E+01
  0
LINE
  8
0
 62
4
 10
-1.24011534E+01
 20
-5.07323940E+01
 11
-1.24011534E+01
 21
-4.75323940E+01
  0
LINE
  8
0
 62
4
 10
-1.24011534E+01
 20
-5.07323940E+01
 11
-1.13011534E+01
 21
-5.07323940E+01
  0
LINE
  8
0
 62
4
 10
-1.24011534E+01
 20
-4.75323940E+01
 11
-1.13011534E+01
 21
-4.75323940E+01
  0
LINE
  8
0
 62
4
 10
3.98884661E+00
 20
-4.75323940E+01
 11
5.08884661E+00
 21
-4.75323940E+01
  0
LINE
  8
0
 62
4
 10
3.98884661E+00
 20
-5.07323940E+01
 11
5.08884661E+00
 21
-5.07323940E+01
  0
LINE
  8
0
 62
4
 10
3.98884661E+00
 20
-5.21323940E+01
 11
3.98884661E+00
 21
-4.61323940E+01
  0
LINE
  8
0
 62
4
 10
3.58884661E+00
 20
-5.21323940E+01
 11
3.58884661E+00
 21
-4.61323940E+01
  0
LINE
  8
0
 62
4
 10
3.58884661E+00
 20
-4.61323940E+01
 11
3.98884661E+00
 21
-4.61323940E+01
  0
LINE
  8
0
 62
4
 10
3.58884661E+00
 20
-5.21323940E+01
 11
3.98884661E+00
 21
-5.21323940E+01
  0
LINE
  8
0
 62
4
 10
5.08884661E+00
 20
-5.07323940E+01
 11
5.08884661E+00
 21
-4.75323940E+01
  0
LINE
  8
0
  6
CENTER
 62
6
 10
-1.43462798E+01
 20
-4.91323940E+01
 11
6.78712043E+00
 21
-4.91323940E+01
  0
LINE
  8
0
 62
4
 10
8.97642961E+01
 20
-7.13716428E+01
 11
7.97642961E+01
 21
-7.13716428E+01
  0
LINE
  8
0
 62
4
 10
8.97642961E+01
 20
-7.33716428E+01
 11
7.97642961E+01
 21
-7.33716428E+01
  0
ARC
  8
0
 62
4
 10
1.09764296E+02
 20
-7.03716428E+01
 40
3.00000000E+00
 50
1.80000000E+02
 51
2.70000000E+02
  0
ARC
  8
0
 62
4
 10
1.09764296E+02
 20
-7.03716428E+01
 40
1.00000000E+00
 50
1.80000000E+02
 51
2.70000000E+02
  0
ARC
  8
0
 62
4
 10
8.97642961E+01
 20
-7.03716428E+01
 40
1.00000000E+00
 50
2.70000000E+02
 51
0.00000000E+00
  0
ARC
  8
0
 62
4
 10
8.97642961E+01
 20
-7.03716428E+01
 40
3.00000000E+00
 50
2.70000000E+02
 51
0.00000000E+00
  0
LINE
  8
0
 62
4
 10
9.56642961E+01
 20
-6.83716428E+01
 11
1.03864296E+02
 21
-6.83716428E+01
  0
LINE
  8
0
 62
4
 10
9.56642961E+01
 20
-7.33716428E+01
 11
1.03864296E+02
 21
-7.33716428E+01
  0
LINE
  8
0
 62
4
 10
9.27642961E+01
 20
-6.83716428E+01
 11
9.27642961E+01
 21
-7.03716428E+01
  0
LINE
  8
0
 62
4
 10
9.07642961E+01
 20
-6.83716428E+01
 11
9.07642961E+01
 21
-7.03716428E+01
  0
LINE
  8
0
 62
4
 10
1.09764296E+02
 20
-7.33716428E+01
 11
1.19764296E+02
 21
-7.33716428E+01
  0
LINE
  8
0
 62
4
 10
1.06764296E+02
 20
-6.83716428E+01
 11
1.06764296E+02
 21
-7.03716428E+01
  0
LINE
  8
0
 62
4
 10
1.08764296E+02
 20
-6.83716428E+01
 11
1.08764296E+02
 21
-7.03716428E+01
  0
LINE
  8
0
 62
4
 10
1.19764296E+02
 20
-7.13716428E+01
 11
1.19764296E+02
 21
-7.33716428E+01
  0
LINE
  8
0
 62
4
 10
1.09764296E+02
 20
-7.13716428E+01
 11
1.19764296E+02
 21
-7.13716428E+01
  0
LINE
  8
0
  6
CENTER
 62
6
 10
8.46642961E+01
 20
-6.83716428E+01
 11
8.46642961E+01
 21
-7.63716428E+01
  0
LINE
  8
0
  6
CENTER
 62
6
 10
1.14864296E+02
 20
-6.83716428E+01
 11
1.14864296E+02
 21
-7.63716428E+01
  0
LINE
  8
0
 62
4
 10
9.82142961E+01
 20
-3.89816428E+01
 11
1.01314296E+02
 21
-3.89816428E+01
  0
LINE
  8
0
 62
4
 10
9.37642961E+01
 20
-5.63716428E+01
 11
9.37642961E+01
 21
-6.53716428E+01
  0
LINE
  8
0
 62
4
 10
9.82142961E+01
 20
-5.63716428E+01
 11
9.37642961E+01
 21
-5.63716428E+01
  0
LINE
  8
0
 62
4
 10
9.82142961E+01
 20
-3.73716428E+01
 11
9.82142961E+01
 21
-5.63716428E+01
  0
LINE
  8
0
 62
4
 10
9.37642961E+01
 20
-6.73716428E+01
 11
1.05764296E+02
 21
-6.73716428E+01
  0
LINE
  8
0
 62
4
 10
9.37642961E+01
 20
-6.53716428E+01
 11
1.05764296E+02
 21
-6.53716428E+01
  0
LINE
  8
0
 62
4
 10
1.01314296E+02
 20
-3.73716428E+01
 11
1.01314296E+02
 21
-5.63716428E+01
  0
LINE
  8
0
 62
4
 10
1.05764296E+02
 20
-5.63716428E+01
 11
1.05764296E+02
 21
-6.53716428E+01
  0
LINE
  8
0
 62
4
 10
9.82142961E+01
 20
-3.73716428E+01
 11
1.01314296E+02
 21
-3.73716428E+01
  0
LINE
  8
0
  6
CENTER
 62
6
 10
9.52142961E+01
 20
-4.43716428E+01
 11
1.04314296E+02
 21
-4.43716428E+01
  0
LINE
  8
0
 62
4
 10
1.01314296E+02
 20
-5.63716428E+01
 11
1.05764296E+02
 21
-5.63716428E+01
  0
LINE
  8
0
  6
CENTER
 62
6
 10
9.97642961E+01
 20
-3.43716428E+01
 11
9.97642961E+01
 21
-7.63716428E+01
  0
LINE
  8
0
 62
4
 10
9.56642961E+01
 20
-6.73716428E+01
 11
9.56642961E+01
 21
-7.33716428E+01
  0
LINE
  8
0
 62
4
 10
1.03864296E+02
 20
-6.73716428E+01
 11
1.03864296E+02
 21
-7.33716428E+01
  0
ARC
  8
0
 62
4
 10
9.37642961E+01
 20
-6.83716428E+01
 40
1.00000000E+00
 50
9.00000002E+01
 51
1.80000000E+02
  0
ARC
  8
0
 62
4
 10
9.37642961E+01
 20
-6.83716428E+01
 40
3.00000000E+00
 50
9.00000002E+01
 51
1.80000000E+02
  0
ARC
  8
0
 62
4
 10
1.05764296E+02
 20
-6.83716428E+01
 40
1.00000000E+00
 50
0.00000000E+00
 51
9.00000002E+01
  0
ARC
  8
0
 62
4
 10
1.05764296E+02
 20
-6.83716428E+01
 40
3.00000000E+00
 50
0.00000000E+00
 51
9.00000002E+01
  0
LINE
  8
0
 62
4
 10
7.97642961E+01
 20
-7.13716428E+01
 11
7.97642961E+01
 21
-7.33716428E+01
  0
LINE
  8
0
  6
CENTER
 62
6
 10
5.87642961E+01
 20
-3.43666426E+01
 11
5.87642961E+01
 21
-7.63666426E+01
  0
LINE
  8
0
  6
CENTER
 62
6
 10
5.27642961E+01
 20
-6.83666426E+01
 11
5.27642961E+01
 21
-7.63666426E+01
  0
LINE
  8
0
  6
CENTER
 62
6
 10
6.47642961E+01
 20
-6.83666426E+01
 11
6.47642961E+01
 21
-7.63666426E+01
  0
LINE
  8
0
 62
4
 10
5.48642961E+01
 20
-7.13666426E+01
 11
5.48642961E+01
 21
-7.33666426E+01
  0
LINE
  8
0
 62
4
 10
5.06642961E+01
 20
-7.13666426E+01
 11
5.06642961E+01
 21
-7.33666426E+01
  0
LINE
  8
0
 62
4
 10
4.77642961E+01
 20
-7.13666426E+01
 11
6.97642961E+01
 21
-7.13666426E+01
  0
LINE
  8
0
 62
4
 10
6.68642961E+01
 20
-7.13666426E+01
 11
6.68642961E+01
 21
-7.33666426E+01
  0
LINE
  8
0
 62
4
 10
6.26642961E+01
 20
-7.13666426E+01
 11
6.26642961E+01
 21
-7.33666426E+01
  0
LINE
  8
0
 62
4
 10
4.77642961E+01
 20
-7.33666426E+01
 11
6.97642961E+01
 21
-7.33666426E+01
  0
ARC
  8
0
 62
4
 10
5.87642961E+01
 20
-4.93666445E+01
 40
1.19980057E+01
 50
5.99945013E+01
 51
1.20005499E+02
  0
CIRCLE
  8
0
 62
4
 10
5.87642961E+01
 20
-4.43666426E+01
 40
1.64999962E+00
  0
LINE
  8
0
 62
4
 10
5.27642961E+01
 20
-3.89766426E+01
 11
5.27642961E+01
 21
-6.53666426E+01
  0
LINE
  8
0
 62
4
 10
6.47642961E+01
 20
-3.89766426E+01
 11
6.47642961E+01
 21
-6.53666426E+01
  0
LINE
  8
0
 62
4
 10
4.77642961E+01
 20
-6.53666426E+01
 11
6.97642961E+01
 21
-6.53666426E+01
  0
LINE
  8
0
 62
4
 10
5.27642961E+01
 20
-5.63666426E+01
 11
6.47642961E+01
 21
-5.63666426E+01
  0
LINE
  8
0
  6
CENTER
 62
6
 10
4.97642961E+01
 20
-4.43666426E+01
 11
6.77642961E+01
 21
-4.43666426E+01
  0
LINE
  8
0
 62
4
 10
6.97642961E+01
 20
-6.53666426E+01
 11
6.97642961E+01
 21
-7.33666426E+01
  0
LINE
  8
0
 62
4
 10
4.77642961E+01
 20
-6.53666426E+01
 11
4.77642961E+01
 21
-7.33666426E+01
  0
ARC
  8
0
 62
4
 10
1.14864296E+02
 20
-8.37164848E+00
 40
2.10000000E+00
 50
9.00000002E+01
 51
2.70000000E+02
  0
ARC
  8
0
 62
4
 10
8.46642961E+01
 20
-8.37164848E+00
 40
2.10000000E+00
 50
2.70000000E+02
 51
9.00000002E+01
  0
ARC
  8
0
 62
4
 10
8.46642961E+01
 20
-2.03716485E+01
 40
2.10000000E+00
 50
2.70000000E+02
 51
9.00000002E+01
  0
ARC
  8
0
 62
4
 10
1.14864296E+02
 20
-2.03716485E+01
 40
2.10000000E+00
 50
9.00000002E+01
 51
2.70000000E+02
  0
LINE
  8
0
  6
CENTER
 62
6
 10
8.97642961E+01
 20
-2.03716485E+01
 11
7.67642961E+01
 21
-2.03716485E+01
  0
LINE
  8
0
  6
CENTER
 62
6
 10
8.97642961E+01
 20
-8.37164848E+00
 11
7.67642961E+01
 21
-8.37164848E+00
  0
LINE
  8
0
  6
CENTER
 62
6
 10
8.46642961E+01
 20
-2.66410813E+00
 11
8.46642961E+01
 21
-2.62890869E+01
  0
LINE
  8
0
  6
CENTER
 62
6
 10
1.14864296E+02
 20
-2.48096876E+00
 11
1.14864296E+02
 21
-2.62890869E+01
  0
LINE
  8
0
 62
4
 10
7.97642961E+01
 20
-2.24716485E+01
 11
7.97642961E+01
 21
-2.53716485E+01
  0
LINE
  8
0
 62
4
 10
7.97642961E+01
 20
-1.04716485E+01
 11
7.97642961E+01
 21
-1.82716485E+01
  0
LINE
  8
0
 62
4
 10
1.19764296E+02
 20
-2.24716485E+01
 11
1.19764296E+02
 21
-2.53716485E+01
  0
LINE
  8
0
 62
4
 10
1.19764296E+02
 20
-1.06316485E+01
 11
1.19764296E+02
 21
-1.82716485E+01
  0
LINE
  8
0
 62
4
 10
8.46642961E+01
 20
-2.24716485E+01
 11
7.97642961E+01
 21
-2.24716485E+01
  0
LINE
  8
0
 62
4
 10
8.46642961E+01
 20
-1.82716485E+01
 11
7.97642961E+01
 21
-1.82716485E+01
  0
LINE
  8
0
 62
4
 10
8.46642961E+01
 20
-1.04716485E+01
 11
7.97642961E+01
 21
-1.04716485E+01
  0
LINE
  8
0
 62
4
 10
8.46642961E+01
 20
-6.27164848E+00
 11
7.97642961E+01
 21
-6.27164848E+00
  0
LINE
  8
0
  6
CENTER
 62
6
 10
1.22764296E+02
 20
-2.03716485E+01
 11
1.09764296E+02
 21
-2.03716485E+01
  0
LINE
  8
0
  6
CENTER
 62
6
 10
1.22764296E+02
 20
-8.37164848E+00
 11
1.09764296E+02
 21
-8.37164848E+00
  0
LINE
  8
0
 62
4
 10
9.82142961E+01
 20
-8.37164848E+00
 11
9.82142961E+01
 21
-2.03716485E+01
  0
LINE
  8
0
 62
4
 10
1.01314296E+02
 20
-8.37164848E+00
 11
1.01314296E+02
 21
-2.03716485E+01
  0
LINE
  8
0
 62
4
 10
1.19764296E+02
 20
-2.24716485E+01
 11
1.14864296E+02
 21
-2.24716485E+01
  0
LINE
  8
0
 62
4
 10
1.19764296E+02
 20
-1.82716485E+01
 11
1.14864296E+02
 21
-1.82716485E+01
  0
LINE
  8
0
 62
4
 10
1.19764296E+02
 20
-1.04716485E+01
 11
1.14864296E+02
 21
-1.04716485E+01
  0
LINE
  8
0
 62
4
 10
1.19764296E+02
 20
-6.27164848E+00
 11
1.14864296E+02
 21
-6.27164848E+00
  0
LINE
  8
0
 62
4
 10
1.19764296E+02
 20
-3.37164848E+00
 11
7.97642961E+01
 21
-3.37164848E+00
  0
LINE
  8
0
 62
4
 10
1.05764296E+02
 20
-8.37164848E+00
 11
9.37642961E+01
 21
-8.37164848E+00
  0
LINE
  8
0
 62
4
 10
1.19764296E+02
 20
-2.53716485E+01
 11
7.97642961E+01
 21
-2.53716485E+01
  0
LINE
  8
0
 62
4
 10
1.05764296E+02
 20
-2.03716485E+01
 11
9.37642961E+01
 21
-2.03716485E+01
  0
LINE
  8
0
  6
CENTER
 62
6
 10
1.22764296E+02
 20
-1.43716485E+01
 11
7.67642961E+01
 21
-1.43716485E+01
  0
LINE
  8
0
 62
4
 10
1.19764296E+02
 20
-3.37164848E+00
 11
1.19764296E+02
 21
-6.27164848E+00
  0
LINE
  8
0
 62
4
 10
1.08764296E+02
 20
-3.37164848E+00
 11
1.08764296E+02
 21
-2.53716485E+01
  0
LINE
  8
0
 62
4
 10
1.05764296E+02
 20
-8.37164848E+00
 11
1.05764296E+02
 21
-2.03716485E+01
  0
LINE
  8
0
  6
CENTER
 62
6
 10
9.97642961E+01
 20
-2.66410813E+00
 11
9.97642961E+01
 21
-2.62890869E+01
  0
LINE
  8
0
 62
4
 10
9.37642961E+01
 20
-8.37164848E+00
 11
9.37642961E+01
 21
-2.03716485E+01
  0
LINE
  8
0
 62
4
 10
9.07642961E+01
 20
-3.37164848E+00
 11
9.07642961E+01
 21
-2.53716485E+01
  0
LINE
  8
0
 62
4
 10
7.97642961E+01
 20
-3.37164848E+00
 11
7.97642961E+01
 21
-6.27164848E+00
  0
TEXT
  8
0
 62
7
 10
-8.00437339E+01
 20
-7.60119966E+01
 40
3.20000005E+00
  1
(mm)
 41
1.00000000E+00
  7
MONOTXT
  0
TEXT
  8
0
 62
7
 10
-1.20049994E+02
 20
-7.57696827E+01
 40
3.20000005E+00
  1
STRETCH LIST
 41
1.05263158E+00
  7
MONOTXT
  0
TEXT
  8
0
 62
7
 10
-9.74499940E+01
 20
-8.84000031E+01
 40
3.20000005E+00
  1
-30
 41
1.00000000E+00
  7
MONOTXT
  0
TEXT
  8
0
 62
7
 10
-9.58499939E+01
 20
-8.24000031E+01
 40
3.20000005E+00
  1
30
 41
1.00000000E+00
  7
MONOTXT
  0
TEXT
  8
0
 62
7
 10
-8.78499940E+01
 20
-8.84000031E+01
 40
3.20000005E+00
  1
-15
 41
1.00000000E+00
  7
MONOTXT
  0
TEXT
  8
0
 62
7
 10
-8.62499939E+01
 20
-8.24000031E+01
 40
3.20000005E+00
  1
45
 41
1.00000000E+00
  7
MONOTXT
  0
TEXT
  8
0
 62
7
 10
-7.50499939E+01
 20
-8.84000031E+01
 40
3.20000005E+00
  1
0
 41
1.00000000E+00
  7
MONOTXT
  0
TEXT
  8
0
 62
7
 10
-7.66499939E+01
 20
-8.24000031E+01
 40
3.20000005E+00
  1
60
 41
1.00000000E+00
  7
MONOTXT
  0
TEXT
  8
0
 62
7
 10
-1.05449994E+02
 20
-8.24000031E+01
 40
3.20000005E+00
  1
15
 41
1.00000000E+00
  7
MONOTXT
  0
TEXT
  8
0
 62
7
 10
-1.07049994E+02
 20
-8.84000031E+01
 40
3.20000005E+00
  1
-45
 41
1.00000000E+00
  7
MONOTXT
  0
TEXT
  8
0
 62
7
 10
-1.31249994E+02
 20
-8.84000031E+01
 40
3.20000005E+00
  1
STRETCH
 41
1.00000000E+00
  7
MONOTXT
  0
TEXT
  8
0
 62
7
 10
-1.29649994E+02
 20
-8.24000031E+01
 40
3.20000005E+00
  1
STROKE
 41
1.00000000E+00
  7
MONOTXT
  0
LINE
  8
0
 62
7
 10
-6.89999939E+01
 20
-8.98000031E+01
 11
-6.89999939E+01
 21
-7.78000031E+01
  0
LINE
  8
0
 62
7
 10
-7.85999939E+01
 20
-8.98000031E+01
 11
-7.85999939E+01
 21
-7.78000031E+01
  0
LINE
  8
0
 62
7
 10
-8.81999939E+01
 20
-8.98000031E+01
 11
-8.81999939E+01
 21
-7.78000031E+01
  0
LINE
  8
0
 62
7
 10
-1.33399994E+02
 20
-7.78000031E+01
 11
-6.89999939E+01
 21
-7.78000031E+01
  0
LINE
  8
0
 62
7
 10
-9.77999939E+01
 20
-8.98000031E+01
 11
-9.77999939E+01
 21
-7.78000031E+01
  0
LINE
  8
0
 62
7
 10
-1.07399994E+02
 20
-8.98000031E+01
 11
-1.07399994E+02
 21
-7.78000031E+01
  0
LINE
  8
0
 62
7
 10
-1.33399994E+02
 20
-8.38000031E+01
 11
-6.89999939E+01
 21
-8.38000031E+01
  0
LINE
  8
0
 62
7
 10
-1.33399994E+02
 20
-8.98000031E+01
 11
-1.33399994E+02
 21
-7.78000031E+01
  0
LINE
  8
0
 62
7
 10
-1.33399994E+02
 20
-8.98000031E+01
 11
-6.89999939E+01
 21
-8.98000031E+01
  0
TEXT
  8
0
 10
-1.96539868E+01
 20
7.28940908E+01
 40
3.20000005E+00
  1
STRETCH LINE
 41
1.05263158E+00
  7
MONOTXT
  0
LINE
  8
0
 62
7
 10
-1.38399994E+02
 20
9.45000000E+01
 11
1.38350006E+02
 21
9.45000000E+01
  0
LINE
  8
0
 62
7
 10
1.38350006E+02
 20
9.45000000E+01
 11
1.38350006E+02
 21
-9.48000031E+01
  0
LINE
  8
0
 62
7
 10
-1.38399994E+02
 20
-9.48000031E+01
 11
1.38350006E+02
 21
-9.48000031E+01
  0
LINE
  8
0
 62
7
 10
-1.38399994E+02
 20
9.45000000E+01
 11
-1.38399994E+02
 21
-9.48000031E+01
  0
LINE
  8
0
 62
7
 10
7.33500061E+01
 20
-8.48000031E+01
 11
1.38350006E+02
 21
-8.48000031E+01
  0
LINE
  8
0
 62
7
 10
-1.38399994E+02
 20
8.45000000E+01
 11
-7.33999939E+01
 21
8.45000000E+01
  0
LINE
  8
0
 62
7
 10
7.33500061E+01
 20
8.45000000E+01
 11
1.38350006E+02
 21
8.45000000E+01
  0
LINE
  8
0
 62
7
 10
7.33500061E+01
 20
-8.48000031E+01
 11
7.33500061E+01
 21
-9.48000031E+01
  0
LINE
  8
0
 62
7
 10
7.33500061E+01
 20
9.45000000E+01
 11
7.33500061E+01
 21
8.45000000E+01
  0
LINE
  8
0
 62
7
 10
-7.33999939E+01
 20
9.45000000E+01
 11
-7.33999939E+01
 21
8.45000000E+01
  0
TEXT
  8
0
 62
7
 10
7.72426624E+01
 20
-9.20500031E+01
 40
4.50000000E+00
  1
KOGANEI CORP.
 41
1.04838710E+00
  7
MONOTXT
  0
TEXT
  8
0
 62
7
 10
9.35071483E+01
 20
8.79000000E+01
 40
3.20000005E+00
  1
Ver. 1.1
 41
1.08108108E+00
  7
MONOTXT
  0
TEXT
  8
0
 62
7
 10
-1.31042852E+02
 20
8.79000000E+01
 40
3.20000005E+00
  1
NEW PEN CYLINDER
 41
1.08108108E+00
  7
MONOTXT
  0
TEXT
  8
0
 62
7
 10
-1.29085994E+02
 20
7.29000000E+01
 40
3.20000005E+00
  1
MODEL:PBDAUS10*ST(60)-7-ZC230
 41
1.00000000E+00
  7
MONOTXT
  0
ENDSEC
  0
EOF
